  0
SECTION
  2
HEADER
  9
$ACADVER
  1
AC1021
  9
$ACADMAINTVER
 70
    50
  9
$DWGCODEPAGE
  3
ANSI_1252
  9
$INSBASE
 10
0.0
 20
0.0
 30
0.0
  9
$EXTMIN
 10
1.000000000000000E+20
 20
1.000000000000000E+20
 30
1.000000000000000E+20
  9
$EXTMAX
 10
-1.000000000000000E+20
 20
-1.000000000000000E+20
 30
-1.000000000000000E+20
  9
$LIMMIN
 10
0.0
 20
0.0
  9
$LIMMAX
 10
12.0
 20
9.0
  9
$ORTHOMODE
 70
     0
  9
$REGENMODE
 70
     1
  9
$FILLMODE
 70
     1
  9
$QTEXTMODE
 70
     0
  9
$MIRRTEXT
 70
     0
  9
$LTSCALE
 40
1.0
  9
$ATTMODE
 70
     1
  9
$TEXTSIZE
 40
0.2
  9
$TRACEWID
 40
0.05
  9
$TEXTSTYLE
  7
Standard
  9
$CLAYER
  8
0
  9
$CELTYPE
  6
ByLayer
  9
$CECOLOR
 62
   256
  9
$CELTSCALE
 40
1.0
  9
$DISPSILH
 70
     0
  9
$DIMSCALE
 40
1.0
  9
$DIMASZ
 40
0.18
  9
$DIMEXO
 40
0.0625
  9
$DIMDLI
 40
0.38
  9
$DIMRND
 40
0.0
  9
$DIMDLE
 40
0.0
  9
$DIMEXE
 40
0.18
  9
$DIMTP
 40
0.0
  9
$DIMTM
 40
0.0
  9
$DIMTXT
 40
0.18
  9
$DIMCEN
 40
0.09
  9
$DIMTSZ
 40
0.0
  9
$DIMTOL
 70
     0
  9
$DIMLIM
 70
     0
  9
$DIMTIH
 70
     1
  9
$DIMTOH
 70
     1
  9
$DIMSE1
 70
     0
  9
$DIMSE2
 70
     0
  9
$DIMTAD
 70
     0
  9
$DIMZIN
 70
     0
  9
$DIMBLK
  1

  9
$DIMASO
 70
     1
  9
$DIMSHO
 70
     1
  9
$DIMPOST
  1

  9
$DIMAPOST
  1

  9
$DIMALT
 70
     0
  9
$DIMALTD
 70
     2
  9
$DIMALTF
 40
25.4
  9
$DIMLFAC
 40
1.0
  9
$DIMTOFL
 70
     0
  9
$DIMTVP
 40
0.0
  9
$DIMTIX
 70
     0
  9
$DIMSOXD
 70
     0
  9
$DIMSAH
 70
     0
  9
$DIMBLK1
  1

  9
$DIMBLK2
  1

  9
$DIMSTYLE
  2
Standard
  9
$DIMCLRD
 70
     0
  9
$DIMCLRE
 70
     0
  9
$DIMCLRT
 70
     0
  9
$DIMTFAC
 40
1.0
  9
$DIMGAP
 40
0.09
  9
$DIMJUST
 70
     0
  9
$DIMSD1
 70
     0
  9
$DIMSD2
 70
     0
  9
$DIMTOLJ
 70
     1
  9
$DIMTZIN
 70
     0
  9
$DIMALTZ
 70
     0
  9
$DIMALTTZ
 70
     0
  9
$DIMUPT
 70
     0
  9
$DIMDEC
 70
     4
  9
$DIMTDEC
 70
     4
  9
$DIMALTU
 70
     2
  9
$DIMALTTD
 70
     2
  9
$DIMTXSTY
  7
Standard
  9
$DIMAUNIT
 70
     0
  9
$DIMADEC
 70
     0
  9
$DIMALTRND
 40
0.0
  9
$DIMAZIN
 70
     0
  9
$DIMDSEP
 70
    46
  9
$DIMATFIT
 70
     3
  9
$DIMFRAC
 70
     0
  9
$DIMLDRBLK
  1

  9
$DIMLUNIT
 70
     2
  9
$DIMLWD
 70
    -2
  9
$DIMLWE
 70
    -2
  9
$DIMTMOVE
 70
     0
  9
$DIMFXL
 40
1.0
  9
$DIMFXLON
 70
     0
  9
$DIMJOGANG
 40
0.7853981633974483
  9
$DIMTFILL
 70
     0
  9
$DIMTFILLCLR
 70
     0
  9
$DIMARCSYM
 70
     0
  9
$DIMLTYPE
  6

  9
$DIMLTEX1
  6

  9
$DIMLTEX2
  6

  9
$LUNITS
 70
     2
  9
$LUPREC
 70
     4
  9
$SKETCHINC
 40
0.1
  9
$FILLETRAD
 40
0.0
  9
$AUNITS
 70
     0
  9
$AUPREC
 70
     0
  9
$MENU
  1
.
  9
$ELEVATION
 40
0.0
  9
$PELEVATION
 40
0.0
  9
$THICKNESS
 40
0.0
  9
$LIMCHECK
 70
     0
  9
$CHAMFERA
 40
0.0
  9
$CHAMFERB
 40
0.0
  9
$CHAMFERC
 40
0.0
  9
$CHAMFERD
 40
0.0
  9
$SKPOLY
 70
     0
  9
$TDCREATE
 40
2459010.538888889
  9
$TDUCREATE
 40
2459010.830555556
  9
$TDUPDATE
 40
2459010.538888889
  9
$TDUUPDATE
 40
2459010.830555556
  9
$TDINDWG
 40
0.0000000000
  9
$TDUSRTIMER
 40
0.0000000000
  9
$USRTIMER
 70
     1
  9
$ANGBASE
 50
0.0
  9
$ANGDIR
 70
     0
  9
$PDMODE
 70
     0
  9
$PDSIZE
 40
0.0
  9
$PLINEWID
 40
0.0
  9
$SPLFRAME
 70
     0
  9
$SPLINETYPE
 70
     6
  9
$SPLINESEGS
 70
     8
  9
$HANDSEED
  5
255
  9
$SURFTAB1
 70
     6
  9
$SURFTAB2
 70
     6
  9
$SURFTYPE
 70
     6
  9
$SURFU
 70
     6
  9
$SURFV
 70
     6
  9
$UCSBASE
  2

  9
$UCSNAME
  2

  9
$UCSORG
 10
0.0
 20
0.0
 30
0.0
  9
$UCSXDIR
 10
1.0
 20
0.0
 30
0.0
  9
$UCSYDIR
 10
0.0
 20
1.0
 30
0.0
  9
$UCSORTHOREF
  2

  9
$UCSORTHOVIEW
 70
     0
  9
$UCSORGTOP
 10
0.0
 20
0.0
 30
0.0
  9
$UCSORGBOTTOM
 10
0.0
 20
0.0
 30
0.0
  9
$UCSORGLEFT
 10
0.0
 20
0.0
 30
0.0
  9
$UCSORGRIGHT
 10
0.0
 20
0.0
 30
0.0
  9
$UCSORGFRONT
 10
0.0
 20
0.0
 30
0.0
  9
$UCSORGBACK
 10
0.0
 20
0.0
 30
0.0
  9
$PUCSBASE
  2

  9
$PUCSNAME
  2

  9
$PUCSORG
 10
0.0
 20
0.0
 30
0.0
  9
$PUCSXDIR
 10
1.0
 20
0.0
 30
0.0
  9
$PUCSYDIR
 10
0.0
 20
1.0
 30
0.0
  9
$PUCSORTHOREF
  2

  9
$PUCSORTHOVIEW
 70
     0
  9
$PUCSORGTOP
 10
0.0
 20
0.0
 30
0.0
  9
$PUCSORGBOTTOM
 10
0.0
 20
0.0
 30
0.0
  9
$PUCSORGLEFT
 10
0.0
 20
0.0
 30
0.0
  9
$PUCSORGRIGHT
 10
0.0
 20
0.0
 30
0.0
  9
$PUCSORGFRONT
 10
0.0
 20
0.0
 30
0.0
  9
$PUCSORGBACK
 10
0.0
 20
0.0
 30
0.0
  9
$USERI1
 70
     0
  9
$USERI2
 70
     0
  9
$USERI3
 70
     0
  9
$USERI4
 70
     0
  9
$USERI5
 70
     0
  9
$USERR1
 40
0.0
  9
$USERR2
 40
0.0
  9
$USERR3
 40
0.0
  9
$USERR4
 40
0.0
  9
$USERR5
 40
0.0
  9
$WORLDVIEW
 70
     1
  9
$SHADEDGE
 70
     3
  9
$SHADEDIF
 70
    70
  9
$TILEMODE
 70
     1
  9
$MAXACTVP
 70
    64
  9
$PINSBASE
 10
0.0
 20
0.0
 30
0.0
  9
$PLIMCHECK
 70
     0
  9
$PEXTMIN
 10
1.000000000000000E+20
 20
1.000000000000000E+20
 30
1.000000000000000E+20
  9
$PEXTMAX
 10
-1.000000000000000E+20
 20
-1.000000000000000E+20
 30
-1.000000000000000E+20
  9
$PLIMMIN
 10
0.0
 20
0.0
  9
$PLIMMAX
 10
12.0
 20
9.0
  9
$UNITMODE
 70
     0
  9
$VISRETAIN
 70
     1
  9
$PLINEGEN
 70
     0
  9
$PSLTSCALE
 70
     1
  9
$TREEDEPTH
 70
  3020
  9
$CMLSTYLE
  2
Standard
  9
$CMLJUST
 70
     0
  9
$CMLSCALE
 40
1.0
  9
$PROXYGRAPHICS
 70
     1
  9
$MEASUREMENT
 70
     0
  9
$CELWEIGHT
370
    -1
  9
$ENDCAPS
280
     0
  9
$JOINSTYLE
280
     0
  9
$LWDISPLAY
290
     0
  9
$INSUNITS
 70
     0
  9
$HYPERLINKBASE
  1

  9
$STYLESHEET
  1

  9
$XEDIT
290
     1
  9
$CEPSNTYPE
380
     0
  9
$PSTYLEMODE
290
     1
  9
$FINGERPRINTGUID
  2
{3E97C662-2ABA-524C-AA90-720773C77D80}
  9
$VERSIONGUID
  2
{0F0F554F-0567-334E-9F8F-6186083D0E38}
  9
$EXTNAMES
290
     1
  9
$PSVPSCALE
 40
0.0
  9
$OLESTARTUP
290
     0
  9
$SORTENTS
280
   127
  9
$INDEXCTL
280
     0
  9
$HIDETEXT
280
     1
  9
$XCLIPFRAME
290
     0
  9
$HALOGAP
280
     0
  9
$OBSCOLOR
 70
   257
  9
$OBSLTYPE
280
     0
  9
$INTERSECTIONDISPLAY
280
     0
  9
$INTERSECTIONCOLOR
 70
   257
  9
$DIMASSOC
280
     2
  9
$PROJECTNAME
  1

  9
$CAMERADISPLAY
290
     0
  9
$LENSLENGTH
 40
50.0
  9
$CAMERAHEIGHT
 40
0.0
  9
$STEPSPERSEC
 40
2.0
  9
$STEPSIZE
 40
6.0
  9
$3DDWFPREC
 40
2.0
  9
$PSOLWIDTH
 40
0.25
  9
$PSOLHEIGHT
 40
4.0
  9
$LOFTANG1
 40
1.570796326794896
  9
$LOFTANG2
 40
1.570796326794896
  9
$LOFTMAG1
 40
0.0
  9
$LOFTMAG2
 40
0.0
  9
$LOFTPARAM
 70
     7
  9
$LOFTNORMALS
280
     1
  9
$LATITUDE
 40
37.795
  9
$LONGITUDE
 40
-122.394
  9
$NORTHDIRECTION
 40
0.0
  9
$TIMEZONE
 70
 -8000
  9
$LIGHTGLYPHDISPLAY
280
     1
  9
$TILEMODELIGHTSYNCH
280
     1
  9
$CMATERIAL
347
11
  9
$SOLIDHIST
280
     0
  9
$SHOWHIST
280
     1
  9
$DWFFRAME
280
     2
  9
$DGNFRAME
280
     0
  9
$REALWORLDSCALE
290
     1
  9
$INTERFERECOLOR
 62
     1
  9
$INTERFEREOBJVS
345
33
  9
$INTERFEREVPVS
346
30
  9
$CSHADOW
280
     0
  9
$SHADOWPLANELOCATION
 40
0.0
  0
ENDSEC
  0
SECTION
  2
CLASSES
  0
CLASS
  1
ACDBDICTIONARYWDFLT
  2
AcDbDictionaryWithDefault
  3
ObjectDBX Classes
 90
        0
 91
        1
280
     0
281
     0
  0
CLASS
  1
MATERIAL
  2
AcDbMaterial
  3
ObjectDBX Classes
 90
     1153
 91
        3
280
     0
281
     0
  0
CLASS
  1
VISUALSTYLE
  2
AcDbVisualStyle
  3
ObjectDBX Classes
 90
     4095
 91
       24
280
     0
281
     0
  0
CLASS
  1
SCALE
  2
AcDbScale
  3
ObjectDBX Classes
 90
     1153
 91
       17
280
     0
281
     0
  0
CLASS
  1
TABLESTYLE
  2
AcDbTableStyle
  3
ObjectDBX Classes
 90
     4095
 91
        1
280
     0
281
     0
  0
CLASS
  1
MLEADERSTYLE
  2
AcDbMLeaderStyle
  3
ACDB_MLEADERSTYLE_CLASS
 90
     4095
 91
        1
280
     0
281
     0
  0
CLASS
  1
ACDBSECTIONVIEWSTYLE
  2
AcDbSectionViewStyle
  3
ObjectDBX Classes
 90
     1025
 91
        1
280
     0
281
     0
  0
CLASS
  1
ACDBDETAILVIEWSTYLE
  2
AcDbDetailViewStyle
  3
ObjectDBX Classes
 90
     1025
 91
        1
280
     0
281
     0
  0
CLASS
  1
DICTIONARYVAR
  2
AcDbDictionaryVar
  3
ObjectDBX Classes
 90
        0
 91
        6
280
     0
281
     0
  0
CLASS
  1
CELLSTYLEMAP
  2
AcDbCellStyleMap
  3
ObjectDBX Classes
 90
     1152
 91
        1
280
     0
281
     0
  0
ENDSEC
  0
SECTION
  2
TABLES
  0
TABLE
  2
VPORT
  5
8
330
0
100
AcDbSymbolTable
 70
     1
  0
VPORT
  5
57
330
8
100
AcDbSymbolTableRecord
100
AcDbViewportTableRecord
  2
*Active
 70
     0
 10
0.0
 20
0.0
 11
1.0
 21
1.0
 12
500.0
 22
500.0
 13
0.0
 23
0.0
 14
1.0
 24
1.0
 15
0.0
 25
0.0
 16
0.0
 26
0.0
 36
1.0
 17
0.0
 27
0.0
 37
0.0
 40
12.0
 41
1.0
 42
50.0
 43
0.0
 44
0.0
 50
0.0
 51
0.0
 71
     0
 72
   100
 73
     1
 74
     1
 75
     0
 76
     0
 77
     0
 78
     0
281
     0
 65
     1
110
0.0
120
0.0
130
0.0
111
1.0
121
0.0
131
0.0
112
0.0
122
1.0
132
0.0
 79
     0
146
0.0
 60
     3
 61
     5
292
     1
282
     1
141
0.0
142
0.0
 63
   250
421
  3355443
  0
ENDTAB
  0
TABLE
  2
LTYPE
  5
5
330
0
100
AcDbSymbolTable
 70
     1
  0
LTYPE
  5
5B
330
5
100
AcDbSymbolTableRecord
100
AcDbLinetypeTableRecord
  2
ByBlock
 70
     0
  3

 72
    65
 73
     0
 40
0.0
  0
LTYPE
  5
5C
330
5
100
AcDbSymbolTableRecord
100
AcDbLinetypeTableRecord
  2
ByLayer
 70
     0
  3

 72
    65
 73
     0
 40
0.0
  0
LTYPE
  5
5D
330
5
100
AcDbSymbolTableRecord
100
AcDbLinetypeTableRecord
  2
Continuous
 70
     0
  3
Solid line
 72
    65
 73
     0
 40
0.0
  0
ENDTAB
  0
TABLE
  2
LAYER
  5
2
330
0
100
AcDbSymbolTable
 70
     2
  0
LAYER
  5
54
330
2
100
AcDbSymbolTableRecord
100
AcDbLayerTableRecord
  2
0
 70
     0
 62
     7
  6
Continuous
370
    -3
390
F
347
21
  0
LAYER
  5
78
330
2
100
AcDbSymbolTableRecord
100
AcDbLayerTableRecord
  2
Vector Layer 1
 70
     0
 62
     7
  6
Continuous
370
    30
390
F
347
21
  0
ENDTAB
  0
TABLE
  2
STYLE
  5
3
330
0
100
AcDbSymbolTable
 70
     2
  0
STYLE
  5
55
330
3
100
AcDbSymbolTableRecord
100
AcDbTextStyleTableRecord
  2
Standard
 70
     0
 40
0.0
 41
1.0
 50
0.0
 71
     0
 42
0.2
  3
txt
  4

  0
STYLE
  5
5A
330
3
100
AcDbSymbolTableRecord
100
AcDbTextStyleTableRecord
  2
Annotative
 70
     0
 40
0.0
 41
1.0
 50
0.0
 71
     0
 42
0.2
  3
txt
  4

1001
AcadAnnotative
1000
AnnotativeData
1002
{
1070
     1
1070
     1
1002
}
  0
ENDTAB
  0
TABLE
  2
VIEW
  5
6
330
0
100
AcDbSymbolTable
 70
     0
  0
ENDTAB
  0
TABLE
  2
UCS
  5
7
330
0
100
AcDbSymbolTable
 70
     0
  0
ENDTAB
  0
TABLE
  2
APPID
  5
9
330
0
100
AcDbSymbolTable
 70
     3
  0
APPID
  5
56
330
9
100
AcDbSymbolTableRecord
100
AcDbRegAppTableRecord
  2
ACAD
 70
     0
  0
APPID
  5
5E
330
9
100
AcDbSymbolTableRecord
100
AcDbRegAppTableRecord
  2
AcadAnnotative
 70
     0
  0
APPID
  5
24E
330
9
100
AcDbSymbolTableRecord
100
AcDbRegAppTableRecord
  2
ACAD_MLEADERVER
 70
     0
  0
ENDTAB
  0
TABLE
  2
DIMSTYLE
  5
A
330
0
100
AcDbSymbolTable
 70
     2
100
AcDbDimStyleTable
 71
     0
  0
DIMSTYLE
105
58
330
A
100
AcDbSymbolTableRecord
100
AcDbDimStyleTableRecord
  2
Standard
 70
     0
340
55
  0
DIMSTYLE
105
59
330
A
100
AcDbSymbolTableRecord
100
AcDbDimStyleTableRecord
  2
Annotative
 70
     0
340
55
1001
AcadAnnotative
1000
AnnotativeData
1002
{
1070
     1
1070
     1
1002
}
  0
ENDTAB
  0
TABLE
  2
BLOCK_RECORD
  5
1
330
0
100
AcDbSymbolTable
 70
     1
  0
BLOCK_RECORD
  5
70
330
1
100
AcDbSymbolTableRecord
100
AcDbBlockTableRecord
  2
*Model_Space
340
73
 70
     0
280
     1
281
     0
  0
BLOCK_RECORD
  5
6C
330
1
100
AcDbSymbolTableRecord
100
AcDbBlockTableRecord
  2
*Paper_Space
340
6F
 70
     0
280
     1
281
     0
  0
BLOCK_RECORD
  5
74
330
1
100
AcDbSymbolTableRecord
100
AcDbBlockTableRecord
  2
*Paper_Space0
340
77
 70
     0
280
     1
281
     0
  0
ENDTAB
  0
ENDSEC
  0
SECTION
  2
BLOCKS
  0
BLOCK
  5
71
330
70
100
AcDbEntity
  8
0
100
AcDbBlockBegin
  2
*Model_Space
 70
     0
 10
0.0
 20
0.0
 30
0.0
  3
*Model_Space
  1

  0
ENDBLK
  5
72
330
70
100
AcDbEntity
  8
0
100
AcDbBlockEnd
  0
BLOCK
  5
6D
330
6C
100
AcDbEntity
 67
     1
  8
0
100
AcDbBlockBegin
  2
*Paper_Space
 70
     0
 10
0.0
 20
0.0
 30
0.0
  3
*Paper_Space
  1

  0
ENDBLK
  5
6E
330
6C
100
AcDbEntity
 67
     1
  8
0
100
AcDbBlockEnd
  0
BLOCK
  5
75
330
74
100
AcDbEntity
 67
     1
  8
0
100
AcDbBlockBegin
  2
*Paper_Space0
 70
     0
 10
0.0
 20
0.0
 30
0.0
  3
*Paper_Space0
  1

  0
ENDBLK
  5
76
330
74
100
AcDbEntity
 67
     1
  8
0
100
AcDbBlockEnd
  0
ENDSEC
  0
SECTION
  2
ENTITIES
  0
LINE
  5
79
330
70
100
AcDbEntity
  8
Vector Layer 1
 62
    18
420
        0
370
    30
100
AcDbLine
 10
-0.9996000005072733
 20
2.251211707256392
 30
0.0
 11
8.161766273016906
 21
2.251211707256392
 31
0.0
  0
LINE
  5
7A
330
70
100
AcDbEntity
  8
Vector Layer 1
 62
    18
420
        0
370
    30
100
AcDbLine
 10
-0.9996000005072733
 20
-2.349304706159667
 30
0.0
 11
8.161766273016908
 21
-2.349304706159667
 31
0.0
  0
LINE
  5
7B
330
70
100
AcDbEntity
  8
Vector Layer 1
 62
    18
420
        0
370
    30
100
AcDbLine
 10
-0.9996000005072733
 20
2.57432137704626
 30
0.0
 11
8.161766273016906
 21
2.57432137704626
 31
0.0
  0
LINE
  5
7C
330
70
100
AcDbEntity
  8
Vector Layer 1
 62
    18
420
        0
370
    30
100
AcDbLine
 10
-0.9996000005072733
 20
-2.668125917242261
 30
0.0
 11
8.161766273016908
 21
-2.668125917242261
 31
0.0
  0
LWPOLYLINE
  5
7D
330
70
100
AcDbEntity
  8
Vector Layer 1
 62
    18
420
        0
370
    30
100
AcDbPolyline
 90
        4
 70
     0
 43
0.0
 10
-0.4728937308120856
 20
-2.142606813475778
 10
-0.3747875571592388
 20
-1.931444948396713
 10
-0.3747875571592388
 20
-1.931444948396713
 10
-0.4728937308120856
 20
-1.72402046146064
  0
LINE
  5
7E
330
70
100
AcDbEntity
  8
Vector Layer 1
 62
    18
420
        0
370
    30
100
AcDbLine
 10
-0.4728937308120856
 20
-2.142606813475778
 30
0.0
 11
-0.4728937308120856
 21
-1.72402046146064
 31
0.0
  0
LWPOLYLINE
  5
7F
330
70
100
AcDbEntity
  8
Vector Layer 1
 62
    18
420
        0
370
    30
100
AcDbPolyline
 90
        4
 70
     0
 43
0.0
 10
0.3747875571592388
 20
-1.931444948396713
 10
0.4728937308120855
 20
-1.933313637468209
 10
0.4728937308120855
 20
-1.933313637468209
 10
0.5659227322920506
 20
-1.931444948396713
210
0.0
220
0.0
230
-1.0
  0
LWPOLYLINE
  5
80
330
70
100
AcDbEntity
  8
Vector Layer 1
 62
    18
420
        0
370
    30
100
AcDbPolyline
 90
        6
 70
     0
 43
0.0
 10
0.4728937308120855
 20
-2.142606813475778
 10
0.5659227322920506
 20
-1.931444948396713
 10
0.5659227322920506
 20
-1.931444948396713
 10
0.4728937308120855
 20
-1.72402046146064
 10
0.4728937308120855
 20
-1.72402046146064
 10
0.4728937308120855
 20
-2.142606813475778
210
0.0
220
0.0
230
-1.0
  0
LWPOLYLINE
  5
81
330
70
100
AcDbEntity
  8
Vector Layer 1
 62
    18
420
        0
370
    30
100
AcDbPolyline
 90
        4
 70
     0
 43
0.0
 10
0.4728937308120856
 20
2.142606813475778
 10
0.3747875571592388
 20
1.931444948396713
 10
0.3747875571592388
 20
1.931444948396713
 10
0.4728937308120856
 20
1.72402046146064
210
0.0
220
0.0
230
-1.0
  0
LINE
  5
82
330
70
100
AcDbEntity
  8
Vector Layer 1
 62
    18
420
        0
370
    30
100
AcDbLine
 10
-0.4728937308120856
 20
2.142606813475778
 30
0.0
 11
-0.4728937308120856
 21
1.72402046146064
 31
0.0
  0
LWPOLYLINE
  5
83
330
70
100
AcDbEntity
  8
Vector Layer 1
 62
    18
420
        0
370
    30
100
AcDbPolyline
 90
        4
 70
     0
 43
0.0
 10
-0.3747875571592388
 20
1.931444948396713
 10
-0.4728937308120855
 20
1.933313637468209
 10
-0.4728937308120855
 20
1.933313637468209
 10
-0.5659227322920506
 20
1.931444948396713
  0
LWPOLYLINE
  5
84
330
70
100
AcDbEntity
  8
Vector Layer 1
 62
    18
420
        0
370
    30
100
AcDbPolyline
 90
        6
 70
     0
 43
0.0
 10
-0.4728937308120855
 20
2.142606813475778
 10
-0.5659227322920506
 20
1.931444948396713
 10
-0.5659227322920506
 20
1.931444948396713
 10
-0.4728937308120855
 20
1.72402046146064
 10
-0.4728937308120855
 20
1.72402046146064
 10
-0.4728937308120855
 20
2.142606813475778
  0
POLYLINE
  5
85
330
70
100
AcDbEntity
  8
Vector Layer 1
 62
    18
420
        0
370
    30
100
AcDb3dPolyline
 66
     1
 10
0.0
 20
0.0
 30
0.0
 70
     8
  0
VERTEX
  5
86
330
85
100
AcDbEntity
  8
0
 62
    18
420
        0
100
AcDbVertex
100
AcDb3dPolylineVertex
 10
0.3068398975330017
 20
-1.520056958579326
 30
0.0
 70
    32
  0
VERTEX
  5
87
330
85
100
AcDbEntity
  8
0
 62
    18
420
        0
100
AcDbVertex
100
AcDb3dPolylineVertex
 10
0.3068398975330017
 20
-1.492210856316729
 30
0.0
 70
    32
  0
VERTEX
  5
88
330
85
100
AcDbEntity
  8
0
 62
    18
420
        0
100
AcDbVertex
100
AcDb3dPolylineVertex
 10
0.3068398975330017
 20
1.486917640986193
 30
0.0
 70
    32
  0
VERTEX
  5
89
330
85
100
AcDbEntity
  8
0
 62
    18
420
        0
100
AcDbVertex
100
AcDb3dPolylineVertex
 10
0.3068398975330017
 20
1.51476374324879
 30
0.0
 70
    32
  0
SEQEND
  5
8A
330
85
100
AcDbEntity
  8
Vector Layer 1
 62
    18
420
        0
370
    30
  0
LWPOLYLINE
  5
8B
330
70
100
AcDbEntity
  8
Vector Layer 1
 62
    18
420
        0
370
    30
100
AcDbPolyline
 90
        4
 70
     0
 43
0.0
 10
-0.4422952158019641
 20
-1.544131899354389
 42
0.3848385995632521
 10
-0.068561951916825
 20
-1.881793859962471
 10
-0.0685619519168251
 20
-1.881793859962472
 42
0.4033968148289162
 10
0.3068398975330018
 20
-1.520056958579326
  0
POLYLINE
  5
8C
330
70
100
AcDbEntity
  8
Vector Layer 1
 62
    18
420
        0
370
    30
100
AcDb3dPolyline
 66
     1
 10
0.0
 20
0.0
 30
0.0
 70
     8
  0
VERTEX
  5
8D
330
8C
100
AcDbEntity
  8
0
 62
    18
420
        0
100
AcDbVertex
100
AcDb3dPolylineVertex
 10
-0.4422952158019641
 20
1.538838684023853
 30
0.0
 70
    32
  0
VERTEX
  5
8E
330
8C
100
AcDbEntity
  8
0
 62
    18
420
        0
100
AcDbVertex
100
AcDb3dPolylineVertex
 10
-0.4422952158019641
 20
1.462842700211128
 30
0.0
 70
    32
  0
VERTEX
  5
8F
330
8C
100
AcDbEntity
  8
0
 62
    18
420
        0
100
AcDbVertex
100
AcDb3dPolylineVertex
 10
-0.4422952158019641
 20
-1.468135915541663
 30
0.0
 70
    32
  0
VERTEX
  5
90
330
8C
100
AcDbEntity
  8
0
 62
    18
420
        0
100
AcDbVertex
100
AcDb3dPolylineVertex
 10
-0.4422952158019641
 20
-1.54413189935439
 30
0.0
 70
    32
  0
SEQEND
  5
91
330
8C
100
AcDbEntity
  8
Vector Layer 1
 62
    18
420
        0
370
    30
  0
LWPOLYLINE
  5
92
330
70
100
AcDbEntity
  8
Vector Layer 1
 62
    18
420
        0
370
    30
100
AcDbPolyline
 90
        4
 70
     0
 43
0.0
 10
0.4422952158019641
 20
1.538838684023854
 42
0.3848385995632524
 10
0.0685619519168248
 20
1.876500644631936
 10
0.0685619519168248
 20
1.876500644631936
 42
0.4033968148289142
 10
-0.3068398975330017
 20
1.514763743248793
210
0.0
220
0.0
230
-1.0
  0
LWPOLYLINE
  5
93
330
70
100
AcDbEntity
  8
Vector Layer 1
 62
    18
420
        0
370
    30
100
AcDbPolyline
 90
       28
 70
     0
 43
0.0
 10
-0.3216561217605234
 20
-1.568036022781017
 10
-0.3100987830645313
 20
-1.593778432396877
 10
-0.2969308191884889
 20
-1.618085111823255
 10
-0.2822475744637115
 20
-1.640847552070874
 10
-0.2661443932215144
 20
-1.661957244150455
 10
-0.248716619793213
 20
-1.681305679072721
 10
-0.2300595985101226
 20
-1.698784347848393
 10
-0.2102686737035584
 20
-1.714284741488194
 10
-0.1894391897048359
 20
-1.727698351002845
 10
-0.1676664908452702
 20
-1.738916667403069
 10
-0.1450459214561768
 20
-1.747831181699587
 10
-0.1216728258688708
 20
-1.754333384903121
 10
-0.0976425484146678
 20
-1.758314768024393
 10
-0.0730504334248828
 20
-1.759666822074127
 10
-0.0730504334248829
 20
-1.759666822074127
 10
-0.0483361732732403
 20
-1.75830549679635
 10
-0.0242112520514376
 20
-1.754296858810355
 10
-0.0007687095285161
 20
-1.747753914887147
 10
0.0218984145264834
 20
-1.73878967179773
 10
0.0436970803445198
 20
-1.727517136313109
 10
0.0645342481565521
 20
-1.714049315204288
 10
0.0843168781935391
 20
-1.698499215242271
 10
0.1029519306864399
 20
-1.680979843198064
 10
0.1203463658662136
 20
-1.66160420584267
 10
0.1364071439638189
 20
-1.640485309947095
 10
0.1510412252102149
 20
-1.617736162282342
 10
0.1641555698363607
 20
-1.593469769619416
 10
0.175657138073215
 20
-1.567799138729322
  0
LWPOLYLINE
  5
94
330
70
100
AcDbEntity
  8
Vector Layer 1
 62
    18
420
        0
370
    30
100
AcDbPolyline
 90
       28
 70
     0
 43
0.0
 10
0.3216561217605234
 20
1.565744423861799
 10
0.3100987830645313
 20
1.591486833477659
 10
0.2969308191884889
 20
1.615793512904038
 10
0.2822475744637115
 20
1.638555953151657
 10
0.2661443932215145
 20
1.659665645231238
 10
0.2487166197932131
 20
1.679014080153504
 10
0.2300595985101227
 20
1.696492748929176
 10
0.2102686737035586
 20
1.711993142568976
 10
0.189439189704836
 20
1.725406752083627
 10
0.1676664908452703
 20
1.736625068483851
 10
0.1450459214561769
 20
1.745539582780368
 10
0.121672825868871
 20
1.752041785983903
 10
0.0976425484146679
 20
1.756023169105175
 10
0.0730504334248829
 20
1.757375223154909
 10
0.0730504334248829
 20
1.757375223154909
 10
0.0483361732732404
 20
1.756013897877132
 10
0.0242112520514379
 20
1.752005259891137
 10
0.0007687095285164
 20
1.74546231596793
 10
-0.0218984145264831
 20
1.736498072878513
 10
-0.0436970803445194
 20
1.725225537393892
 10
-0.0645342481565516
 20
1.71175771628507
 10
-0.0843168781935386
 20
1.696207616323054
 10
-0.1029519306864395
 20
1.678688244278847
 10
-0.1203463658662131
 20
1.659312606923453
 10
-0.1364071439638186
 20
1.638193711027877
 10
-0.1510412252102147
 20
1.615444563363124
 10
-0.1641555698363606
 20
1.591178170700199
 10
-0.1756571380732151
 20
1.565507539810104
210
0.0
220
0.0
230
-1.0
  0
LINE
  5
95
330
70
100
AcDbEntity
  8
Vector Layer 1
 62
    18
420
        0
370
    30
100
AcDbLine
 10
0.175657138073215
 20
1.565507539810104
 30
0.0
 11
0.175657138073215
 21
-1.567799138729321
 31
0.0
  0
LINE
  5
96
330
70
100
AcDbEntity
  8
Vector Layer 1
 62
    18
420
        0
370
    30
100
AcDbLine
 10
-0.3216561217605234
 20
1.565744423861799
 30
0.0
 11
-0.3216561217605234
 21
-1.568036022781017
 31
0.0
  0
POLYLINE
  5
97
330
70
100
AcDbEntity
  8
Vector Layer 1
 62
    18
420
        0
370
    30
100
AcDb3dPolyline
 66
     1
 10
0.0
 20
0.0
 30
0.0
 70
     8
  0
VERTEX
  5
98
330
97
100
AcDbEntity
  8
0
 62
    18
420
        0
100
AcDbVertex
100
AcDb3dPolylineVertex
 10
-0.5066551459027768
 20
-1.520056958579326
 30
0.0
 70
    32
  0
VERTEX
  5
99
330
97
100
AcDbEntity
  8
0
 62
    18
420
        0
100
AcDbVertex
100
AcDb3dPolylineVertex
 10
-0.5066551459027768
 20
-1.492210856316729
 30
0.0
 70
    32
  0
VERTEX
  5
9A
330
97
100
AcDbEntity
  8
0
 62
    18
420
        0
100
AcDbVertex
100
AcDb3dPolylineVertex
 10
-0.5066551459027768
 20
1.486917640986193
 30
0.0
 70
    32
  0
VERTEX
  5
9B
330
97
100
AcDbEntity
  8
0
 62
    18
420
        0
100
AcDbVertex
100
AcDb3dPolylineVertex
 10
-0.5066551459027768
 20
1.51476374324879
 30
0.0
 70
    32
  0
SEQEND
  5
9C
330
97
100
AcDbEntity
  8
Vector Layer 1
 62
    18
420
        0
370
    30
  0
LINE
  5
9D
330
70
100
AcDbEntity
  8
Vector Layer 1
 62
    18
420
        0
370
    30
100
AcDbLine
 10
-0.6378379053625634
 20
1.565507539810104
 30
0.0
 11
-0.6378379053625634
 21
-1.567799138729321
 31
0.0
  0
LWPOLYLINE
  5
9E
330
70
100
AcDbEntity
  8
Vector Layer 1
 62
    18
420
        0
370
    30
100
AcDbPolyline
 90
        4
 70
     0
 43
0.0
 10
0.999600000507273
 20
1.857637611754368
 42
0.0797288045602062
 10
0.8820569953526032
 20
1.876500644631935
 10
0.8820569953526032
 20
1.876500644631936
 42
0.4033968148289141
 10
0.5066551459027769
 20
1.514763743248793
210
0.0
220
0.0
230
-1.0
  0
LWPOLYLINE
  5
9F
330
70
100
AcDbEntity
  8
Vector Layer 1
 62
    18
420
        0
370
    30
100
AcDbPolyline
 90
       20
 70
     0
 43
0.0
 10
0.9996000005072733
 20
1.727295364518838
 10
0.9783876838809945
 20
1.737860112395274
 10
0.956389370465118
 20
1.746248944532899
 10
0.9336917629977195
 20
1.752363388595912
 10
0.9103815642168752
 20
1.756104972248515
 10
0.8865454768606612
 20
1.757375223154909
 10
0.8865454768606612
 20
1.757375223154909
 10
0.8618312167090188
 20
1.756013897877132
 10
0.8377062954872162
 20
1.752005259891137
 10
0.8142637529642946
 20
1.74546231596793
 10
0.7915966289092954
 20
1.736498072878513
 10
0.769797963091259
 20
1.725225537393892
 10
0.7489607952792269
 20
1.71175771628507
 10
0.7291781652422399
 20
1.696207616323054
 10
0.7105431127493391
 20
1.678688244278847
 10
0.6931486775695653
 20
1.659312606923453
 10
0.6770878994719599
 20
1.638193711027877
 10
0.6624538182255639
 20
1.615444563363124
 10
0.649339473599418
 20
1.591178170700199
 10
0.6378379053625635
 20
1.565507539810104
210
0.0
220
0.0
230
-1.0
  0
LWPOLYLINE
  5
A0
330
70
100
AcDbEntity
  8
Vector Layer 1
 62
    18
420
        0
370
    30
100
AcDbPolyline
 90
       20
 70
     0
 43
0.0
 10
-0.9996000005072733
 20
-1.729586963438056
 10
-0.9783876838809945
 20
-1.740151711314492
 10
-0.956389370465118
 20
-1.748540543452117
 10
-0.9336917629977197
 20
-1.75465498751513
 10
-0.9103815642168754
 20
-1.758396571167733
 10
-0.8865454768606612
 20
-1.759666822074127
 10
-0.8865454768606612
 20
-1.759666822074127
 10
-0.8618312167090186
 20
-1.75830549679635
 10
-0.837706295487216
 20
-1.754296858810355
 10
-0.8142637529642943
 20
-1.747753914887147
 10
-0.791596628909295
 20
-1.73878967179773
 10
-0.7697979630912587
 20
-1.727517136313109
 10
-0.7489607952792264
 20
-1.714049315204288
 10
-0.7291781652422395
 20
-1.698499215242271
 10
-0.7105431127493387
 20
-1.680979843198064
 10
-0.6931486775695652
 20
-1.66160420584267
 10
-0.6770878994719598
 20
-1.640485309947095
 10
-0.6624538182255639
 20
-1.617736162282342
 10
-0.6493394735994182
 20
-1.593469769619416
 10
-0.6378379053625638
 20
-1.567799138729322
  0
LWPOLYLINE
  5
A1
330
70
100
AcDbEntity
  8
Vector Layer 1
 62
    18
420
        0
370
    30
100
AcDbPolyline
 90
        4
 70
     0
 43
0.0
 10
-0.9996000005072733
 20
-1.862930827084905
 42
0.0797288045602065
 10
-0.8820569953526032
 20
-1.881793859962471
 10
-0.8820569953526032
 20
-1.881793859962471
 42
0.4033968148289159
 10
-0.5066551459027769
 20
-1.520056958579326
  0
LWPOLYLINE
  5
A2
330
70
100
AcDbEntity
  8
Vector Layer 1
 62
    18
420
        0
370
    30
100
AcDbPolyline
 90
        4
 70
     0
 43
0.0
 10
0.3397892349812676
 20
-2.142606813475778
 10
0.4378954086341144
 20
-1.931444948396713
 10
0.4378954086341144
 20
-1.931444948396713
 10
0.3397892349812676
 20
-1.72402046146064
  0
LINE
  5
A3
330
70
100
AcDbEntity
  8
Vector Layer 1
 62
    18
420
        0
370
    30
100
AcDbLine
 10
0.3397892349812676
 20
-2.142606813475778
 30
0.0
 11
0.3397892349812676
 21
-1.72402046146064
 31
0.0
  0
LWPOLYLINE
  5
A4
330
70
100
AcDbEntity
  8
Vector Layer 1
 62
    18
420
        0
370
    30
100
AcDbPolyline
 90
        4
 70
     0
 43
0.0
 10
-0.4378954086341144
 20
-1.931444948396713
 10
-0.3397892349812677
 20
-1.933313637468209
 10
-0.3397892349812677
 20
-1.933313637468209
 10
-0.2467602335013026
 20
-1.931444948396713
210
0.0
220
0.0
230
-1.0
  0
LWPOLYLINE
  5
A5
330
70
100
AcDbEntity
  8
Vector Layer 1
 62
    18
420
        0
370
    30
100
AcDbPolyline
 90
        6
 70
     0
 43
0.0
 10
-0.3397892349812677
 20
-2.142606813475778
 10
-0.2467602335013026
 20
-1.931444948396713
 10
-0.2467602335013026
 20
-1.931444948396713
 10
-0.3397892349812677
 20
-1.72402046146064
 10
-0.3397892349812677
 20
-1.72402046146064
 10
-0.3397892349812677
 20
-2.142606813475778
210
0.0
220
0.0
230
-1.0
  0
LWPOLYLINE
  5
A6
330
70
100
AcDbEntity
  8
Vector Layer 1
 62
    18
420
        0
370
    30
100
AcDbPolyline
 90
        4
 70
     0
 43
0.0
 10
-0.3397892349812676
 20
2.142606813475778
 10
-0.4378954086341144
 20
1.931444948396713
 10
-0.4378954086341144
 20
1.931444948396713
 10
-0.3397892349812676
 20
1.72402046146064
210
0.0
220
0.0
230
-1.0
  0
LINE
  5
A7
330
70
100
AcDbEntity
  8
Vector Layer 1
 62
    18
420
        0
370
    30
100
AcDbLine
 10
0.3397892349812676
 20
2.142606813475778
 30
0.0
 11
0.3397892349812676
 21
1.72402046146064
 31
0.0
  0
LWPOLYLINE
  5
A8
330
70
100
AcDbEntity
  8
Vector Layer 1
 62
    18
420
        0
370
    30
100
AcDbPolyline
 90
        4
 70
     0
 43
0.0
 10
0.4378954086341144
 20
1.931444948396713
 10
0.3397892349812677
 20
1.933313637468209
 10
0.3397892349812677
 20
1.933313637468209
 10
0.2467602335013026
 20
1.931444948396713
  0
LWPOLYLINE
  5
A9
330
70
100
AcDbEntity
  8
Vector Layer 1
 62
    18
420
        0
370
    30
100
AcDbPolyline
 90
        6
 70
     0
 43
0.0
 10
0.3397892349812677
 20
2.142606813475778
 10
0.2467602335013026
 20
1.931444948396713
 10
0.2467602335013026
 20
1.931444948396713
 10
0.3397892349812677
 20
1.72402046146064
 10
0.3397892349812677
 20
1.72402046146064
 10
0.3397892349812677
 20
2.142606813475778
  0
POLYLINE
  5
AA
330
70
100
AcDbEntity
  8
Vector Layer 1
 62
    18
420
        0
370
    30
100
AcDb3dPolyline
 66
     1
 10
0.0
 20
0.0
 30
0.0
 70
     8
  0
VERTEX
  5
AB
330
AA
100
AcDbEntity
  8
0
 62
    18
420
        0
100
AcDbVertex
100
AcDb3dPolylineVertex
 10
1.119522863326354
 20
-1.520056958579326
 30
0.0
 70
    32
  0
VERTEX
  5
AC
330
AA
100
AcDbEntity
  8
0
 62
    18
420
        0
100
AcDbVertex
100
AcDb3dPolylineVertex
 10
1.119522863326354
 20
-1.492210856316729
 30
0.0
 70
    32
  0
VERTEX
  5
AD
330
AA
100
AcDbEntity
  8
0
 62
    18
420
        0
100
AcDbVertex
100
AcDb3dPolylineVertex
 10
1.119522863326354
 20
1.486917640986193
 30
0.0
 70
    32
  0
VERTEX
  5
AE
330
AA
100
AcDbEntity
  8
0
 62
    18
420
        0
100
AcDbVertex
100
AcDb3dPolylineVertex
 10
1.119522863326354
 20
1.51476374324879
 30
0.0
 70
    32
  0
SEQEND
  5
AF
330
AA
100
AcDbEntity
  8
Vector Layer 1
 62
    18
420
        0
370
    30
  0
LWPOLYLINE
  5
B0
330
70
100
AcDbEntity
  8
Vector Layer 1
 62
    18
420
        0
370
    30
100
AcDbPolyline
 90
        4
 70
     0
 43
0.0
 10
0.3703877499913892
 20
-1.544131899354389
 42
0.3848385995632521
 10
0.7441210138765282
 20
-1.881793859962471
 10
0.7441210138765282
 20
-1.881793859962472
 42
0.4033968148289162
 10
1.119522863326355
 20
-1.520056958579326
  0
POLYLINE
  5
B1
330
70
100
AcDbEntity
  8
Vector Layer 1
 62
    18
420
        0
370
    30
100
AcDb3dPolyline
 66
     1
 10
0.0
 20
0.0
 30
0.0
 70
     8
  0
VERTEX
  5
B2
330
B1
100
AcDbEntity
  8
0
 62
    18
420
        0
100
AcDbVertex
100
AcDb3dPolylineVertex
 10
0.3703877499913891
 20
1.538838684023853
 30
0.0
 70
    32
  0
VERTEX
  5
B3
330
B1
100
AcDbEntity
  8
0
 62
    18
420
        0
100
AcDbVertex
100
AcDb3dPolylineVertex
 10
0.3703877499913891
 20
1.462842700211128
 30
0.0
 70
    32
  0
VERTEX
  5
B4
330
B1
100
AcDbEntity
  8
0
 62
    18
420
        0
100
AcDbVertex
100
AcDb3dPolylineVertex
 10
0.3703877499913891
 20
-1.468135915541663
 30
0.0
 70
    32
  0
VERTEX
  5
B5
330
B1
100
AcDbEntity
  8
0
 62
    18
420
        0
100
AcDbVertex
100
AcDb3dPolylineVertex
 10
0.3703877499913891
 20
-1.54413189935439
 30
0.0
 70
    32
  0
SEQEND
  5
B6
330
B1
100
AcDbEntity
  8
Vector Layer 1
 62
    18
420
        0
370
    30
  0
LWPOLYLINE
  5
B7
330
70
100
AcDbEntity
  8
Vector Layer 1
 62
    18
420
        0
370
    30
100
AcDbPolyline
 90
        4
 70
     0
 43
0.0
 10
-0.370387749991389
 20
1.538838684023854
 42
0.3848385995632524
 10
-0.7441210138765284
 20
1.876500644631936
 10
-0.7441210138765283
 20
1.876500644631935
 42
0.4033968148289141
 10
-1.119522863326354
 20
1.514763743248792
210
0.0
220
0.0
230
-1.0
  0
LWPOLYLINE
  5
B8
330
70
100
AcDbEntity
  8
Vector Layer 1
 62
    18
420
        0
370
    30
100
AcDbPolyline
 90
       28
 70
     0
 43
0.0
 10
0.4910268440328297
 20
-1.568036022781017
 10
0.5025841827288219
 20
-1.593778432396877
 10
0.5157521466048642
 20
-1.618085111823255
 10
0.5304353913296415
 20
-1.640847552070874
 10
0.5465385725718385
 20
-1.661957244150455
 10
0.5639663460001399
 20
-1.681305679072721
 10
0.5826233672832303
 20
-1.698784347848393
 10
0.6024142920897945
 20
-1.714284741488194
 10
0.623243776088517
 20
-1.727698351002845
 10
0.6450164749480827
 20
-1.738916667403069
 10
0.6676370443371762
 20
-1.747831181699587
 10
0.6910101399244822
 20
-1.754333384903121
 10
0.7150404173786854
 20
-1.758314768024393
 10
0.7396325323684703
 20
-1.759666822074127
 10
0.7396325323684702
 20
-1.759666822074127
 10
0.7643467925201128
 20
-1.75830549679635
 10
0.7884717137419154
 20
-1.754296858810355
 10
0.8119142562648368
 20
-1.747753914887147
 10
0.8345813803198364
 20
-1.73878967179773
 10
0.8563800461378727
 20
-1.727517136313109
 10
0.8772172139499049
 20
-1.714049315204288
 10
0.8969998439868922
 20
-1.698499215242271
 10
0.9156348964797929
 20
-1.680979843198064
 10
0.9330293316595666
 20
-1.66160420584267
 10
0.949090109757172
 20
-1.640485309947095
 10
0.9637241910035681
 20
-1.617736162282342
 10
0.9768385356297139
 20
-1.593469769619416
 10
0.9883401038665684
 20
-1.567799138729322
  0
LWPOLYLINE
  5
B9
330
70
100
AcDbEntity
  8
Vector Layer 1
 62
    18
420
        0
370
    30
100
AcDbPolyline
 90
       28
 70
     0
 43
0.0
 10
-0.4910268440328297
 20
1.565744423861799
 10
-0.5025841827288219
 20
1.591486833477659
 10
-0.5157521466048642
 20
1.615793512904038
 10
-0.5304353913296415
 20
1.638555953151657
 10
-0.5465385725718385
 20
1.659665645231238
 10
-0.5639663460001399
 20
1.679014080153504
 10
-0.5826233672832303
 20
1.696492748929176
 10
-0.6024142920897945
 20
1.711993142568976
 10
-0.623243776088517
 20
1.725406752083627
 10
-0.6450164749480827
 20
1.736625068483851
 10
-0.6676370443371762
 20
1.745539582780368
 10
-0.6910101399244822
 20
1.752041785983903
 10
-0.7150404173786854
 20
1.756023169105175
 10
-0.7396325323684703
 20
1.757375223154909
 10
-0.7396325323684702
 20
1.757375223154909
 10
-0.7643467925201126
 20
1.756013897877132
 10
-0.7884717137419152
 20
1.752005259891137
 10
-0.8119142562648365
 20
1.74546231596793
 10
-0.8345813803198359
 20
1.736498072878513
 10
-0.8563800461378722
 20
1.725225537393892
 10
-0.8772172139499044
 20
1.71175771628507
 10
-0.8969998439868916
 20
1.696207616323054
 10
-0.9156348964797924
 20
1.678688244278847
 10
-0.933029331659566
 20
1.659312606923453
 10
-0.9490901097571715
 20
1.638193711027877
 10
-0.9637241910035678
 20
1.615444563363124
 10
-0.9768385356297136
 20
1.591178170700199
 10
-0.9883401038665681
 20
1.565507539810104
210
0.0
220
0.0
230
-1.0
  0
LINE
  5
BA
330
70
100
AcDbEntity
  8
Vector Layer 1
 62
    18
420
        0
370
    30
100
AcDbLine
 10
0.9883401038665681
 20
1.565507539810104
 30
0.0
 11
0.9883401038665681
 21
-1.567799138729321
 31
0.0
  0
LINE
  5
BB
330
70
100
AcDbEntity
  8
Vector Layer 1
 62
    18
420
        0
370
    30
100
AcDbLine
 10
0.4910268440328297
 20
1.565744423861799
 30
0.0
 11
0.4910268440328297
 21
-1.568036022781017
 31
0.0
  0
LWPOLYLINE
  5
BC
330
70
100
AcDbEntity
  8
Vector Layer 1
 62
    18
420
        0
370
    30
100
AcDbPolyline
 90
        4
 70
     0
 43
0.0
 10
1.15247220077462
 20
-2.142606813475778
 10
1.250578374427467
 20
-1.931444948396713
 10
1.250578374427467
 20
-1.931444948396713
 10
1.15247220077462
 20
-1.72402046146064
  0
LINE
  5
BD
330
70
100
AcDbEntity
  8
Vector Layer 1
 62
    18
420
        0
370
    30
100
AcDbLine
 10
1.15247220077462
 20
-2.142606813475778
 30
0.0
 11
1.15247220077462
 21
-1.72402046146064
 31
0.0
  0
LWPOLYLINE
  5
BE
330
70
100
AcDbEntity
  8
Vector Layer 1
 62
    18
420
        0
370
    30
100
AcDbPolyline
 90
        4
 70
     0
 43
0.0
 10
-1.250578374427467
 20
-1.931444948396713
 10
-1.15247220077462
 20
-1.933313637468209
 10
-1.15247220077462
 20
-1.933313637468209
 10
-1.059443199294655
 20
-1.931444948396713
210
0.0
220
0.0
230
-1.0
  0
LWPOLYLINE
  5
BF
330
70
100
AcDbEntity
  8
Vector Layer 1
 62
    18
420
        0
370
    30
100
AcDbPolyline
 90
        6
 70
     0
 43
0.0
 10
-1.15247220077462
 20
-2.142606813475778
 10
-1.059443199294655
 20
-1.931444948396713
 10
-1.059443199294655
 20
-1.931444948396713
 10
-1.15247220077462
 20
-1.72402046146064
 10
-1.15247220077462
 20
-1.72402046146064
 10
-1.15247220077462
 20
-2.142606813475778
210
0.0
220
0.0
230
-1.0
  0
LWPOLYLINE
  5
C0
330
70
100
AcDbEntity
  8
Vector Layer 1
 62
    18
420
        0
370
    30
100
AcDbPolyline
 90
        4
 70
     0
 43
0.0
 10
-1.15247220077462
 20
2.142606813475778
 10
-1.250578374427467
 20
1.931444948396713
 10
-1.250578374427467
 20
1.931444948396713
 10
-1.15247220077462
 20
1.72402046146064
210
0.0
220
0.0
230
-1.0
  0
LINE
  5
C1
330
70
100
AcDbEntity
  8
Vector Layer 1
 62
    18
420
        0
370
    30
100
AcDbLine
 10
1.15247220077462
 20
2.142606813475778
 30
0.0
 11
1.15247220077462
 21
1.72402046146064
 31
0.0
  0
LWPOLYLINE
  5
C2
330
70
100
AcDbEntity
  8
Vector Layer 1
 62
    18
420
        0
370
    30
100
AcDbPolyline
 90
        4
 70
     0
 43
0.0
 10
1.250578374427467
 20
1.931444948396713
 10
1.15247220077462
 20
1.933313637468209
 10
1.15247220077462
 20
1.933313637468209
 10
1.059443199294655
 20
1.931444948396713
  0
LWPOLYLINE
  5
C3
330
70
100
AcDbEntity
  8
Vector Layer 1
 62
    18
420
        0
370
    30
100
AcDbPolyline
 90
        6
 70
     0
 43
0.0
 10
1.15247220077462
 20
2.142606813475778
 10
1.059443199294655
 20
1.931444948396713
 10
1.059443199294655
 20
1.931444948396713
 10
1.15247220077462
 20
1.72402046146064
 10
1.15247220077462
 20
1.72402046146064
 10
1.15247220077462
 20
2.142606813475778
  0
POLYLINE
  5
C4
330
70
100
AcDbEntity
  8
Vector Layer 1
 62
    18
420
        0
370
    30
100
AcDb3dPolyline
 66
     1
 10
0.0
 20
0.0
 30
0.0
 70
     8
  0
VERTEX
  5
C5
330
C4
100
AcDbEntity
  8
0
 62
    18
420
        0
100
AcDbVertex
100
AcDb3dPolylineVertex
 10
1.932205829119708
 20
-1.520056958579326
 30
0.0
 70
    32
  0
VERTEX
  5
C6
330
C4
100
AcDbEntity
  8
0
 62
    18
420
        0
100
AcDbVertex
100
AcDb3dPolylineVertex
 10
1.932205829119708
 20
-1.492210856316729
 30
0.0
 70
    32
  0
VERTEX
  5
C7
330
C4
100
AcDbEntity
  8
0
 62
    18
420
        0
100
AcDbVertex
100
AcDb3dPolylineVertex
 10
1.932205829119708
 20
1.486917640986193
 30
0.0
 70
    32
  0
VERTEX
  5
C8
330
C4
100
AcDbEntity
  8
0
 62
    18
420
        0
100
AcDbVertex
100
AcDb3dPolylineVertex
 10
1.932205829119708
 20
1.51476374324879
 30
0.0
 70
    32
  0
SEQEND
  5
C9
330
C4
100
AcDbEntity
  8
Vector Layer 1
 62
    18
420
        0
370
    30
  0
LWPOLYLINE
  5
CA
330
70
100
AcDbEntity
  8
Vector Layer 1
 62
    18
420
        0
370
    30
100
AcDbPolyline
 90
        4
 70
     0
 43
0.0
 10
1.183070715784742
 20
-1.544131899354389
 42
0.3848385995632524
 10
1.556803979669881
 20
-1.881793859962472
 10
1.556803979669881
 20
-1.881793859962472
 42
0.4033968148289162
 10
1.932205829119708
 20
-1.520056958579326
  0
POLYLINE
  5
CB
330
70
100
AcDbEntity
  8
Vector Layer 1
 62
    18
420
        0
370
    30
100
AcDb3dPolyline
 66
     1
 10
0.0
 20
0.0
 30
0.0
 70
     8
  0
VERTEX
  5
CC
330
CB
100
AcDbEntity
  8
0
 62
    18
420
        0
100
AcDbVertex
100
AcDb3dPolylineVertex
 10
1.183070715784742
 20
1.538838684023853
 30
0.0
 70
    32
  0
VERTEX
  5
CD
330
CB
100
AcDbEntity
  8
0
 62
    18
420
        0
100
AcDbVertex
100
AcDb3dPolylineVertex
 10
1.183070715784742
 20
1.462842700211128
 30
0.0
 70
    32
  0
VERTEX
  5
CE
330
CB
100
AcDbEntity
  8
0
 62
    18
420
        0
100
AcDbVertex
100
AcDb3dPolylineVertex
 10
1.183070715784742
 20
-1.468135915541663
 30
0.0
 70
    32
  0
VERTEX
  5
CF
330
CB
100
AcDbEntity
  8
0
 62
    18
420
        0
100
AcDbVertex
100
AcDb3dPolylineVertex
 10
1.183070715784742
 20
-1.54413189935439
 30
0.0
 70
    32
  0
SEQEND
  5
D0
330
CB
100
AcDbEntity
  8
Vector Layer 1
 62
    18
420
        0
370
    30
  0
LWPOLYLINE
  5
D1
330
70
100
AcDbEntity
  8
Vector Layer 1
 62
    18
420
        0
370
    30
100
AcDbPolyline
 90
        4
 70
     0
 43
0.0
 10
-1.183070715784742
 20
1.538838684023854
 42
0.3848385995632521
 10
-1.556803979669881
 20
1.876500644631936
 10
-1.556803979669881
 20
1.876500644631936
 42
0.4033968148289142
 10
-1.932205829119708
 20
1.514763743248792
210
0.0
220
0.0
230
-1.0
  0
LWPOLYLINE
  5
D2
330
70
100
AcDbEntity
  8
Vector Layer 1
 62
    18
420
        0
370
    30
100
AcDbPolyline
 90
       28
 70
     0
 43
0.0
 10
1.303709809826182
 20
-1.568036022781017
 10
1.315267148522174
 20
-1.593778432396877
 10
1.328435112398217
 20
-1.618085111823255
 10
1.343118357122994
 20
-1.640847552070874
 10
1.359221538365191
 20
-1.661957244150455
 10
1.376649311793493
 20
-1.681305679072721
 10
1.395306333076583
 20
-1.698784347848393
 10
1.415097257883147
 20
-1.714284741488194
 10
1.43592674188187
 20
-1.727698351002845
 10
1.457699440741436
 20
-1.738916667403069
 10
1.480320010130529
 20
-1.747831181699587
 10
1.503693105717835
 20
-1.754333384903121
 10
1.527723383172038
 20
-1.758314768024393
 10
1.552315498161823
 20
-1.759666822074127
 10
1.552315498161823
 20
-1.759666822074127
 10
1.577029758313465
 20
-1.75830549679635
 10
1.601154679535268
 20
-1.754296858810355
 10
1.62459722205819
 20
-1.747753914887147
 10
1.647264346113189
 20
-1.73878967179773
 10
1.669063011931226
 20
-1.727517136313109
 10
1.689900179743258
 20
-1.714049315204288
 10
1.709682809780245
 20
-1.698499215242271
 10
1.728317862273146
 20
-1.680979843198064
 10
1.745712297452919
 20
-1.66160420584267
 10
1.761773075550525
 20
-1.640485309947095
 10
1.776407156796921
 20
-1.617736162282342
 10
1.789521501423067
 20
-1.593469769619416
 10
1.801023069659921
 20
-1.567799138729322
  0
LWPOLYLINE
  5
D3
330
70
100
AcDbEntity
  8
Vector Layer 1
 62
    18
420
        0
370
    30
100
AcDbPolyline
 90
       28
 70
     0
 43
0.0
 10
-1.303709809826182
 20
1.565744423861799
 10
-1.315267148522174
 20
1.591486833477659
 10
-1.328435112398217
 20
1.615793512904038
 10
-1.343118357122994
 20
1.638555953151657
 10
-1.359221538365191
 20
1.659665645231238
 10
-1.376649311793493
 20
1.679014080153504
 10
-1.395306333076583
 20
1.696492748929176
 10
-1.415097257883147
 20
1.711993142568976
 10
-1.43592674188187
 20
1.725406752083627
 10
-1.457699440741436
 20
1.736625068483851
 10
-1.480320010130529
 20
1.745539582780368
 10
-1.503693105717835
 20
1.752041785983903
 10
-1.527723383172038
 20
1.756023169105175
 10
-1.552315498161823
 20
1.757375223154909
 10
-1.552315498161823
 20
1.757375223154909
 10
-1.577029758313465
 20
1.756013897877132
 10
-1.601154679535268
 20
1.752005259891137
 10
-1.624597222058189
 20
1.74546231596793
 10
-1.647264346113189
 20
1.736498072878513
 10
-1.669063011931225
 20
1.725225537393892
 10
-1.689900179743257
 20
1.71175771628507
 10
-1.709682809780244
 20
1.696207616323054
 10
-1.728317862273145
 20
1.678688244278847
 10
-1.745712297452919
 20
1.659312606923453
 10
-1.761773075550524
 20
1.638193711027877
 10
-1.77640715679692
 20
1.615444563363124
 10
-1.789521501423066
 20
1.591178170700199
 10
-1.801023069659921
 20
1.565507539810104
210
0.0
220
0.0
230
-1.0
  0
LINE
  5
D4
330
70
100
AcDbEntity
  8
Vector Layer 1
 62
    18
420
        0
370
    30
100
AcDbLine
 10
1.801023069659921
 20
1.565507539810104
 30
0.0
 11
1.801023069659921
 21
-1.567799138729321
 31
0.0
  0
LINE
  5
D5
330
70
100
AcDbEntity
  8
Vector Layer 1
 62
    18
420
        0
370
    30
100
AcDbLine
 10
1.303709809826182
 20
1.565744423861799
 30
0.0
 11
1.303709809826182
 21
-1.568036022781017
 31
0.0
  0
LWPOLYLINE
  5
D6
330
70
100
AcDbEntity
  8
Vector Layer 1
 62
    18
420
        0
370
    30
100
AcDbPolyline
 90
        4
 70
     0
 43
0.0
 10
1.965155166567973
 20
-2.142606813475778
 10
2.063261340220821
 20
-1.931444948396713
 10
2.063261340220821
 20
-1.931444948396713
 10
1.965155166567973
 20
-1.72402046146064
  0
LINE
  5
D7
330
70
100
AcDbEntity
  8
Vector Layer 1
 62
    18
420
        0
370
    30
100
AcDbLine
 10
1.965155166567973
 20
-2.142606813475778
 30
0.0
 11
1.965155166567973
 21
-1.72402046146064
 31
0.0
  0
LWPOLYLINE
  5
D8
330
70
100
AcDbEntity
  8
Vector Layer 1
 62
    18
420
        0
370
    30
100
AcDbPolyline
 90
        4
 70
     0
 43
0.0
 10
-2.063261340220821
 20
-1.931444948396713
 10
-1.965155166567973
 20
-1.933313637468209
 10
-1.965155166567973
 20
-1.933313637468209
 10
-1.872126165088008
 20
-1.931444948396713
210
0.0
220
0.0
230
-1.0
  0
LWPOLYLINE
  5
D9
330
70
100
AcDbEntity
  8
Vector Layer 1
 62
    18
420
        0
370
    30
100
AcDbPolyline
 90
        6
 70
     0
 43
0.0
 10
-1.965155166567973
 20
-2.142606813475778
 10
-1.872126165088008
 20
-1.931444948396713
 10
-1.872126165088008
 20
-1.931444948396713
 10
-1.965155166567973
 20
-1.72402046146064
 10
-1.965155166567973
 20
-1.72402046146064
 10
-1.965155166567973
 20
-2.142606813475778
210
0.0
220
0.0
230
-1.0
  0
LWPOLYLINE
  5
DA
330
70
100
AcDbEntity
  8
Vector Layer 1
 62
    18
420
        0
370
    30
100
AcDbPolyline
 90
        4
 70
     0
 43
0.0
 10
-1.965155166567973
 20
2.142606813475778
 10
-2.063261340220821
 20
1.931444948396713
 10
-2.063261340220821
 20
1.931444948396713
 10
-1.965155166567973
 20
1.72402046146064
210
0.0
220
0.0
230
-1.0
  0
LINE
  5
DB
330
70
100
AcDbEntity
  8
Vector Layer 1
 62
    18
420
        0
370
    30
100
AcDbLine
 10
1.965155166567973
 20
2.142606813475778
 30
0.0
 11
1.965155166567973
 21
1.72402046146064
 31
0.0
  0
LWPOLYLINE
  5
DC
330
70
100
AcDbEntity
  8
Vector Layer 1
 62
    18
420
        0
370
    30
100
AcDbPolyline
 90
        4
 70
     0
 43
0.0
 10
2.063261340220821
 20
1.931444948396713
 10
1.965155166567973
 20
1.933313637468209
 10
1.965155166567973
 20
1.933313637468209
 10
1.872126165088008
 20
1.931444948396713
  0
LWPOLYLINE
  5
DD
330
70
100
AcDbEntity
  8
Vector Layer 1
 62
    18
420
        0
370
    30
100
AcDbPolyline
 90
        6
 70
     0
 43
0.0
 10
1.965155166567973
 20
2.142606813475778
 10
1.872126165088008
 20
1.931444948396713
 10
1.872126165088008
 20
1.931444948396713
 10
1.965155166567973
 20
1.72402046146064
 10
1.965155166567973
 20
1.72402046146064
 10
1.965155166567973
 20
2.142606813475778
  0
POLYLINE
  5
DE
330
70
100
AcDbEntity
  8
Vector Layer 1
 62
    18
420
        0
370
    30
100
AcDb3dPolyline
 66
     1
 10
0.0
 20
0.0
 30
0.0
 70
     8
  0
VERTEX
  5
DF
330
DE
100
AcDbEntity
  8
0
 62
    18
420
        0
100
AcDbVertex
100
AcDb3dPolylineVertex
 10
2.744888794913076
 20
-1.520056958579326
 30
0.0
 70
    32
  0
VERTEX
  5
E0
330
DE
100
AcDbEntity
  8
0
 62
    18
420
        0
100
AcDbVertex
100
AcDb3dPolylineVertex
 10
2.744888794913076
 20
-1.492210856316729
 30
0.0
 70
    32
  0
VERTEX
  5
E1
330
DE
100
AcDbEntity
  8
0
 62
    18
420
        0
100
AcDbVertex
100
AcDb3dPolylineVertex
 10
2.744888794913076
 20
1.486917640986193
 30
0.0
 70
    32
  0
VERTEX
  5
E2
330
DE
100
AcDbEntity
  8
0
 62
    18
420
        0
100
AcDbVertex
100
AcDb3dPolylineVertex
 10
2.744888794913076
 20
1.51476374324879
 30
0.0
 70
    32
  0
SEQEND
  5
E3
330
DE
100
AcDbEntity
  8
Vector Layer 1
 62
    18
420
        0
370
    30
  0
LWPOLYLINE
  5
E4
330
70
100
AcDbEntity
  8
Vector Layer 1
 62
    18
420
        0
370
    30
100
AcDbPolyline
 90
        4
 70
     0
 43
0.0
 10
1.995753681578095
 20
-1.544131899354389
 42
0.3848385995632522
 10
2.369486945463241
 20
-1.881793859962471
 10
2.369486945463241
 20
-1.881793859962471
 42
0.4033968148289162
 10
2.744888794913075
 20
-1.520056958579326
  0
POLYLINE
  5
E5
330
70
100
AcDbEntity
  8
Vector Layer 1
 62
    18
420
        0
370
    30
100
AcDb3dPolyline
 66
     1
 10
0.0
 20
0.0
 30
0.0
 70
     8
  0
VERTEX
  5
E6
330
E5
100
AcDbEntity
  8
0
 62
    18
420
        0
100
AcDbVertex
100
AcDb3dPolylineVertex
 10
1.995753681578095
 20
1.538838684023853
 30
0.0
 70
    32
  0
VERTEX
  5
E7
330
E5
100
AcDbEntity
  8
0
 62
    18
420
        0
100
AcDbVertex
100
AcDb3dPolylineVertex
 10
1.995753681578095
 20
1.462842700211128
 30
0.0
 70
    32
  0
VERTEX
  5
E8
330
E5
100
AcDbEntity
  8
0
 62
    18
420
        0
100
AcDbVertex
100
AcDb3dPolylineVertex
 10
1.995753681578095
 20
-1.468135915541663
 30
0.0
 70
    32
  0
VERTEX
  5
E9
330
E5
100
AcDbEntity
  8
0
 62
    18
420
        0
100
AcDbVertex
100
AcDb3dPolylineVertex
 10
1.995753681578095
 20
-1.54413189935439
 30
0.0
 70
    32
  0
SEQEND
  5
EA
330
E5
100
AcDbEntity
  8
Vector Layer 1
 62
    18
420
        0
370
    30
  0
LWPOLYLINE
  5
EB
330
70
100
AcDbEntity
  8
Vector Layer 1
 62
    18
420
        0
370
    30
100
AcDbPolyline
 90
        4
 70
     0
 43
0.0
 10
-1.995753681578095
 20
1.538838684023854
 42
0.3848385995632521
 10
-2.369486945463241
 20
1.876500644631936
 10
-2.369486945463242
 20
1.876500644631936
 42
0.4033968148289139
 10
-2.744888794913076
 20
1.514763743248792
210
0.0
220
0.0
230
-1.0
  0
LWPOLYLINE
  5
EC
330
70
100
AcDbEntity
  8
Vector Layer 1
 62
    18
420
        0
370
    30
100
AcDbPolyline
 90
       28
 70
     0
 43
0.0
 10
2.116392775619538
 20
-1.568036022781017
 10
2.12795011431553
 20
-1.593778432396877
 10
2.141118078191573
 20
-1.618085111823255
 10
2.15580132291635
 20
-1.640847552070874
 10
2.171904504158548
 20
-1.661957244150455
 10
2.18933227758685
 20
-1.681305679072721
 10
2.207989298869941
 20
-1.698784347848393
 10
2.227780223676505
 20
-1.714284741488194
 10
2.248609707675228
 20
-1.727698351002845
 10
2.270382406534794
 20
-1.738916667403069
 10
2.293002975923888
 20
-1.747831181699587
 10
2.316376071511195
 20
-1.754333384903121
 10
2.340406348965398
 20
-1.758314768024393
 10
2.364998463955183
 20
-1.759666822074127
 10
2.364998463955183
 20
-1.759666822074127
 10
2.389712724106826
 20
-1.75830549679635
 10
2.413837645328629
 20
-1.754296858810355
 10
2.437280187851551
 20
-1.747753914887147
 10
2.459947311906551
 20
-1.73878967179773
 10
2.481745977724588
 20
-1.727517136313109
 10
2.502583145536621
 20
-1.714049315204288
 10
2.522365775573609
 20
-1.698499215242271
 10
2.54100082806651
 20
-1.680979843198064
 10
2.558395263246284
 20
-1.66160420584267
 10
2.57445604134389
 20
-1.640485309947095
 10
2.589090122590286
 20
-1.617736162282342
 10
2.602204467216432
 20
-1.593469769619416
 10
2.613706035453287
 20
-1.567799138729322
  0
LWPOLYLINE
  5
ED
330
70
100
AcDbEntity
  8
Vector Layer 1
 62
    18
420
        0
370
    30
100
AcDbPolyline
 90
       28
 70
     0
 43
0.0
 10
-2.116392775619538
 20
1.565744423861799
 10
-2.12795011431553
 20
1.591486833477659
 10
-2.141118078191573
 20
1.615793512904038
 10
-2.15580132291635
 20
1.638555953151657
 10
-2.171904504158548
 20
1.659665645231238
 10
-2.18933227758685
 20
1.679014080153504
 10
-2.207989298869941
 20
1.696492748929176
 10
-2.227780223676505
 20
1.711993142568976
 10
-2.248609707675228
 20
1.725406752083627
 10
-2.270382406534794
 20
1.736625068483851
 10
-2.293002975923888
 20
1.745539582780368
 10
-2.316376071511195
 20
1.752041785983903
 10
-2.340406348965398
 20
1.756023169105175
 10
-2.364998463955183
 20
1.757375223154909
 10
-2.364998463955183
 20
1.757375223154909
 10
-2.389712724106826
 20
1.756013897877132
 10
-2.413837645328629
 20
1.752005259891137
 10
-2.437280187851551
 20
1.74546231596793
 10
-2.459947311906551
 20
1.736498072878513
 10
-2.481745977724588
 20
1.725225537393892
 10
-2.50258314553662
 20
1.71175771628507
 10
-2.522365775573608
 20
1.696207616323054
 10
-2.541000828066509
 20
1.678688244278847
 10
-2.558395263246283
 20
1.659312606923453
 10
-2.574456041343889
 20
1.638193711027877
 10
-2.589090122590285
 20
1.615444563363124
 10
-2.602204467216431
 20
1.591178170700199
 10
-2.613706035453286
 20
1.565507539810104
210
0.0
220
0.0
230
-1.0
  0
LINE
  5
EE
330
70
100
AcDbEntity
  8
Vector Layer 1
 62
    18
420
        0
370
    30
100
AcDbLine
 10
2.613706035453287
 20
1.565507539810104
 30
0.0
 11
2.613706035453287
 21
-1.567799138729321
 31
0.0
  0
LINE
  5
EF
330
70
100
AcDbEntity
  8
Vector Layer 1
 62
    18
420
        0
370
    30
100
AcDbLine
 10
2.116392775619538
 20
1.565744423861799
 30
0.0
 11
2.116392775619537
 21
-1.568036022781017
 31
0.0
  0
LWPOLYLINE
  5
F0
330
70
100
AcDbEntity
  8
Vector Layer 1
 62
    18
420
        0
370
    30
100
AcDbPolyline
 90
        4
 70
     0
 43
0.0
 10
2.778625214613484
 20
-2.142606813475778
 10
2.87673138826633
 20
-1.931444948396713
 10
2.87673138826633
 20
-1.931444948396713
 10
2.778625214613484
 20
-1.72402046146064
  0
LINE
  5
F1
330
70
100
AcDbEntity
  8
Vector Layer 1
 62
    18
420
        0
370
    30
100
AcDbLine
 10
2.778625214613484
 20
-2.142606813475778
 30
0.0
 11
2.778625214613484
 21
-1.72402046146064
 31
0.0
  0
LWPOLYLINE
  5
F2
330
70
100
AcDbEntity
  8
Vector Layer 1
 62
    18
420
        0
370
    30
100
AcDbPolyline
 90
        4
 70
     0
 43
0.0
 10
-2.87673138826633
 20
-1.931444948396713
 10
-2.778625214613484
 20
-1.933313637468209
 10
-2.778625214613484
 20
-1.933313637468209
 10
-2.685596213133518
 20
-1.931444948396713
210
0.0
220
0.0
230
-1.0
  0
LWPOLYLINE
  5
F3
330
70
100
AcDbEntity
  8
Vector Layer 1
 62
    18
420
        0
370
    30
100
AcDbPolyline
 90
        6
 70
     0
 43
0.0
 10
-2.778625214613484
 20
-2.142606813475778
 10
-2.685596213133518
 20
-1.931444948396713
 10
-2.685596213133518
 20
-1.931444948396713
 10
-2.778625214613484
 20
-1.72402046146064
 10
-2.778625214613484
 20
-1.72402046146064
 10
-2.778625214613484
 20
-2.142606813475778
210
0.0
220
0.0
230
-1.0
  0
LWPOLYLINE
  5
F4
330
70
100
AcDbEntity
  8
Vector Layer 1
 62
    18
420
        0
370
    30
100
AcDbPolyline
 90
        4
 70
     0
 43
0.0
 10
-2.778625214613484
 20
2.142606813475778
 10
-2.87673138826633
 20
1.931444948396713
 10
-2.87673138826633
 20
1.931444948396713
 10
-2.778625214613484
 20
1.72402046146064
210
0.0
220
0.0
230
-1.0
  0
LINE
  5
F5
330
70
100
AcDbEntity
  8
Vector Layer 1
 62
    18
420
        0
370
    30
100
AcDbLine
 10
2.778625214613484
 20
2.142606813475778
 30
0.0
 11
2.778625214613484
 21
1.72402046146064
 31
0.0
  0
LWPOLYLINE
  5
F6
330
70
100
AcDbEntity
  8
Vector Layer 1
 62
    18
420
        0
370
    30
100
AcDbPolyline
 90
        4
 70
     0
 43
0.0
 10
2.87673138826633
 20
1.931444948396713
 10
2.778625214613484
 20
1.933313637468209
 10
2.778625214613484
 20
1.933313637468209
 10
2.685596213133518
 20
1.931444948396713
  0
LWPOLYLINE
  5
F7
330
70
100
AcDbEntity
  8
Vector Layer 1
 62
    18
420
        0
370
    30
100
AcDbPolyline
 90
        6
 70
     0
 43
0.0
 10
2.778625214613484
 20
2.142606813475778
 10
2.685596213133518
 20
1.931444948396713
 10
2.685596213133518
 20
1.931444948396713
 10
2.778625214613484
 20
1.72402046146064
 10
2.778625214613484
 20
1.72402046146064
 10
2.778625214613484
 20
2.142606813475778
  0
POLYLINE
  5
F8
330
70
100
AcDbEntity
  8
Vector Layer 1
 62
    18
420
        0
370
    30
100
AcDb3dPolyline
 66
     1
 10
0.0
 20
0.0
 30
0.0
 70
     8
  0
VERTEX
  5
F9
330
F8
100
AcDbEntity
  8
0
 62
    18
420
        0
100
AcDbVertex
100
AcDb3dPolylineVertex
 10
3.558358842958571
 20
-1.520056958579326
 30
0.0
 70
    32
  0
VERTEX
  5
FA
330
F8
100
AcDbEntity
  8
0
 62
    18
420
        0
100
AcDbVertex
100
AcDb3dPolylineVertex
 10
3.558358842958571
 20
-1.492210856316729
 30
0.0
 70
    32
  0
VERTEX
  5
FB
330
F8
100
AcDbEntity
  8
0
 62
    18
420
        0
100
AcDbVertex
100
AcDb3dPolylineVertex
 10
3.558358842958571
 20
1.486917640986193
 30
0.0
 70
    32
  0
VERTEX
  5
FC
330
F8
100
AcDbEntity
  8
0
 62
    18
420
        0
100
AcDbVertex
100
AcDb3dPolylineVertex
 10
3.558358842958571
 20
1.51476374324879
 30
0.0
 70
    32
  0
SEQEND
  5
FD
330
F8
100
AcDbEntity
  8
Vector Layer 1
 62
    18
420
        0
370
    30
  0
LWPOLYLINE
  5
FE
330
70
100
AcDbEntity
  8
Vector Layer 1
 62
    18
420
        0
370
    30
100
AcDbPolyline
 90
        4
 70
     0
 43
0.0
 10
2.809223729623605
 20
-1.544131899354389
 42
0.3848385995632521
 10
3.182956993508744
 20
-1.881793859962472
 10
3.182956993508744
 20
-1.881793859962472
 42
0.4033968148289164
 10
3.558358842958571
 20
-1.520056958579326
  0
POLYLINE
  5
FF
330
70
100
AcDbEntity
  8
Vector Layer 1
 62
    18
420
        0
370
    30
100
AcDb3dPolyline
 66
     1
 10
0.0
 20
0.0
 30
0.0
 70
     8
  0
VERTEX
  5
100
330
FF
100
AcDbEntity
  8
0
 62
    18
420
        0
100
AcDbVertex
100
AcDb3dPolylineVertex
 10
2.809223729623605
 20
1.538838684023853
 30
0.0
 70
    32
  0
VERTEX
  5
101
330
FF
100
AcDbEntity
  8
0
 62
    18
420
        0
100
AcDbVertex
100
AcDb3dPolylineVertex
 10
2.809223729623605
 20
1.462842700211128
 30
0.0
 70
    32
  0
VERTEX
  5
102
330
FF
100
AcDbEntity
  8
0
 62
    18
420
        0
100
AcDbVertex
100
AcDb3dPolylineVertex
 10
2.809223729623605
 20
-1.468135915541663
 30
0.0
 70
    32
  0
VERTEX
  5
103
330
FF
100
AcDbEntity
  8
0
 62
    18
420
        0
100
AcDbVertex
100
AcDb3dPolylineVertex
 10
2.809223729623605
 20
-1.54413189935439
 30
0.0
 70
    32
  0
SEQEND
  5
104
330
FF
100
AcDbEntity
  8
Vector Layer 1
 62
    18
420
        0
370
    30
  0
LWPOLYLINE
  5
105
330
70
100
AcDbEntity
  8
Vector Layer 1
 62
    18
420
        0
370
    30
100
AcDbPolyline
 90
        4
 70
     0
 43
0.0
 10
-2.809223729623606
 20
1.538838684023854
 42
0.384838599563252
 10
-3.182956993508744
 20
1.876500644631936
 10
-3.182956993508744
 20
1.876500644631936
 42
0.403396814828914
 10
-3.558358842958571
 20
1.514763743248793
210
0.0
220
0.0
230
-1.0
  0
LWPOLYLINE
  5
106
330
70
100
AcDbEntity
  8
Vector Layer 1
 62
    18
420
        0
370
    30
100
AcDbPolyline
 90
       28
 70
     0
 43
0.0
 10
2.929862823665046
 20
-1.568036022781017
 10
2.941420162361038
 20
-1.593778432396877
 10
2.95458812623708
 20
-1.618085111823255
 10
2.969271370961858
 20
-1.640847552070874
 10
2.985374552204055
 20
-1.661957244150455
 10
3.002802325632356
 20
-1.681305679072721
 10
3.021459346915447
 20
-1.698784347848393
 10
3.041250271722011
 20
-1.714284741488194
 10
3.062079755720733
 20
-1.727698351002845
 10
3.083852454580299
 20
-1.738916667403069
 10
3.106473023969392
 20
-1.747831181699587
 10
3.129846119556698
 20
-1.754333384903121
 10
3.153876397010901
 20
-1.758314768024393
 10
3.178468512000686
 20
-1.759666822074127
 10
3.178468512000686
 20
-1.759666822074127
 10
3.203182772152329
 20
-1.75830549679635
 10
3.227307693374132
 20
-1.754296858810355
 10
3.250750235897053
 20
-1.747753914887147
 10
3.273417359952053
 20
-1.73878967179773
 10
3.295216025770089
 20
-1.727517136313109
 10
3.316053193582121
 20
-1.714049315204288
 10
3.335835823619108
 20
-1.698499215242271
 10
3.354470876112009
 20
-1.680979843198064
 10
3.371865311291783
 20
-1.66160420584267
 10
3.387926089389388
 20
-1.640485309947095
 10
3.402560170635784
 20
-1.617736162282342
 10
3.41567451526193
 20
-1.593469769619416
 10
3.427176083498784
 20
-1.567799138729322
  0
LWPOLYLINE
  5
107
330
70
100
AcDbEntity
  8
Vector Layer 1
 62
    18
420
        0
370
    30
100
AcDbPolyline
 90
       28
 70
     0
 43
0.0
 10
-2.929862823665046
 20
1.565744423861799
 10
-2.941420162361038
 20
1.591486833477659
 10
-2.95458812623708
 20
1.615793512904038
 10
-2.969271370961858
 20
1.638555953151657
 10
-2.985374552204055
 20
1.659665645231238
 10
-3.002802325632356
 20
1.679014080153504
 10
-3.021459346915447
 20
1.696492748929176
 10
-3.041250271722011
 20
1.711993142568976
 10
-3.062079755720733
 20
1.725406752083627
 10
-3.083852454580299
 20
1.736625068483851
 10
-3.106473023969392
 20
1.745539582780368
 10
-3.129846119556698
 20
1.752041785983903
 10
-3.153876397010901
 20
1.756023169105175
 10
-3.178468512000686
 20
1.757375223154909
 10
-3.178468512000686
 20
1.757375223154909
 10
-3.203182772152329
 20
1.756013897877132
 10
-3.227307693374132
 20
1.752005259891137
 10
-3.250750235897053
 20
1.74546231596793
 10
-3.273417359952052
 20
1.736498072878513
 10
-3.295216025770089
 20
1.725225537393892
 10
-3.316053193582121
 20
1.71175771628507
 10
-3.335835823619107
 20
1.696207616323054
 10
-3.354470876112008
 20
1.678688244278847
 10
-3.371865311291782
 20
1.659312606923453
 10
-3.387926089389387
 20
1.638193711027877
 10
-3.402560170635783
 20
1.615444563363124
 10
-3.415674515261929
 20
1.591178170700199
 10
-3.427176083498783
 20
1.565507539810104
210
0.0
220
0.0
230
-1.0
  0
LINE
  5
108
330
70
100
AcDbEntity
  8
Vector Layer 1
 62
    18
420
        0
370
    30
100
AcDbLine
 10
3.427176083498784
 20
1.565507539810104
 30
0.0
 11
3.427176083498784
 21
-1.567799138729321
 31
0.0
  0
LINE
  5
109
330
70
100
AcDbEntity
  8
Vector Layer 1
 62
    18
420
        0
370
    30
100
AcDbLine
 10
2.929862823665046
 20
1.565744423861799
 30
0.0
 11
2.929862823665046
 21
-1.568036022781017
 31
0.0
  0
LWPOLYLINE
  5
10A
330
70
100
AcDbEntity
  8
Vector Layer 1
 62
    18
420
        0
370
    30
100
AcDbPolyline
 90
        4
 70
     0
 43
0.0
 10
3.591308180406837
 20
-2.142606813475778
 10
3.689414354059683
 20
-1.931444948396713
 10
3.689414354059683
 20
-1.931444948396713
 10
3.591308180406837
 20
-1.72402046146064
  0
LINE
  5
10B
330
70
100
AcDbEntity
  8
Vector Layer 1
 62
    18
420
        0
370
    30
100
AcDbLine
 10
3.591308180406837
 20
-2.142606813475778
 30
0.0
 11
3.591308180406837
 21
-1.72402046146064
 31
0.0
  0
LWPOLYLINE
  5
10C
330
70
100
AcDbEntity
  8
Vector Layer 1
 62
    18
420
        0
370
    30
100
AcDbPolyline
 90
        4
 70
     0
 43
0.0
 10
-3.689414354059683
 20
-1.931444948396713
 10
-3.591308180406837
 20
-1.933313637468209
 10
-3.591308180406837
 20
-1.933313637468209
 10
-3.498279178926872
 20
-1.931444948396713
210
0.0
220
0.0
230
-1.0
  0
LWPOLYLINE
  5
10D
330
70
100
AcDbEntity
  8
Vector Layer 1
 62
    18
420
        0
370
    30
100
AcDbPolyline
 90
        6
 70
     0
 43
0.0
 10
-3.591308180406837
 20
-2.142606813475778
 10
-3.498279178926872
 20
-1.931444948396713
 10
-3.498279178926872
 20
-1.931444948396713
 10
-3.591308180406837
 20
-1.72402046146064
 10
-3.591308180406837
 20
-1.72402046146064
 10
-3.591308180406837
 20
-2.142606813475778
210
0.0
220
0.0
230
-1.0
  0
LWPOLYLINE
  5
10E
330
70
100
AcDbEntity
  8
Vector Layer 1
 62
    18
420
        0
370
    30
100
AcDbPolyline
 90
        4
 70
     0
 43
0.0
 10
-3.591308180406837
 20
2.142606813475778
 10
-3.689414354059683
 20
1.931444948396713
 10
-3.689414354059683
 20
1.931444948396713
 10
-3.591308180406837
 20
1.72402046146064
210
0.0
220
0.0
230
-1.0
  0
LINE
  5
10F
330
70
100
AcDbEntity
  8
Vector Layer 1
 62
    18
420
        0
370
    30
100
AcDbLine
 10
3.591308180406837
 20
2.142606813475778
 30
0.0
 11
3.591308180406837
 21
1.72402046146064
 31
0.0
  0
LWPOLYLINE
  5
110
330
70
100
AcDbEntity
  8
Vector Layer 1
 62
    18
420
        0
370
    30
100
AcDbPolyline
 90
        4
 70
     0
 43
0.0
 10
3.689414354059683
 20
1.931444948396713
 10
3.591308180406837
 20
1.933313637468209
 10
3.591308180406837
 20
1.933313637468209
 10
3.498279178926872
 20
1.931444948396713
  0
LWPOLYLINE
  5
111
330
70
100
AcDbEntity
  8
Vector Layer 1
 62
    18
420
        0
370
    30
100
AcDbPolyline
 90
        6
 70
     0
 43
0.0
 10
3.591308180406837
 20
2.142606813475778
 10
3.498279178926872
 20
1.931444948396713
 10
3.498279178926872
 20
1.931444948396713
 10
3.591308180406837
 20
1.72402046146064
 10
3.591308180406837
 20
1.72402046146064
 10
3.591308180406837
 20
2.142606813475778
  0
POLYLINE
  5
112
330
70
100
AcDbEntity
  8
Vector Layer 1
 62
    18
420
        0
370
    30
100
AcDb3dPolyline
 66
     1
 10
0.0
 20
0.0
 30
0.0
 70
     8
  0
VERTEX
  5
113
330
112
100
AcDbEntity
  8
0
 62
    18
420
        0
100
AcDbVertex
100
AcDb3dPolylineVertex
 10
4.371041808751936
 20
-1.520056958579326
 30
0.0
 70
    32
  0
VERTEX
  5
114
330
112
100
AcDbEntity
  8
0
 62
    18
420
        0
100
AcDbVertex
100
AcDb3dPolylineVertex
 10
4.371041808751936
 20
-1.492210856316729
 30
0.0
 70
    32
  0
VERTEX
  5
115
330
112
100
AcDbEntity
  8
0
 62
    18
420
        0
100
AcDbVertex
100
AcDb3dPolylineVertex
 10
4.371041808751936
 20
1.486917640986193
 30
0.0
 70
    32
  0
VERTEX
  5
116
330
112
100
AcDbEntity
  8
0
 62
    18
420
        0
100
AcDbVertex
100
AcDb3dPolylineVertex
 10
4.371041808751936
 20
1.51476374324879
 30
0.0
 70
    32
  0
SEQEND
  5
117
330
112
100
AcDbEntity
  8
Vector Layer 1
 62
    18
420
        0
370
    30
  0
LWPOLYLINE
  5
118
330
70
100
AcDbEntity
  8
Vector Layer 1
 62
    18
420
        0
370
    30
100
AcDbPolyline
 90
        4
 70
     0
 43
0.0
 10
3.621906695416958
 20
-1.544131899354389
 42
0.3848385995632521
 10
3.995639959302097
 20
-1.881793859962472
 10
3.995639959302097
 20
-1.881793859962471
 42
0.4033968148289159
 10
4.371041808751935
 20
-1.520056958579326
  0
POLYLINE
  5
119
330
70
100
AcDbEntity
  8
Vector Layer 1
 62
    18
420
        0
370
    30
100
AcDb3dPolyline
 66
     1
 10
0.0
 20
0.0
 30
0.0
 70
     8
  0
VERTEX
  5
11A
330
119
100
AcDbEntity
  8
0
 62
    18
420
        0
100
AcDbVertex
100
AcDb3dPolylineVertex
 10
3.621906695416958
 20
1.538838684023853
 30
0.0
 70
    32
  0
VERTEX
  5
11B
330
119
100
AcDbEntity
  8
0
 62
    18
420
        0
100
AcDbVertex
100
AcDb3dPolylineVertex
 10
3.621906695416958
 20
1.462842700211128
 30
0.0
 70
    32
  0
VERTEX
  5
11C
330
119
100
AcDbEntity
  8
0
 62
    18
420
        0
100
AcDbVertex
100
AcDb3dPolylineVertex
 10
3.621906695416958
 20
-1.468135915541663
 30
0.0
 70
    32
  0
VERTEX
  5
11D
330
119
100
AcDbEntity
  8
0
 62
    18
420
        0
100
AcDbVertex
100
AcDb3dPolylineVertex
 10
3.621906695416958
 20
-1.54413189935439
 30
0.0
 70
    32
  0
SEQEND
  5
11E
330
119
100
AcDbEntity
  8
Vector Layer 1
 62
    18
420
        0
370
    30
  0
LWPOLYLINE
  5
11F
330
70
100
AcDbEntity
  8
Vector Layer 1
 62
    18
420
        0
370
    30
100
AcDbPolyline
 90
        4
 70
     0
 43
0.0
 10
-3.621906695416959
 20
1.538838684023854
 42
0.384838599563252
 10
-3.995639959302097
 20
1.876500644631936
 10
-3.995639959302097
 20
1.876500644631936
 42
0.403396814828914
 10
-4.371041808751935
 20
1.514763743248792
210
0.0
220
0.0
230
-1.0
  0
LWPOLYLINE
  5
120
330
70
100
AcDbEntity
  8
Vector Layer 1
 62
    18
420
        0
370
    30
100
AcDbPolyline
 90
       28
 70
     0
 43
0.0
 10
3.742545789458399
 20
-1.568036022781017
 10
3.754103128154391
 20
-1.593778432396877
 10
3.767271092030433
 20
-1.618085111823255
 10
3.781954336755211
 20
-1.640847552070874
 10
3.798057517997408
 20
-1.661957244150455
 10
3.815485291425709
 20
-1.681305679072721
 10
3.8341423127088
 20
-1.698784347848393
 10
3.853933237515364
 20
-1.714284741488194
 10
3.874762721514086
 20
-1.727698351002845
 10
3.896535420373652
 20
-1.738916667403069
 10
3.919155989762746
 20
-1.747831181699587
 10
3.942529085350051
 20
-1.754333384903121
 10
3.966559362804255
 20
-1.758314768024393
 10
3.99115147779404
 20
-1.759666822074127
 10
3.991151477794039
 20
-1.759666822074127
 10
4.015865737945683
 20
-1.75830549679635
 10
4.039990659167486
 20
-1.754296858810355
 10
4.063433201690408
 20
-1.747753914887147
 10
4.086100325745408
 20
-1.73878967179773
 10
4.107898991563445
 20
-1.727517136313109
 10
4.128736159375478
 20
-1.714049315204288
 10
4.148518789412465
 20
-1.698499215242271
 10
4.167153841905366
 20
-1.680979843198064
 10
4.18454827708514
 20
-1.66160420584267
 10
4.200609055182746
 20
-1.640485309947095
 10
4.215243136429142
 20
-1.617736162282342
 10
4.228357481055288
 20
-1.593469769619416
 10
4.239859049292143
 20
-1.567799138729322
  0
LWPOLYLINE
  5
121
330
70
100
AcDbEntity
  8
Vector Layer 1
 62
    18
420
        0
370
    30
100
AcDbPolyline
 90
       28
 70
     0
 43
0.0
 10
-3.742545789458399
 20
1.565744423861799
 10
-3.754103128154391
 20
1.591486833477659
 10
-3.767271092030433
 20
1.615793512904038
 10
-3.781954336755211
 20
1.638555953151657
 10
-3.798057517997408
 20
1.659665645231238
 10
-3.815485291425709
 20
1.679014080153504
 10
-3.8341423127088
 20
1.696492748929176
 10
-3.853933237515364
 20
1.711993142568976
 10
-3.874762721514086
 20
1.725406752083627
 10
-3.896535420373652
 20
1.736625068483851
 10
-3.919155989762746
 20
1.745539582780368
 10
-3.942529085350051
 20
1.752041785983903
 10
-3.966559362804255
 20
1.756023169105175
 10
-3.99115147779404
 20
1.757375223154909
 10
-3.991151477794039
 20
1.757375223154909
 10
-4.015865737945683
 20
1.756013897877132
 10
-4.039990659167486
 20
1.752005259891137
 10
-4.063433201690408
 20
1.74546231596793
 10
-4.086100325745408
 20
1.736498072878513
 10
-4.107898991563445
 20
1.725225537393892
 10
-4.128736159375478
 20
1.71175771628507
 10
-4.148518789412465
 20
1.696207616323054
 10
-4.167153841905366
 20
1.678688244278847
 10
-4.18454827708514
 20
1.659312606923453
 10
-4.200609055182746
 20
1.638193711027877
 10
-4.215243136429142
 20
1.615444563363124
 10
-4.228357481055288
 20
1.591178170700199
 10
-4.239859049292143
 20
1.565507539810104
210
0.0
220
0.0
230
-1.0
  0
LINE
  5
122
330
70
100
AcDbEntity
  8
Vector Layer 1
 62
    18
420
        0
370
    30
100
AcDbLine
 10
4.239859049292144
 20
1.565507539810104
 30
0.0
 11
4.239859049292144
 21
-1.567799138729321
 31
0.0
  0
LINE
  5
123
330
70
100
AcDbEntity
  8
Vector Layer 1
 62
    18
420
        0
370
    30
100
AcDbLine
 10
3.742545789458399
 20
1.565744423861799
 30
0.0
 11
3.742545789458399
 21
-1.568036022781017
 31
0.0
  0
LWPOLYLINE
  5
124
330
70
100
AcDbEntity
  8
Vector Layer 1
 62
    18
420
        0
370
    30
100
AcDbPolyline
 90
        4
 70
     0
 43
0.0
 10
4.403991146200203
 20
-2.142606813475778
 10
4.502097319853052
 20
-1.931444948396713
 10
4.502097319853052
 20
-1.931444948396713
 10
4.403991146200203
 20
-1.72402046146064
  0
LINE
  5
125
330
70
100
AcDbEntity
  8
Vector Layer 1
 62
    18
420
        0
370
    30
100
AcDbLine
 10
4.403991146200203
 20
-2.142606813475778
 30
0.0
 11
4.403991146200203
 21
-1.72402046146064
 31
0.0
  0
LWPOLYLINE
  5
126
330
70
100
AcDbEntity
  8
Vector Layer 1
 62
    18
420
        0
370
    30
100
AcDbPolyline
 90
        4
 70
     0
 43
0.0
 10
-4.502097319853052
 20
-1.931444948396713
 10
-4.403991146200203
 20
-1.933313637468209
 10
-4.403991146200203
 20
-1.933313637468209
 10
-4.310962144720234
 20
-1.931444948396713
210
0.0
220
0.0
230
-1.0
  0
LWPOLYLINE
  5
127
330
70
100
AcDbEntity
  8
Vector Layer 1
 62
    18
420
        0
370
    30
100
AcDbPolyline
 90
        6
 70
     0
 43
0.0
 10
-4.403991146200203
 20
-2.142606813475778
 10
-4.310962144720234
 20
-1.931444948396713
 10
-4.310962144720234
 20
-1.931444948396713
 10
-4.403991146200203
 20
-1.72402046146064
 10
-4.403991146200203
 20
-1.72402046146064
 10
-4.403991146200203
 20
-2.142606813475778
210
0.0
220
0.0
230
-1.0
  0
LWPOLYLINE
  5
128
330
70
100
AcDbEntity
  8
Vector Layer 1
 62
    18
420
        0
370
    30
100
AcDbPolyline
 90
        4
 70
     0
 43
0.0
 10
-4.403991146200203
 20
2.142606813475778
 10
-4.502097319853052
 20
1.931444948396713
 10
-4.502097319853052
 20
1.931444948396713
 10
-4.403991146200203
 20
1.72402046146064
210
0.0
220
0.0
230
-1.0
  0
LINE
  5
129
330
70
100
AcDbEntity
  8
Vector Layer 1
 62
    18
420
        0
370
    30
100
AcDbLine
 10
4.403991146200203
 20
2.142606813475778
 30
0.0
 11
4.403991146200203
 21
1.72402046146064
 31
0.0
  0
LWPOLYLINE
  5
12A
330
70
100
AcDbEntity
  8
Vector Layer 1
 62
    18
420
        0
370
    30
100
AcDbPolyline
 90
        4
 70
     0
 43
0.0
 10
4.502097319853052
 20
1.931444948396713
 10
4.403991146200203
 20
1.933313637468209
 10
4.403991146200203
 20
1.933313637468209
 10
4.310962144720234
 20
1.931444948396713
  0
LWPOLYLINE
  5
12B
330
70
100
AcDbEntity
  8
Vector Layer 1
 62
    18
420
        0
370
    30
100
AcDbPolyline
 90
        6
 70
     0
 43
0.0
 10
4.403991146200203
 20
2.142606813475778
 10
4.310962144720234
 20
1.931444948396713
 10
4.310962144720234
 20
1.931444948396713
 10
4.403991146200203
 20
1.72402046146064
 10
4.403991146200203
 20
1.72402046146064
 10
4.403991146200203
 20
2.142606813475778
  0
POLYLINE
  5
12C
330
70
100
AcDbEntity
  8
Vector Layer 1
 62
    18
420
        0
370
    30
100
AcDb3dPolyline
 66
     1
 10
0.0
 20
0.0
 30
0.0
 70
     8
  0
VERTEX
  5
12D
330
12C
100
AcDbEntity
  8
0
 62
    18
420
        0
100
AcDbVertex
100
AcDb3dPolylineVertex
 10
5.183724774545314
 20
-1.520056958579326
 30
0.0
 70
    32
  0
VERTEX
  5
12E
330
12C
100
AcDbEntity
  8
0
 62
    18
420
        0
100
AcDbVertex
100
AcDb3dPolylineVertex
 10
5.183724774545314
 20
-1.492210856316729
 30
0.0
 70
    32
  0
VERTEX
  5
12F
330
12C
100
AcDbEntity
  8
0
 62
    18
420
        0
100
AcDbVertex
100
AcDb3dPolylineVertex
 10
5.183724774545314
 20
1.486917640986193
 30
0.0
 70
    32
  0
VERTEX
  5
130
330
12C
100
AcDbEntity
  8
0
 62
    18
420
        0
100
AcDbVertex
100
AcDb3dPolylineVertex
 10
5.183724774545314
 20
1.51476374324879
 30
0.0
 70
    32
  0
SEQEND
  5
131
330
12C
100
AcDbEntity
  8
Vector Layer 1
 62
    18
420
        0
370
    30
  0
LWPOLYLINE
  5
132
330
70
100
AcDbEntity
  8
Vector Layer 1
 62
    18
420
        0
370
    30
100
AcDbPolyline
 90
        4
 70
     0
 43
0.0
 10
4.434589661210326
 20
-1.544131899354389
 42
0.3848385995632524
 10
4.808322925095475
 20
-1.881793859962472
 10
4.808322925095476
 20
-1.881793859962472
 42
0.4033968148289166
 10
5.183724774545315
 20
-1.520056958579326
  0
POLYLINE
  5
133
330
70
100
AcDbEntity
  8
Vector Layer 1
 62
    18
420
        0
370
    30
100
AcDb3dPolyline
 66
     1
 10
0.0
 20
0.0
 30
0.0
 70
     8
  0
VERTEX
  5
134
330
133
100
AcDbEntity
  8
0
 62
    18
420
        0
100
AcDbVertex
100
AcDb3dPolylineVertex
 10
4.434589661210326
 20
1.538838684023853
 30
0.0
 70
    32
  0
VERTEX
  5
135
330
133
100
AcDbEntity
  8
0
 62
    18
420
        0
100
AcDbVertex
100
AcDb3dPolylineVertex
 10
4.434589661210326
 20
1.462842700211128
 30
0.0
 70
    32
  0
VERTEX
  5
136
330
133
100
AcDbEntity
  8
0
 62
    18
420
        0
100
AcDbVertex
100
AcDb3dPolylineVertex
 10
4.434589661210326
 20
-1.468135915541663
 30
0.0
 70
    32
  0
VERTEX
  5
137
330
133
100
AcDbEntity
  8
0
 62
    18
420
        0
100
AcDbVertex
100
AcDb3dPolylineVertex
 10
4.434589661210326
 20
-1.54413189935439
 30
0.0
 70
    32
  0
SEQEND
  5
138
330
133
100
AcDbEntity
  8
Vector Layer 1
 62
    18
420
        0
370
    30
  0
LWPOLYLINE
  5
139
330
70
100
AcDbEntity
  8
Vector Layer 1
 62
    18
420
        0
370
    30
100
AcDbPolyline
 90
        4
 70
     0
 43
0.0
 10
-4.434589661210326
 20
1.538838684023854
 42
0.3848385995632522
 10
-4.808322925095475
 20
1.876500644631936
 10
-4.808322925095475
 20
1.876500644631936
 42
0.4033968148289142
 10
-5.183724774545314
 20
1.514763743248792
210
0.0
220
0.0
230
-1.0
  0
LWPOLYLINE
  5
13A
330
70
100
AcDbEntity
  8
Vector Layer 1
 62
    18
420
        0
370
    30
100
AcDbPolyline
 90
       28
 70
     0
 43
0.0
 10
4.555228755251769
 20
-1.568036022781017
 10
4.566786093947762
 20
-1.593778432396877
 10
4.579954057823805
 20
-1.618085111823255
 10
4.594637302548583
 20
-1.640847552070874
 10
4.61074048379078
 20
-1.661957244150455
 10
4.628168257219082
 20
-1.681305679072721
 10
4.646825278502173
 20
-1.698784347848393
 10
4.666616203308739
 20
-1.714284741488194
 10
4.687445687307461
 20
-1.727698351002845
 10
4.709218386167028
 20
-1.738916667403069
 10
4.731838955556121
 20
-1.747831181699587
 10
4.755212051143428
 20
-1.754333384903121
 10
4.779242328597631
 20
-1.758314768024393
 10
4.803834443587416
 20
-1.759666822074127
 10
4.803834443587417
 20
-1.759666822074127
 10
4.828548703739061
 20
-1.75830549679635
 10
4.852673624960864
 20
-1.754296858810355
 10
4.876116167483786
 20
-1.747753914887147
 10
4.898783291538786
 20
-1.73878967179773
 10
4.920581957356823
 20
-1.727517136313109
 10
4.941419125168856
 20
-1.714049315204288
 10
4.961201755205844
 20
-1.698499215242271
 10
4.979836807698745
 20
-1.680979843198064
 10
4.99723124287852
 20
-1.66160420584267
 10
5.013292020976126
 20
-1.640485309947095
 10
5.027926102222522
 20
-1.617736162282342
 10
5.041040446848668
 20
-1.593469769619416
 10
5.052542015085523
 20
-1.567799138729322
  0
LWPOLYLINE
  5
13B
330
70
100
AcDbEntity
  8
Vector Layer 1
 62
    18
420
        0
370
    30
100
AcDbPolyline
 90
       28
 70
     0
 43
0.0
 10
-4.555228755251769
 20
1.565744423861799
 10
-4.566786093947762
 20
1.591486833477659
 10
-4.579954057823805
 20
1.615793512904038
 10
-4.594637302548583
 20
1.638555953151657
 10
-4.61074048379078
 20
1.659665645231238
 10
-4.628168257219082
 20
1.679014080153504
 10
-4.646825278502173
 20
1.696492748929176
 10
-4.666616203308739
 20
1.711993142568976
 10
-4.687445687307461
 20
1.725406752083627
 10
-4.709218386167028
 20
1.736625068483851
 10
-4.731838955556121
 20
1.745539582780368
 10
-4.755212051143428
 20
1.752041785983903
 10
-4.779242328597631
 20
1.756023169105175
 10
-4.803834443587416
 20
1.757375223154909
 10
-4.803834443587417
 20
1.757375223154909
 10
-4.828548703739061
 20
1.756013897877132
 10
-4.852673624960864
 20
1.752005259891137
 10
-4.876116167483786
 20
1.74546231596793
 10
-4.898783291538786
 20
1.736498072878513
 10
-4.920581957356823
 20
1.725225537393892
 10
-4.941419125168856
 20
1.71175771628507
 10
-4.961201755205844
 20
1.696207616323054
 10
-4.979836807698745
 20
1.678688244278847
 10
-4.99723124287852
 20
1.659312606923453
 10
-5.013292020976126
 20
1.638193711027877
 10
-5.027926102222522
 20
1.615444563363124
 10
-5.041040446848668
 20
1.591178170700199
 10
-5.052542015085523
 20
1.565507539810104
210
0.0
220
0.0
230
-1.0
  0
LINE
  5
13C
330
70
100
AcDbEntity
  8
Vector Layer 1
 62
    18
420
        0
370
    30
100
AcDbLine
 10
5.052542015085523
 20
1.565507539810104
 30
0.0
 11
5.052542015085523
 21
-1.567799138729321
 31
0.0
  0
LINE
  5
13D
330
70
100
AcDbEntity
  8
Vector Layer 1
 62
    18
420
        0
370
    30
100
AcDbLine
 10
4.555228755251769
 20
1.565744423861799
 30
0.0
 11
4.555228755251769
 21
-1.568036022781017
 31
0.0
  0
LWPOLYLINE
  5
13E
330
70
100
AcDbEntity
  8
Vector Layer 1
 62
    18
420
        0
370
    30
100
AcDbPolyline
 90
        4
 70
     0
 43
0.0
 10
5.21667411199358
 20
-2.142606813475778
 10
5.314780285646432
 20
-1.931444948396713
 10
5.314780285646432
 20
-1.931444948396713
 10
5.21667411199358
 20
-1.72402046146064
  0
LINE
  5
13F
330
70
100
AcDbEntity
  8
Vector Layer 1
 62
    18
420
        0
370
    30
100
AcDbLine
 10
5.21667411199358
 20
-2.142606813475778
 30
0.0
 11
5.21667411199358
 21
-1.72402046146064
 31
0.0
  0
LWPOLYLINE
  5
140
330
70
100
AcDbEntity
  8
Vector Layer 1
 62
    18
420
        0
370
    30
100
AcDbPolyline
 90
        4
 70
     0
 43
0.0
 10
-5.314780285646432
 20
-1.931444948396713
 10
-5.21667411199358
 20
-1.933313637468209
 10
-5.21667411199358
 20
-1.933313637468209
 10
-5.123645110513614
 20
-1.931444948396713
210
0.0
220
0.0
230
-1.0
  0
LWPOLYLINE
  5
141
330
70
100
AcDbEntity
  8
Vector Layer 1
 62
    18
420
        0
370
    30
100
AcDbPolyline
 90
        6
 70
     0
 43
0.0
 10
-5.21667411199358
 20
-2.142606813475778
 10
-5.123645110513614
 20
-1.931444948396713
 10
-5.123645110513614
 20
-1.931444948396713
 10
-5.21667411199358
 20
-1.72402046146064
 10
-5.21667411199358
 20
-1.72402046146064
 10
-5.21667411199358
 20
-2.142606813475778
210
0.0
220
0.0
230
-1.0
  0
LWPOLYLINE
  5
142
330
70
100
AcDbEntity
  8
Vector Layer 1
 62
    18
420
        0
370
    30
100
AcDbPolyline
 90
        4
 70
     0
 43
0.0
 10
-5.21667411199358
 20
2.142606813475778
 10
-5.314780285646432
 20
1.931444948396713
 10
-5.314780285646432
 20
1.931444948396713
 10
-5.21667411199358
 20
1.72402046146064
210
0.0
220
0.0
230
-1.0
  0
LINE
  5
143
330
70
100
AcDbEntity
  8
Vector Layer 1
 62
    18
420
        0
370
    30
100
AcDbLine
 10
5.21667411199358
 20
2.142606813475778
 30
0.0
 11
5.21667411199358
 21
1.72402046146064
 31
0.0
  0
LWPOLYLINE
  5
144
330
70
100
AcDbEntity
  8
Vector Layer 1
 62
    18
420
        0
370
    30
100
AcDbPolyline
 90
        4
 70
     0
 43
0.0
 10
5.314780285646432
 20
1.931444948396713
 10
5.21667411199358
 20
1.933313637468209
 10
5.21667411199358
 20
1.933313637468209
 10
5.123645110513614
 20
1.931444948396713
  0
LWPOLYLINE
  5
145
330
70
100
AcDbEntity
  8
Vector Layer 1
 62
    18
420
        0
370
    30
100
AcDbPolyline
 90
        6
 70
     0
 43
0.0
 10
5.21667411199358
 20
2.142606813475778
 10
5.123645110513614
 20
1.931444948396713
 10
5.123645110513614
 20
1.931444948396713
 10
5.21667411199358
 20
1.72402046146064
 10
5.21667411199358
 20
1.72402046146064
 10
5.21667411199358
 20
2.142606813475778
  0
POLYLINE
  5
146
330
70
100
AcDbEntity
  8
Vector Layer 1
 62
    18
420
        0
370
    30
100
AcDb3dPolyline
 66
     1
 10
0.0
 20
0.0
 30
0.0
 70
     8
  0
VERTEX
  5
147
330
146
100
AcDbEntity
  8
0
 62
    18
420
        0
100
AcDbVertex
100
AcDb3dPolylineVertex
 10
5.996407740338708
 20
-1.520056958579326
 30
0.0
 70
    32
  0
VERTEX
  5
148
330
146
100
AcDbEntity
  8
0
 62
    18
420
        0
100
AcDbVertex
100
AcDb3dPolylineVertex
 10
5.996407740338708
 20
-1.492210856316729
 30
0.0
 70
    32
  0
VERTEX
  5
149
330
146
100
AcDbEntity
  8
0
 62
    18
420
        0
100
AcDbVertex
100
AcDb3dPolylineVertex
 10
5.996407740338708
 20
1.486917640986193
 30
0.0
 70
    32
  0
VERTEX
  5
14A
330
146
100
AcDbEntity
  8
0
 62
    18
420
        0
100
AcDbVertex
100
AcDb3dPolylineVertex
 10
5.996407740338708
 20
1.51476374324879
 30
0.0
 70
    32
  0
SEQEND
  5
14B
330
146
100
AcDbEntity
  8
Vector Layer 1
 62
    18
420
        0
370
    30
  0
LWPOLYLINE
  5
14C
330
70
100
AcDbEntity
  8
Vector Layer 1
 62
    18
420
        0
370
    30
100
AcDbPolyline
 90
        4
 70
     0
 43
0.0
 10
5.247272627003704
 20
-1.544131899354389
 42
0.384838599563252
 10
5.621005890888862
 20
-1.881793859962471
 10
5.621005890888862
 20
-1.881793859962472
 42
0.4033968148289159
 10
5.996407740338707
 20
-1.520056958579326
  0
POLYLINE
  5
14D
330
70
100
AcDbEntity
  8
Vector Layer 1
 62
    18
420
        0
370
    30
100
AcDb3dPolyline
 66
     1
 10
0.0
 20
0.0
 30
0.0
 70
     8
  0
VERTEX
  5
14E
330
14D
100
AcDbEntity
  8
0
 62
    18
420
        0
100
AcDbVertex
100
AcDb3dPolylineVertex
 10
5.247272627003703
 20
1.538838684023853
 30
0.0
 70
    32
  0
VERTEX
  5
14F
330
14D
100
AcDbEntity
  8
0
 62
    18
420
        0
100
AcDbVertex
100
AcDb3dPolylineVertex
 10
5.247272627003703
 20
1.462842700211128
 30
0.0
 70
    32
  0
VERTEX
  5
150
330
14D
100
AcDbEntity
  8
0
 62
    18
420
        0
100
AcDbVertex
100
AcDb3dPolylineVertex
 10
5.247272627003703
 20
-1.468135915541663
 30
0.0
 70
    32
  0
VERTEX
  5
151
330
14D
100
AcDbEntity
  8
0
 62
    18
420
        0
100
AcDbVertex
100
AcDb3dPolylineVertex
 10
5.247272627003703
 20
-1.54413189935439
 30
0.0
 70
    32
  0
SEQEND
  5
152
330
14D
100
AcDbEntity
  8
Vector Layer 1
 62
    18
420
        0
370
    30
  0
LWPOLYLINE
  5
153
330
70
100
AcDbEntity
  8
Vector Layer 1
 62
    18
420
        0
370
    30
100
AcDbPolyline
 90
        4
 70
     0
 43
0.0
 10
-5.247272627003703
 20
1.538838684023854
 42
0.3848385995632524
 10
-5.621005890888862
 20
1.876500644631936
 10
-5.621005890888862
 20
1.876500644631936
 42
0.4033968148289141
 10
-5.996407740338708
 20
1.514763743248792
210
0.0
220
0.0
230
-1.0
  0
LWPOLYLINE
  5
154
330
70
100
AcDbEntity
  8
Vector Layer 1
 62
    18
420
        0
370
    30
100
AcDbPolyline
 90
       28
 70
     0
 43
0.0
 10
5.367911721045151
 20
-1.568036022781017
 10
5.379469059741143
 20
-1.593778432396877
 10
5.392637023617186
 20
-1.618085111823255
 10
5.407320268341964
 20
-1.640847552070874
 10
5.423423449584162
 20
-1.661957244150455
 10
5.440851223012464
 20
-1.681305679072721
 10
5.459508244295555
 20
-1.698784347848393
 10
5.47929916910212
 20
-1.714284741488194
 10
5.500128653100844
 20
-1.727698351002845
 10
5.521901351960411
 20
-1.738916667403069
 10
5.544521921349506
 20
-1.747831181699587
 10
5.567895016936813
 20
-1.754333384903121
 10
5.591925294391018
 20
-1.758314768024393
 10
5.616517409380805
 20
-1.759666822074127
 10
5.616517409380804
 20
-1.759666822074127
 10
5.641231669532448
 20
-1.75830549679635
 10
5.665356590754252
 20
-1.754296858810355
 10
5.688799133277175
 20
-1.747753914887147
 10
5.711466257332175
 20
-1.73878967179773
 10
5.733264923150213
 20
-1.727517136313109
 10
5.754102090962246
 20
-1.714049315204288
 10
5.773884720999234
 20
-1.698499215242271
 10
5.792519773492135
 20
-1.680979843198064
 10
5.809914208671909
 20
-1.66160420584267
 10
5.825974986769516
 20
-1.640485309947095
 10
5.840609068015912
 20
-1.617736162282342
 10
5.853723412642058
 20
-1.593469769619416
 10
5.865224980878913
 20
-1.567799138729322
  0
LWPOLYLINE
  5
155
330
70
100
AcDbEntity
  8
Vector Layer 1
 62
    18
420
        0
370
    30
100
AcDbPolyline
 90
       28
 70
     0
 43
0.0
 10
-5.367911721045151
 20
1.565744423861799
 10
-5.379469059741143
 20
1.591486833477659
 10
-5.392637023617186
 20
1.615793512904038
 10
-5.407320268341964
 20
1.638555953151657
 10
-5.423423449584162
 20
1.659665645231238
 10
-5.440851223012464
 20
1.679014080153504
 10
-5.459508244295555
 20
1.696492748929176
 10
-5.47929916910212
 20
1.711993142568976
 10
-5.500128653100844
 20
1.725406752083627
 10
-5.521901351960411
 20
1.736625068483851
 10
-5.544521921349506
 20
1.745539582780368
 10
-5.567895016936813
 20
1.752041785983903
 10
-5.591925294391018
 20
1.756023169105175
 10
-5.616517409380805
 20
1.757375223154909
 10
-5.616517409380804
 20
1.757375223154909
 10
-5.641231669532448
 20
1.756013897877132
 10
-5.665356590754252
 20
1.752005259891137
 10
-5.688799133277175
 20
1.74546231596793
 10
-5.711466257332175
 20
1.736498072878513
 10
-5.733264923150213
 20
1.725225537393892
 10
-5.754102090962246
 20
1.71175771628507
 10
-5.773884720999234
 20
1.696207616323054
 10
-5.792519773492135
 20
1.678688244278847
 10
-5.809914208671909
 20
1.659312606923453
 10
-5.825974986769516
 20
1.638193711027877
 10
-5.840609068015912
 20
1.615444563363124
 10
-5.853723412642058
 20
1.591178170700199
 10
-5.865224980878913
 20
1.565507539810104
210
0.0
220
0.0
230
-1.0
  0
LINE
  5
156
330
70
100
AcDbEntity
  8
Vector Layer 1
 62
    18
420
        0
370
    30
100
AcDbLine
 10
5.865224980878914
 20
1.565507539810104
 30
0.0
 11
5.865224980878914
 21
-1.567799138729321
 31
0.0
  0
LINE
  5
157
330
70
100
AcDbEntity
  8
Vector Layer 1
 62
    18
420
        0
370
    30
100
AcDbLine
 10
5.367911721045151
 20
1.565744423861799
 30
0.0
 11
5.36791172104515
 21
-1.568036022781017
 31
0.0
  0
LWPOLYLINE
  5
158
330
70
100
AcDbEntity
  8
Vector Layer 1
 62
    18
420
        0
370
    30
100
AcDbPolyline
 90
        4
 70
     0
 43
0.0
 10
6.030144160039117
 20
-2.142606813475778
 10
6.128250333691966
 20
-1.931444948396713
 10
6.128250333691966
 20
-1.931444948396713
 10
6.030144160039117
 20
-1.72402046146064
  0
LINE
  5
159
330
70
100
AcDbEntity
  8
Vector Layer 1
 62
    18
420
        0
370
    30
100
AcDbLine
 10
6.030144160039117
 20
-2.142606813475778
 30
0.0
 11
6.030144160039117
 21
-1.72402046146064
 31
0.0
  0
LWPOLYLINE
  5
15A
330
70
100
AcDbEntity
  8
Vector Layer 1
 62
    18
420
        0
370
    30
100
AcDbPolyline
 90
        4
 70
     0
 43
0.0
 10
-6.128250333691966
 20
-1.931444948396713
 10
-6.030144160039117
 20
-1.933313637468209
 10
-6.030144160039117
 20
-1.933313637468209
 10
-5.937115158559149
 20
-1.931444948396713
210
0.0
220
0.0
230
-1.0
  0
LWPOLYLINE
  5
15B
330
70
100
AcDbEntity
  8
Vector Layer 1
 62
    18
420
        0
370
    30
100
AcDbPolyline
 90
        6
 70
     0
 43
0.0
 10
-6.030144160039117
 20
-2.142606813475778
 10
-5.937115158559149
 20
-1.931444948396713
 10
-5.937115158559149
 20
-1.931444948396713
 10
-6.030144160039117
 20
-1.72402046146064
 10
-6.030144160039117
 20
-1.72402046146064
 10
-6.030144160039117
 20
-2.142606813475778
210
0.0
220
0.0
230
-1.0
  0
LWPOLYLINE
  5
15C
330
70
100
AcDbEntity
  8
Vector Layer 1
 62
    18
420
        0
370
    30
100
AcDbPolyline
 90
        4
 70
     0
 43
0.0
 10
-6.030144160039117
 20
2.142606813475778
 10
-6.128250333691966
 20
1.931444948396713
 10
-6.128250333691966
 20
1.931444948396713
 10
-6.030144160039117
 20
1.72402046146064
210
0.0
220
0.0
230
-1.0
  0
LINE
  5
15D
330
70
100
AcDbEntity
  8
Vector Layer 1
 62
    18
420
        0
370
    30
100
AcDbLine
 10
6.030144160039117
 20
2.142606813475778
 30
0.0
 11
6.030144160039117
 21
1.72402046146064
 31
0.0
  0
LWPOLYLINE
  5
15E
330
70
100
AcDbEntity
  8
Vector Layer 1
 62
    18
420
        0
370
    30
100
AcDbPolyline
 90
        4
 70
     0
 43
0.0
 10
6.128250333691966
 20
1.931444948396713
 10
6.030144160039117
 20
1.933313637468209
 10
6.030144160039117
 20
1.933313637468209
 10
5.937115158559149
 20
1.931444948396713
  0
LWPOLYLINE
  5
15F
330
70
100
AcDbEntity
  8
Vector Layer 1
 62
    18
420
        0
370
    30
100
AcDbPolyline
 90
        6
 70
     0
 43
0.0
 10
6.030144160039117
 20
2.142606813475778
 10
5.937115158559149
 20
1.931444948396713
 10
5.937115158559149
 20
1.931444948396713
 10
6.030144160039117
 20
1.72402046146064
 10
6.030144160039117
 20
1.72402046146064
 10
6.030144160039117
 20
2.142606813475778
  0
POLYLINE
  5
160
330
70
100
AcDbEntity
  8
Vector Layer 1
 62
    18
420
        0
370
    30
100
AcDb3dPolyline
 66
     1
 10
0.0
 20
0.0
 30
0.0
 70
     8
  0
VERTEX
  5
161
330
160
100
AcDbEntity
  8
0
 62
    18
420
        0
100
AcDbVertex
100
AcDb3dPolylineVertex
 10
6.809877788384228
 20
-1.520056958579326
 30
0.0
 70
    32
  0
VERTEX
  5
162
330
160
100
AcDbEntity
  8
0
 62
    18
420
        0
100
AcDbVertex
100
AcDb3dPolylineVertex
 10
6.809877788384228
 20
-1.492210856316729
 30
0.0
 70
    32
  0
VERTEX
  5
163
330
160
100
AcDbEntity
  8
0
 62
    18
420
        0
100
AcDbVertex
100
AcDb3dPolylineVertex
 10
6.809877788384228
 20
1.486917640986193
 30
0.0
 70
    32
  0
VERTEX
  5
164
330
160
100
AcDbEntity
  8
0
 62
    18
420
        0
100
AcDbVertex
100
AcDb3dPolylineVertex
 10
6.809877788384228
 20
1.51476374324879
 30
0.0
 70
    32
  0
SEQEND
  5
165
330
160
100
AcDbEntity
  8
Vector Layer 1
 62
    18
420
        0
370
    30
  0
LWPOLYLINE
  5
166
330
70
100
AcDbEntity
  8
Vector Layer 1
 62
    18
420
        0
370
    30
100
AcDbPolyline
 90
        4
 70
     0
 43
0.0
 10
6.060742675049239
 20
-1.544131899354389
 42
0.3848385995632525
 10
6.43447593893439
 20
-1.881793859962472
 10
6.43447593893439
 20
-1.881793859962472
 42
0.4033968148289156
 10
6.809877788384227
 20
-1.520056958579326
  0
POLYLINE
  5
167
330
70
100
AcDbEntity
  8
Vector Layer 1
 62
    18
420
        0
370
    30
100
AcDb3dPolyline
 66
     1
 10
0.0
 20
0.0
 30
0.0
 70
     8
  0
VERTEX
  5
168
330
167
100
AcDbEntity
  8
0
 62
    18
420
        0
100
AcDbVertex
100
AcDb3dPolylineVertex
 10
6.060742675049239
 20
1.538838684023853
 30
0.0
 70
    32
  0
VERTEX
  5
169
330
167
100
AcDbEntity
  8
0
 62
    18
420
        0
100
AcDbVertex
100
AcDb3dPolylineVertex
 10
6.060742675049239
 20
1.462842700211128
 30
0.0
 70
    32
  0
VERTEX
  5
16A
330
167
100
AcDbEntity
  8
0
 62
    18
420
        0
100
AcDbVertex
100
AcDb3dPolylineVertex
 10
6.060742675049239
 20
-1.468135915541663
 30
0.0
 70
    32
  0
VERTEX
  5
16B
330
167
100
AcDbEntity
  8
0
 62
    18
420
        0
100
AcDbVertex
100
AcDb3dPolylineVertex
 10
6.060742675049239
 20
-1.54413189935439
 30
0.0
 70
    32
  0
SEQEND
  5
16C
330
167
100
AcDbEntity
  8
Vector Layer 1
 62
    18
420
        0
370
    30
  0
LWPOLYLINE
  5
16D
330
70
100
AcDbEntity
  8
Vector Layer 1
 62
    18
420
        0
370
    30
100
AcDbPolyline
 90
        4
 70
     0
 43
0.0
 10
-6.060742675049239
 20
1.538838684023854
 42
0.384838599563253
 10
-6.43447593893439
 20
1.876500644631936
 10
-6.43447593893439
 20
1.876500644631936
 42
0.4033968148289136
 10
-6.809877788384227
 20
1.514763743248792
210
0.0
220
0.0
230
-1.0
  0
LWPOLYLINE
  5
16E
330
70
100
AcDbEntity
  8
Vector Layer 1
 62
    18
420
        0
370
    30
100
AcDbPolyline
 90
       28
 70
     0
 43
0.0
 10
6.181381769090684
 20
-1.568036022781017
 10
6.192939107786677
 20
-1.593778432396877
 10
6.20610707166272
 20
-1.618085111823255
 10
6.220790316387498
 20
-1.640847552070874
 10
6.236893497629695
 20
-1.661957244150455
 10
6.254321271057998
 20
-1.681305679072721
 10
6.272978292341089
 20
-1.698784347848393
 10
6.292769217147654
 20
-1.714284741488194
 10
6.313598701146377
 20
-1.727698351002845
 10
6.335371400005943
 20
-1.738916667403069
 10
6.357991969395037
 20
-1.747831181699587
 10
6.381365064982343
 20
-1.754333384903121
 10
6.405395342436547
 20
-1.758314768024393
 10
6.429987457426333
 20
-1.759666822074127
 10
6.429987457426332
 20
-1.759666822074127
 10
6.454701717577976
 20
-1.75830549679635
 10
6.478826638799779
 20
-1.754296858810355
 10
6.502269181322701
 20
-1.747753914887147
 10
6.524936305377702
 20
-1.73878967179773
 10
6.546734971195738
 20
-1.727517136313109
 10
6.567572139007771
 20
-1.714049315204288
 10
6.587354769044759
 20
-1.698499215242271
 10
6.605989821537661
 20
-1.680979843198064
 10
6.623384256717435
 20
-1.66160420584267
 10
6.639445034815041
 20
-1.640485309947095
 10
6.654079116061438
 20
-1.617736162282342
 10
6.667193460687584
 20
-1.593469769619416
 10
6.678695028924439
 20
-1.567799138729322
  0
LWPOLYLINE
  5
16F
330
70
100
AcDbEntity
  8
Vector Layer 1
 62
    18
420
        0
370
    30
100
AcDbPolyline
 90
       28
 70
     0
 43
0.0
 10
-6.181381769090684
 20
1.565744423861799
 10
-6.192939107786677
 20
1.591486833477659
 10
-6.20610707166272
 20
1.615793512904038
 10
-6.220790316387498
 20
1.638555953151657
 10
-6.236893497629695
 20
1.659665645231238
 10
-6.254321271057998
 20
1.679014080153504
 10
-6.272978292341089
 20
1.696492748929176
 10
-6.292769217147654
 20
1.711993142568976
 10
-6.313598701146377
 20
1.725406752083627
 10
-6.335371400005943
 20
1.736625068483851
 10
-6.357991969395037
 20
1.745539582780368
 10
-6.381365064982343
 20
1.752041785983903
 10
-6.405395342436547
 20
1.756023169105175
 10
-6.429987457426333
 20
1.757375223154909
 10
-6.429987457426332
 20
1.757375223154909
 10
-6.454701717577976
 20
1.756013897877132
 10
-6.478826638799779
 20
1.752005259891137
 10
-6.502269181322701
 20
1.74546231596793
 10
-6.524936305377702
 20
1.736498072878513
 10
-6.546734971195738
 20
1.725225537393892
 10
-6.567572139007771
 20
1.71175771628507
 10
-6.587354769044758
 20
1.696207616323054
 10
-6.60598982153766
 20
1.678688244278847
 10
-6.623384256717434
 20
1.659312606923453
 10
-6.63944503481504
 20
1.638193711027877
 10
-6.654079116061437
 20
1.615444563363124
 10
-6.667193460687583
 20
1.591178170700199
 10
-6.678695028924438
 20
1.565507539810104
210
0.0
220
0.0
230
-1.0
  0
LINE
  5
170
330
70
100
AcDbEntity
  8
Vector Layer 1
 62
    18
420
        0
370
    30
100
AcDbLine
 10
6.678695028924438
 20
1.565507539810104
 30
0.0
 11
6.678695028924438
 21
-1.567799138729321
 31
0.0
  0
LINE
  5
171
330
70
100
AcDbEntity
  8
Vector Layer 1
 62
    18
420
        0
370
    30
100
AcDbLine
 10
6.181381769090684
 20
1.565744423861799
 30
0.0
 11
6.181381769090684
 21
-1.568036022781017
 31
0.0
  0
LWPOLYLINE
  5
172
330
70
100
AcDbEntity
  8
Vector Layer 1
 62
    18
420
        0
370
    30
100
AcDbPolyline
 90
        4
 70
     0
 43
0.0
 10
6.842827125832495
 20
-2.142606813475778
 10
6.940933299485346
 20
-1.931444948396713
 10
6.940933299485346
 20
-1.931444948396713
 10
6.842827125832495
 20
-1.72402046146064
  0
LINE
  5
173
330
70
100
AcDbEntity
  8
Vector Layer 1
 62
    18
420
        0
370
    30
100
AcDbLine
 10
6.842827125832495
 20
-2.142606813475778
 30
0.0
 11
6.842827125832495
 21
-1.72402046146064
 31
0.0
  0
LWPOLYLINE
  5
174
330
70
100
AcDbEntity
  8
Vector Layer 1
 62
    18
420
        0
370
    30
100
AcDbPolyline
 90
        4
 70
     0
 43
0.0
 10
-6.940933299485346
 20
-1.931444948396713
 10
-6.842827125832495
 20
-1.933313637468209
 10
-6.842827125832495
 20
-1.933313637468209
 10
-6.749798124352528
 20
-1.931444948396713
210
0.0
220
0.0
230
-1.0
  0
LWPOLYLINE
  5
175
330
70
100
AcDbEntity
  8
Vector Layer 1
 62
    18
420
        0
370
    30
100
AcDbPolyline
 90
        6
 70
     0
 43
0.0
 10
-6.842827125832495
 20
-2.142606813475778
 10
-6.749798124352528
 20
-1.931444948396713
 10
-6.749798124352528
 20
-1.931444948396713
 10
-6.842827125832495
 20
-1.72402046146064
 10
-6.842827125832495
 20
-1.72402046146064
 10
-6.842827125832495
 20
-2.142606813475778
210
0.0
220
0.0
230
-1.0
  0
LWPOLYLINE
  5
176
330
70
100
AcDbEntity
  8
Vector Layer 1
 62
    18
420
        0
370
    30
100
AcDbPolyline
 90
        4
 70
     0
 43
0.0
 10
-6.842827125832495
 20
2.142606813475778
 10
-6.940933299485346
 20
1.931444948396713
 10
-6.940933299485346
 20
1.931444948396713
 10
-6.842827125832495
 20
1.72402046146064
210
0.0
220
0.0
230
-1.0
  0
LINE
  5
177
330
70
100
AcDbEntity
  8
Vector Layer 1
 62
    18
420
        0
370
    30
100
AcDbLine
 10
6.842827125832495
 20
2.142606813475778
 30
0.0
 11
6.842827125832495
 21
1.72402046146064
 31
0.0
  0
LWPOLYLINE
  5
178
330
70
100
AcDbEntity
  8
Vector Layer 1
 62
    18
420
        0
370
    30
100
AcDbPolyline
 90
        4
 70
     0
 43
0.0
 10
6.940933299485346
 20
1.931444948396713
 10
6.842827125832495
 20
1.933313637468209
 10
6.842827125832495
 20
1.933313637468209
 10
6.749798124352528
 20
1.931444948396713
  0
LWPOLYLINE
  5
179
330
70
100
AcDbEntity
  8
Vector Layer 1
 62
    18
420
        0
370
    30
100
AcDbPolyline
 90
        6
 70
     0
 43
0.0
 10
6.842827125832495
 20
2.142606813475778
 10
6.749798124352528
 20
1.931444948396713
 10
6.749798124352528
 20
1.931444948396713
 10
6.842827125832495
 20
1.72402046146064
 10
6.842827125832495
 20
1.72402046146064
 10
6.842827125832495
 20
2.142606813475778
  0
POLYLINE
  5
17A
330
70
100
AcDbEntity
  8
Vector Layer 1
 62
    18
420
        0
370
    30
100
AcDb3dPolyline
 66
     1
 10
0.0
 20
0.0
 30
0.0
 70
     8
  0
VERTEX
  5
17B
330
17A
100
AcDbEntity
  8
0
 62
    18
420
        0
100
AcDbVertex
100
AcDb3dPolylineVertex
 10
7.622560754177609
 20
-1.520056958579326
 30
0.0
 70
    32
  0
VERTEX
  5
17C
330
17A
100
AcDbEntity
  8
0
 62
    18
420
        0
100
AcDbVertex
100
AcDb3dPolylineVertex
 10
7.622560754177609
 20
-1.492210856316729
 30
0.0
 70
    32
  0
VERTEX
  5
17D
330
17A
100
AcDbEntity
  8
0
 62
    18
420
        0
100
AcDbVertex
100
AcDb3dPolylineVertex
 10
7.622560754177609
 20
1.486917640986193
 30
0.0
 70
    32
  0
VERTEX
  5
17E
330
17A
100
AcDbEntity
  8
0
 62
    18
420
        0
100
AcDbVertex
100
AcDb3dPolylineVertex
 10
7.622560754177609
 20
1.51476374324879
 30
0.0
 70
    32
  0
SEQEND
  5
17F
330
17A
100
AcDbEntity
  8
Vector Layer 1
 62
    18
420
        0
370
    30
  0
LWPOLYLINE
  5
180
330
70
100
AcDbEntity
  8
Vector Layer 1
 62
    18
420
        0
370
    30
100
AcDbPolyline
 90
        4
 70
     0
 43
0.0
 10
6.873425640842619
 20
-1.544131899354389
 42
0.3848385995632518
 10
7.24715890472777
 20
-1.881793859962472
 10
7.24715890472777
 20
-1.881793859962471
 42
0.4033968148289159
 10
7.622560754177609
 20
-1.520056958579326
  0
POLYLINE
  5
181
330
70
100
AcDbEntity
  8
Vector Layer 1
 62
    18
420
        0
370
    30
100
AcDb3dPolyline
 66
     1
 10
0.0
 20
0.0
 30
0.0
 70
     8
  0
VERTEX
  5
182
330
181
100
AcDbEntity
  8
0
 62
    18
420
        0
100
AcDbVertex
100
AcDb3dPolylineVertex
 10
6.873425640842618
 20
1.538838684023853
 30
0.0
 70
    32
  0
VERTEX
  5
183
330
181
100
AcDbEntity
  8
0
 62
    18
420
        0
100
AcDbVertex
100
AcDb3dPolylineVertex
 10
6.873425640842618
 20
1.462842700211128
 30
0.0
 70
    32
  0
VERTEX
  5
184
330
181
100
AcDbEntity
  8
0
 62
    18
420
        0
100
AcDbVertex
100
AcDb3dPolylineVertex
 10
6.873425640842618
 20
-1.468135915541663
 30
0.0
 70
    32
  0
VERTEX
  5
185
330
181
100
AcDbEntity
  8
0
 62
    18
420
        0
100
AcDbVertex
100
AcDb3dPolylineVertex
 10
6.873425640842618
 20
-1.54413189935439
 30
0.0
 70
    32
  0
SEQEND
  5
186
330
181
100
AcDbEntity
  8
Vector Layer 1
 62
    18
420
        0
370
    30
  0
LWPOLYLINE
  5
187
330
70
100
AcDbEntity
  8
Vector Layer 1
 62
    18
420
        0
370
    30
100
AcDbPolyline
 90
        4
 70
     0
 43
0.0
 10
-6.873425640842618
 20
1.538838684023854
 42
0.3848385995632524
 10
-7.247158904727769
 20
1.876500644631935
 10
-7.24715890472777
 20
1.876500644631936
 42
0.403396814828914
 10
-7.622560754177609
 20
1.514763743248792
210
0.0
220
0.0
230
-1.0
  0
LWPOLYLINE
  5
188
330
70
100
AcDbEntity
  8
Vector Layer 1
 62
    18
420
        0
370
    30
100
AcDbPolyline
 90
       28
 70
     0
 43
0.0
 10
6.994064734884064
 20
-1.568036022781017
 10
7.005622073580056
 20
-1.593778432396877
 10
7.018790037456098
 20
-1.618085111823255
 10
7.033473282180875
 20
-1.640847552070874
 10
7.049576463423073
 20
-1.661957244150455
 10
7.067004236851374
 20
-1.681305679072721
 10
7.085661258134465
 20
-1.698784347848393
 10
7.105452182941029
 20
-1.714284741488194
 10
7.126281666939752
 20
-1.727698351002845
 10
7.148054365799318
 20
-1.738916667403069
 10
7.170674935188412
 20
-1.747831181699587
 10
7.194048030775719
 20
-1.754333384903121
 10
7.218078308229923
 20
-1.758314768024393
 10
7.242670423219709
 20
-1.759666822074127
 10
7.242670423219711
 20
-1.759666822074127
 10
7.267384683371354
 20
-1.75830549679635
 10
7.291509604593158
 20
-1.754296858810355
 10
7.31495214711608
 20
-1.747753914887147
 10
7.337619271171081
 20
-1.73878967179773
 10
7.359417936989117
 20
-1.727517136313109
 10
7.38025510480115
 20
-1.714049315204288
 10
7.400037734838138
 20
-1.698499215242271
 10
7.41867278733104
 20
-1.680979843198064
 10
7.436067222510814
 20
-1.66160420584267
 10
7.45212800060842
 20
-1.640485309947095
 10
7.466762081854817
 20
-1.617736162282342
 10
7.479876426480963
 20
-1.593469769619416
 10
7.491377994717818
 20
-1.567799138729322
  0
LWPOLYLINE
  5
189
330
70
100
AcDbEntity
  8
Vector Layer 1
 62
    18
420
        0
370
    30
100
AcDbPolyline
 90
       28
 70
     0
 43
0.0
 10
-6.994064734884064
 20
1.565744423861799
 10
-7.005622073580056
 20
1.591486833477659
 10
-7.018790037456098
 20
1.615793512904038
 10
-7.033473282180875
 20
1.638555953151657
 10
-7.049576463423073
 20
1.659665645231238
 10
-7.067004236851374
 20
1.679014080153504
 10
-7.085661258134465
 20
1.696492748929176
 10
-7.105452182941029
 20
1.711993142568976
 10
-7.126281666939752
 20
1.725406752083627
 10
-7.148054365799318
 20
1.736625068483851
 10
-7.170674935188412
 20
1.745539582780368
 10
-7.194048030775719
 20
1.752041785983903
 10
-7.218078308229923
 20
1.756023169105175
 10
-7.242670423219709
 20
1.757375223154909
 10
-7.242670423219711
 20
1.757375223154909
 10
-7.267384683371354
 20
1.756013897877132
 10
-7.291509604593158
 20
1.752005259891137
 10
-7.31495214711608
 20
1.74546231596793
 10
-7.337619271171081
 20
1.736498072878513
 10
-7.359417936989117
 20
1.725225537393892
 10
-7.38025510480115
 20
1.71175771628507
 10
-7.400037734838138
 20
1.696207616323054
 10
-7.41867278733104
 20
1.678688244278847
 10
-7.436067222510814
 20
1.659312606923453
 10
-7.45212800060842
 20
1.638193711027877
 10
-7.466762081854817
 20
1.615444563363124
 10
-7.479876426480963
 20
1.591178170700199
 10
-7.491377994717818
 20
1.565507539810104
210
0.0
220
0.0
230
-1.0
  0
LINE
  5
18A
330
70
100
AcDbEntity
  8
Vector Layer 1
 62
    18
420
        0
370
    30
100
AcDbLine
 10
7.491377994717817
 20
1.565507539810104
 30
0.0
 11
7.491377994717817
 21
-1.567799138729321
 31
0.0
  0
LINE
  5
18B
330
70
100
AcDbEntity
  8
Vector Layer 1
 62
    18
420
        0
370
    30
100
AcDbLine
 10
6.994064734884064
 20
1.565744423861799
 30
0.0
 11
6.994064734884061
 21
-1.568036022781017
 31
0.0
  0
LWPOLYLINE
  5
18C
330
70
100
AcDbEntity
  8
Vector Layer 1
 62
    18
420
        0
370
    30
100
AcDbPolyline
 90
        4
 70
     0
 43
0.0
 10
7.655510091625876
 20
-2.142606813475778
 10
7.753616265278726
 20
-1.931444948396713
 10
7.753616265278726
 20
-1.931444948396713
 10
7.655510091625876
 20
-1.72402046146064
  0
LINE
  5
18D
330
70
100
AcDbEntity
  8
Vector Layer 1
 62
    18
420
        0
370
    30
100
AcDbLine
 10
7.655510091625876
 20
-2.142606813475778
 30
0.0
 11
7.655510091625876
 21
-1.72402046146064
 31
0.0
  0
LWPOLYLINE
  5
18E
330
70
100
AcDbEntity
  8
Vector Layer 1
 62
    18
420
        0
370
    30
100
AcDbPolyline
 90
        4
 70
     0
 43
0.0
 10
-7.753616265278726
 20
-1.931444948396713
 10
-7.655510091625876
 20
-1.933313637468209
 10
-7.655510091625876
 20
-1.933313637468209
 10
-7.562481090145908
 20
-1.931444948396713
210
0.0
220
0.0
230
-1.0
  0
LWPOLYLINE
  5
18F
330
70
100
AcDbEntity
  8
Vector Layer 1
 62
    18
420
        0
370
    30
100
AcDbPolyline
 90
        6
 70
     0
 43
0.0
 10
-7.655510091625876
 20
-2.142606813475778
 10
-7.562481090145908
 20
-1.931444948396713
 10
-7.562481090145908
 20
-1.931444948396713
 10
-7.655510091625876
 20
-1.72402046146064
 10
-7.655510091625876
 20
-1.72402046146064
 10
-7.655510091625876
 20
-2.142606813475778
210
0.0
220
0.0
230
-1.0
  0
LWPOLYLINE
  5
190
330
70
100
AcDbEntity
  8
Vector Layer 1
 62
    18
420
        0
370
    30
100
AcDbPolyline
 90
        4
 70
     0
 43
0.0
 10
-7.655510091625876
 20
2.142606813475778
 10
-7.753616265278726
 20
1.931444948396713
 10
-7.753616265278726
 20
1.931444948396713
 10
-7.655510091625876
 20
1.72402046146064
210
0.0
220
0.0
230
-1.0
  0
LINE
  5
191
330
70
100
AcDbEntity
  8
Vector Layer 1
 62
    18
420
        0
370
    30
100
AcDbLine
 10
7.655510091625876
 20
2.142606813475778
 30
0.0
 11
7.655510091625876
 21
1.72402046146064
 31
0.0
  0
LWPOLYLINE
  5
192
330
70
100
AcDbEntity
  8
Vector Layer 1
 62
    18
420
        0
370
    30
100
AcDbPolyline
 90
        4
 70
     0
 43
0.0
 10
7.753616265278726
 20
1.931444948396713
 10
7.655510091625876
 20
1.933313637468209
 10
7.655510091625876
 20
1.933313637468209
 10
7.562481090145908
 20
1.931444948396713
  0
LWPOLYLINE
  5
193
330
70
100
AcDbEntity
  8
Vector Layer 1
 62
    18
420
        0
370
    30
100
AcDbPolyline
 90
        6
 70
     0
 43
0.0
 10
7.655510091625876
 20
2.142606813475778
 10
7.562481090145908
 20
1.931444948396713
 10
7.562481090145908
 20
1.931444948396713
 10
7.655510091625876
 20
1.72402046146064
 10
7.655510091625876
 20
1.72402046146064
 10
7.655510091625876
 20
2.142606813475778
  0
POLYLINE
  5
194
330
70
100
AcDbEntity
  8
Vector Layer 1
 62
    18
420
        0
370
    30
100
AcDb3dPolyline
 66
     1
 10
0.0
 20
0.0
 30
0.0
 70
     8
  0
VERTEX
  5
195
330
194
100
AcDbEntity
  8
0
 62
    18
420
        0
100
AcDbVertex
100
AcDb3dPolylineVertex
 10
7.686108606635998
 20
1.538838684023853
 30
0.0
 70
    32
  0
VERTEX
  5
196
330
194
100
AcDbEntity
  8
0
 62
    18
420
        0
100
AcDbVertex
100
AcDb3dPolylineVertex
 10
7.686108606635998
 20
1.462842700211128
 30
0.0
 70
    32
  0
VERTEX
  5
197
330
194
100
AcDbEntity
  8
0
 62
    18
420
        0
100
AcDbVertex
100
AcDb3dPolylineVertex
 10
7.686108606635998
 20
-1.468135915541663
 30
0.0
 70
    32
  0
VERTEX
  5
198
330
194
100
AcDbEntity
  8
0
 62
    18
420
        0
100
AcDbVertex
100
AcDb3dPolylineVertex
 10
7.686108606635998
 20
-1.54413189935439
 30
0.0
 70
    32
  0
SEQEND
  5
199
330
194
100
AcDbEntity
  8
Vector Layer 1
 62
    18
420
        0
370
    30
  0
LINE
  5
19A
330
70
100
AcDbEntity
  8
Vector Layer 1
 62
    18
420
        0
370
    30
100
AcDbLine
 10
7.806747700677441
 20
1.565744423861799
 30
0.0
 11
7.806747700677441
 21
-1.568036022781017
 31
0.0
  0
LWPOLYLINE
  5
19B
330
70
100
AcDbEntity
  8
Vector Layer 1
 62
    18
420
        0
370
    30
100
AcDbPolyline
 90
        4
 70
     0
 43
0.0
 10
-7.686108606635997
 20
1.538838684023854
 42
0.3848385995632526
 10
-8.059841870521147
 20
1.876500644631936
 10
-8.059841870521147
 20
1.876500644631936
 42
0.0687995347968533
 10
-8.161766273016906
 20
1.862409241771688
210
0.0
220
0.0
230
-1.0
  0
LWPOLYLINE
  5
19C
330
70
100
AcDbEntity
  8
Vector Layer 1
 62
    18
420
        0
370
    30
100
AcDbPolyline
 90
       20
 70
     0
 43
0.0
 10
-7.806747700677441
 20
1.565744423861799
 10
-7.818305039373434
 20
1.591486833477659
 10
-7.831473003249477
 20
1.615793512904038
 10
-7.846156247974255
 20
1.638555953151657
 10
-7.862259429216453
 20
1.659665645231238
 10
-7.879687202644755
 20
1.679014080153504
 10
-7.898344223927846
 20
1.696492748929176
 10
-7.918135148734411
 20
1.711993142568976
 10
-7.938964632733134
 20
1.725406752083627
 10
-7.9607373315927
 20
1.736625068483851
 10
-7.983357900981794
 20
1.745539582780368
 10
-8.006730996569102
 20
1.752041785983903
 10
-8.030761274023305
 20
1.756023169105175
 10
-8.055353389013092
 20
1.757375223154909
 10
-8.05535338901309
 20
1.757375223154909
 10
-8.077738189347044
 20
1.7562595051714
 10
-8.099644282907835
 20
1.752969022359295
 10
-8.120999264702032
 20
1.747588781426233
 10
-8.141730729736199
 20
1.740203789079849
 10
-8.161766273016906
 20
1.73089905202778
210
0.0
220
0.0
230
-1.0
  0
LWPOLYLINE
  5
19D
330
70
100
AcDbEntity
  8
Vector Layer 1
 62
    18
420
        0
370
    30
100
AcDbPolyline
 90
       20
 70
     0
 43
0.0
 10
7.806747700677441
 20
-1.568036022781017
 10
7.818305039373434
 20
-1.593778432396877
 10
7.831473003249477
 20
-1.618085111823255
 10
7.846156247974255
 20
-1.640847552070874
 10
7.862259429216453
 20
-1.661957244150455
 10
7.879687202644755
 20
-1.681305679072721
 10
7.898344223927846
 20
-1.698784347848393
 10
7.918135148734411
 20
-1.714284741488194
 10
7.938964632733134
 20
-1.727698351002845
 10
7.9607373315927
 20
-1.738916667403069
 10
7.983357900981794
 20
-1.747831181699587
 10
8.006730996569102
 20
-1.754333384903121
 10
8.030761274023305
 20
-1.758314768024393
 10
8.055353389013092
 20
-1.759666822074127
 10
8.05535338901309
 20
-1.759666822074127
 10
8.077738189347044
 20
-1.758551104090618
 10
8.099644282907835
 20
-1.755260621278513
 10
8.120999264702032
 20
-1.749880380345451
 10
8.141730729736199
 20
-1.742495387999067
 10
8.161766273016906
 20
-1.733190650946999
  0
LWPOLYLINE
  5
19E
330
70
100
AcDbEntity
  8
Vector Layer 1
 62
    18
420
        0
370
    30
100
AcDbPolyline
 90
        4
 70
     0
 43
0.0
 10
7.686108606635999
 20
-1.544131899354389
 42
0.3848385995632521
 10
8.059841870521147
 20
-1.881793859962472
 10
8.059841870521147
 20
-1.881793859962471
 42
0.0687995347968533
 10
8.161766273016906
 20
-1.867702457102223
  0
LINE
  5
19F
330
70
100
AcDbEntity
  8
Vector Layer 1
 62
    18
420
        0
370
    30
100
AcDbLine
 10
2.778625214613484
 20
2.142606813475778
 30
0.0
 11
2.778625214613484
 21
3.16412059491918
 31
0.0
  0
LINE
  5
1A0
330
70
100
AcDbEntity
  8
Vector Layer 1
 62
    18
420
        0
370
    30
100
AcDbLine
 10
2.778625214613484
 20
3.16412059491918
 30
0.0
 11
5.21667411199358
 21
3.164120594919181
 31
0.0
  0
POLYLINE
  5
1A1
330
70
100
AcDbEntity
  8
Vector Layer 1
 62
    18
420
        0
370
    30
100
AcDb3dPolyline
 66
     1
 10
0.0
 20
0.0
 30
0.0
 70
     8
  0
VERTEX
  5
1A2
330
1A1
100
AcDbEntity
  8
0
 62
    18
420
        0
100
AcDbVertex
100
AcDb3dPolylineVertex
 10
5.21667411199358
 20
2.142606813475778
 30
0.0
 70
    32
  0
VERTEX
  5
1A3
330
1A1
100
AcDbEntity
  8
0
 62
    18
420
        0
100
AcDbVertex
100
AcDb3dPolylineVertex
 10
5.21667411199358
 20
2.251211707256392
 30
0.0
 70
    32
  0
VERTEX
  5
1A4
330
1A1
100
AcDbEntity
  8
0
 62
    18
420
        0
100
AcDbVertex
100
AcDb3dPolylineVertex
 10
5.21667411199358
 20
2.57432137704626
 30
0.0
 70
    32
  0
VERTEX
  5
1A5
330
1A1
100
AcDbEntity
  8
0
 62
    18
420
        0
100
AcDbVertex
100
AcDb3dPolylineVertex
 10
5.21667411199358
 20
2.746848492934023
 30
0.0
 70
    32
  0
VERTEX
  5
1A6
330
1A1
100
AcDbEntity
  8
0
 62
    18
420
        0
100
AcDbVertex
100
AcDb3dPolylineVertex
 10
5.21667411199358
 20
3.164120594919181
 30
0.0
 70
    32
  0
SEQEND
  5
1A7
330
1A1
100
AcDbEntity
  8
Vector Layer 1
 62
    18
420
        0
370
    30
  0
POLYLINE
  5
1A8
330
70
100
AcDbEntity
  8
Vector Layer 1
 62
    18
420
        0
370
    30
100
AcDb3dPolyline
 66
     1
 10
0.0
 20
0.0
 30
0.0
 70
     8
  0
VERTEX
  5
1A9
330
1A8
100
AcDbEntity
  8
0
 62
    18
420
        0
100
AcDbVertex
100
AcDb3dPolylineVertex
 10
3.591308180406837
 20
2.142606813475778
 30
0.0
 70
    32
  0
VERTEX
  5
1AA
330
1A8
100
AcDbEntity
  8
0
 62
    18
420
        0
100
AcDbVertex
100
AcDb3dPolylineVertex
 10
3.591308180406837
 20
2.251211707256392
 30
0.0
 70
    32
  0
VERTEX
  5
1AB
330
1A8
100
AcDbEntity
  8
0
 62
    18
420
        0
100
AcDbVertex
100
AcDb3dPolylineVertex
 10
3.591308180406837
 20
2.57432137704626
 30
0.0
 70
    32
  0
VERTEX
  5
1AC
330
1A8
100
AcDbEntity
  8
0
 62
    18
420
        0
100
AcDbVertex
100
AcDb3dPolylineVertex
 10
3.591308180406837
 20
2.746848492934023
 30
0.0
 70
    32
  0
VERTEX
  5
1AD
330
1A8
100
AcDbEntity
  8
0
 62
    18
420
        0
100
AcDbVertex
100
AcDb3dPolylineVertex
 10
3.591308180406837
 20
3.164120594919181
 30
0.0
 70
    32
  0
SEQEND
  5
1AE
330
1A8
100
AcDbEntity
  8
Vector Layer 1
 62
    18
420
        0
370
    30
  0
POLYLINE
  5
1AF
330
70
100
AcDbEntity
  8
Vector Layer 1
 62
    18
420
        0
370
    30
100
AcDb3dPolyline
 66
     1
 10
0.0
 20
0.0
 30
0.0
 70
     8
  0
VERTEX
  5
1B0
330
1AF
100
AcDbEntity
  8
0
 62
    18
420
        0
100
AcDbVertex
100
AcDb3dPolylineVertex
 10
4.403991146200203
 20
2.142606813475778
 30
0.0
 70
    32
  0
VERTEX
  5
1B1
330
1AF
100
AcDbEntity
  8
0
 62
    18
420
        0
100
AcDbVertex
100
AcDb3dPolylineVertex
 10
4.403991146200203
 20
2.251211707256392
 30
0.0
 70
    32
  0
VERTEX
  5
1B2
330
1AF
100
AcDbEntity
  8
0
 62
    18
420
        0
100
AcDbVertex
100
AcDb3dPolylineVertex
 10
4.403991146200203
 20
2.57432137704626
 30
0.0
 70
    32
  0
VERTEX
  5
1B3
330
1AF
100
AcDbEntity
  8
0
 62
    18
420
        0
100
AcDbVertex
100
AcDb3dPolylineVertex
 10
4.403991146200203
 20
2.746848492934023
 30
0.0
 70
    32
  0
VERTEX
  5
1B4
330
1AF
100
AcDbEntity
  8
0
 62
    18
420
        0
100
AcDbVertex
100
AcDb3dPolylineVertex
 10
4.403991146200203
 20
3.164120594919181
 30
0.0
 70
    32
  0
SEQEND
  5
1B5
330
1AF
100
AcDbEntity
  8
Vector Layer 1
 62
    18
420
        0
370
    30
  0
LWPOLYLINE
  5
1B6
330
70
100
AcDbEntity
  8
Vector Layer 1
 62
    18
420
        0
370
    30
100
AcDbPolyline
 90
       65
 70
     0
 43
0.0
 10
-4.120192298357536
 20
3.475027223105454
 10
-4.120192298357536
 20
3.538503445296643
 10
-4.120192298357536
 20
3.538503445296643
 10
-4.107528140688562
 20
3.520961625498005
 10
-4.093457676791005
 20
3.505758715005852
 10
-4.077980906664865
 20
3.492894713820184
 10
-4.061097830310142
 20
3.482369621941002
 10
-4.042808447726836
 20
3.474183439368304
 10
-4.023112758914948
 20
3.468336166102091
 10
-4.002010763874476
 20
3.464827802142364
 10
-3.979502462605422
 20
3.463658347489121
 10
-3.979502462605422
 20
3.463658347489121
 10
-3.955817305071396
 20
3.464984716311027
 10
-3.932890072578459
 20
3.468963822776743
 10
-3.910720765126611
 20
3.47559566688627
 10
-3.889309382715852
 20
3.484880248639608
 10
-3.868655925346182
 20
3.496817568036758
 10
-3.868655925346182
 20
3.496817568036758
 10
-3.849461473680607
 20
3.511123403187309
 10
-3.832048145861591
 20
3.527513532200855
 10
-3.816415941889134
 20
3.545987955077396
 10
-3.802564861763236
 20
3.56654667181693
 10
-3.790494905483896
 20
3.589189682419459
 10
-3.790494905483896
 20
3.589189682419459
 10
-3.780603983697687
 20
3.613765401876764
 10
-3.772911044530636
 20
3.639743282660083
 10
-3.767416087982742
 20
3.667123324769417
 10
-3.764119114054005
 20
3.695905528204765
 10
-3.763020122744427
 20
3.726089892966129
 10
-3.763020122744427
 20
3.726089892966129
 10
-3.764024373423869
 20
3.755648969568593
 10
-3.767037125462197
 20
3.784071158609423
 10
-3.772058378859411
 20
3.811356460088621
 10
-3.779088133615509
 20
3.837504874006186
 10
-3.788126389730494
 20
3.862516400362117
 10
-3.788126389730494
 20
3.862516400362117
 10
-3.799173147204363
 20
3.885993128509843
 10
-3.812228406037118
 20
3.907158185282249
 10
-3.827292166228759
 20
3.926011570679333
 10
-3.844364427779284
 20
3.942553284701097
 10
-3.863445190688695
 20
3.956783327347539
 10
-3.863445190688695
 20
3.956783327347539
 10
-3.88400390742823
 20
3.968550113610444
 10
-3.905510030469125
 20
3.977702058481591
 10
-3.927963559811382
 20
3.984239161960982
 10
-3.951364495454999
 20
3.988161424048617
 10
-3.975712837399979
 20
3.989468844744495
 10
-3.975712837399978
 20
3.989468844744495
 10
-3.997828853247376
 20
3.988254980420876
 10
-4.018701398324236
 20
3.98461338745002
 10
-4.03833047263056
 20
3.978544065831925
 10
-4.056716076166348
 20
3.970047015566594
 10
-4.056716076166347
 20
3.970047015566594
 10
-4.073650963803175
 20
3.959832791380046
 10
-4.088927890412621
 20
3.94813824484762
 10
-4.102546855994686
 20
3.934963375969319
 10
-4.114507860549368
 20
3.920308184745141
 10
-4.114507860549369
 20
3.920308184745141
 10
-4.114507860549369
 20
4.169476042003092
 10
-4.114507860549369
 20
4.169476042003092
 10
-4.199300724521183
 20
4.169476042003092
 10
-4.199300724521183
 20
4.169476042003092
 10
-4.199300724521183
 20
3.475027223105454
 10
-4.199300724521183
 20
3.475027223105454
 10
-4.120192298357536
 20
3.475027223105454
210
0.0
220
0.0
230
-1.0
  0
LWPOLYLINE
  5
1B7
330
70
100
AcDbEntity
  8
Vector Layer 1
 62
    18
420
        0
370
    30
100
AcDbPolyline
 90
       60
 70
     0
 43
0.0
 10
3.850655205620322
 20
3.726089892966129
 10
3.851486602986822
 20
3.699475509826875
 10
3.853980795086324
 20
3.674852613402726
 10
3.858137781918826
 20
3.652221203693683
 10
3.86395756348433
 20
3.631581280699746
 10
3.871440139782834
 20
3.612932844420915
 10
3.88058551081434
 20
3.59627589485719
 10
3.891393676578846
 20
3.581610432008571
 10
3.891393676578846
 20
3.581610432008571
 10
3.905381077944774
 20
3.566991426441736
 10
3.92018430140354
 20
3.555030421887053
 10
3.935803346955145
 20
3.545727418344521
 10
3.952238214599589
 20
3.539082415814142
 10
3.969488904336871
 20
3.535095414295915
 10
3.987555416166992
 20
3.533766413789839
 10
3.987555416166992
 20
3.533766413789838
 10
4.005714036943079
 20
3.535029622191653
 10
4.022925251417804
 20
3.538819247397097
 10
4.039189059591168
 20
3.545135289406171
 10
4.054505461463172
 20
3.553977748218874
 10
4.068874457033814
 20
3.565346623835206
 10
4.082296046303095
 20
3.579241916255168
 10
4.082296046303095
 20
3.579241916255168
 10
4.092727183029305
 20
3.593346669251961
 10
4.101553529489944
 20
3.609404239318907
 10
4.108775085685012
 20
3.627414626456005
 10
4.114391851614509
 20
3.647377830663255
 10
4.118403827278436
 20
3.669293851940658
 10
4.120811012676792
 20
3.693162690288212
 10
4.121613407809578
 20
3.718984345705919
 10
4.121613407809578
 20
3.718984345705919
 10
4.120801345265554
 20
3.747367865101797
 10
4.118365157633482
 20
3.773508545090371
 10
4.114304844913363
 20
3.797406385671642
 10
4.108620407105197
 20
3.819061386845609
 10
4.101311844208984
 20
3.838473548612272
 10
4.092379156224723
 20
3.855642870971631
 10
4.081822343152414
 20
3.870569353923686
 10
4.081822343152414
 20
3.870569353923686
 10
4.068045476520122
 20
3.885333102119895
 10
4.053242253061356
 20
3.897412532462248
 10
4.037412672776116
 20
3.906807644950745
 10
4.020556735664401
 20
3.913518439585385
 10
4.002674441726211
 20
3.917544916366169
 10
3.983765790961548
 20
3.918887075293097
 10
3.983765790961547
 20
3.918887075293098
 10
3.965330843347564
 20
3.917597550049579
 10
3.947922252560055
 20
3.913728974319021
 10
3.931540018599021
 20
3.907281348101426
 10
3.91618414146446
 20
3.898254671396792
 10
3.901854621156375
 20
3.886648944205118
 10
3.888551457674763
 20
3.872464166526407
 10
3.888551457674763
 20
3.872464166526407
 10
3.878497349986851
 20
3.858108060837416
 10
3.869990028097078
 20
3.841567120208552
 10
3.863029492005446
 20
3.822841344639815
 10
3.857615741711954
 20
3.801930734131204
 10
3.853748777216603
 20
3.778835288682719
 10
3.851428598519392
 20
3.753555008294361
 10
3.850655205620323
 20
3.726089892966129
  0
LWPOLYLINE
  5
1B8
330
70
100
AcDbEntity
  8
Vector Layer 1
 62
    18
420
        0
370
    30
100
AcDbPolyline
 90
      144
 70
     0
 43
0.0
 10
1.862495581477556
 20
0.0646900269541781
 10
1.88597349388316
 20
0.0460379653961321
 10
1.909036916031917
 20
0.0303465485298396
 10
1.931685847923829
 20
0.0176157763553006
 10
1.953920289558896
 20
0.0078456488725149
 10
1.953920289558896
 20
0.0078456488725149
 10
1.976125124747046
 20
0.0005920693777197
 10
1.999158940448886
 20
-0.0045890588328484
 10
2.023021736664416
 20
-0.0076977357591893
 10
2.047713513393639
 20
-0.0087339614013029
 10
2.047713513393639
 20
-0.0087339614013029
 10
2.074280365094304
 20
-0.0076154956288628
 10
2.098715552616908
 20
-0.0042600983115425
 10
2.121019075961449
 20
0.001332230550658
 10
2.141190935127927
 20
0.0091614909577387
 10
2.159231130116344
 20
0.0192276829096996
 10
2.175139660926698
 20
0.0315308064065407
 10
2.175139660926697
 20
0.0315308064065407
 10
2.18874546808791
 20
0.045728742506104
 10
2.199877492128902
 20
0.0611635701657776
 10
2.208535733049674
 20
0.0778352893855614
 10
2.214720190850226
 20
0.0957439001654556
 10
2.218430865530556
 20
0.11488940250546
 10
2.219667757090666
 20
0.1352717964055747
 10
2.219667757090666
 20
0.1352717964055747
 10
2.218631531448552
 20
0.1533317290252689
 10
2.215522854522212
 20
0.1705626811312726
 10
2.210341726311643
 20
0.1869646527235858
 10
2.203088146816848
 20
0.2025376438022084
 10
2.203088146816848
 20
0.2025376438022084
 10
2.19393975471933
 20
0.2171632285794692
 10
2.183547891851277
 20
0.2302492781170181
 10
2.171912558212687
 20
0.2417957924148557
 10
2.15903375380356
 20
0.251802771472982
 10
2.159033753803559
 20
0.251802771472982
 10
2.139980360409521
 20
0.2631190134059053
 10
2.119453223880032
 20
0.272435175369289
 10
2.097452344215093
 20
0.2797512573631327
 10
2.097452344215093
 20
0.2797512573631327
 10
2.086386638615196
 20
0.2823850468809161
 10
2.073274535404359
 20
0.2849809401466452
 10
2.058116034582583
 20
0.2875389371603199
 10
2.040911136149866
 20
0.2900590379219401
 10
2.02165984010621
 20
0.2925412424315059
 10
2.02165984010621
 20
0.2925412424315059
 10
1.988750610325927
 20
0.2967784459536032
 10
1.958867701968625
 20
0.3012799699388078
 10
1.932010999661269
 20
0.306046966433182
 10
1.908180388030825
 20
0.3110805874827882
 10
1.88737575170426
 20
0.316381985133689
 10
1.869596975308538
 20
0.3219523114319467
 10
1.869596975308539
 20
0.3219523114319466
 10
1.86959691710684
 20
0.3322158796991038
 10
1.869596858905142
 20
0.3396372290621784
 10
1.869596975308538
 20
0.34421635951393
 10
1.869596975308539
 20
0.34421635951393
 10
1.870234276860051
 20
0.3607657772823108
 10
1.872160842592013
 20
0.3755721485160582
 10
1.875402999451797
 20
0.3886470585204945
 10
1.879987074386773
 20
0.4000020926009424
 10
1.885939394344313
 20
0.4096488360627244
 10
1.89328628627179
 20
0.4175988742111629
 10
1.89328628627179
 20
0.417598874211163
 10
1.905063072934542
 20
0.4264281746030137
 10
1.918603087991493
 20
0.4336521476508916
 10
1.933906331442644
 20
0.4392707933547964
 10
1.950972803287995
 20
0.4432841117147284
 10
1.969802503527546
 20
0.4456921027306876
 10
1.990395432161296
 20
0.446494766402674
 10
1.990395432161296
 20
0.4464947664026739
 10
2.01320897589807
 20
0.445642100731449
 10
2.03352136699925
 20
0.4430841037177742
 10
2.051332605464838
 20
0.4388207753616495
 10
2.066642691294832
 20
0.4328521156630751
 10
2.079451624489233
 20
0.4251781246220507
 10
2.079451624489233
 20
0.4251781246220508
 10
2.090233108198721
 20
0.4155335284741958
 10
2.099839808094523
 20
0.403274090934584
 10
2.108271724176636
 20
0.3883998120032158
 10
2.115528856445062
 20
0.3709106916800909
 10
2.121611204899799
 20
0.3508067299652096
 10
2.121611204899799
 20
0.3508067299652095
 10
2.20498295941957
 20
0.3621756055815421
 10
2.20498295941957
 20
0.3621756055815421
 10
2.199848017266193
 20
0.382753270447104
 10
2.193538291299129
 20
0.4016635002222705
 10
2.186053781518377
 20
0.4189062949070413
 10
2.177394487923937
 20
0.4344816545014166
 10
2.167560410515809
 20
0.4483895790053963
 10
2.167560410515809
 20
0.4483895790053963
 10
2.156210483025504
 20
0.4610279790655524
 10
2.143003639184532
 20
0.4724158028079121
 10
2.127939878992891
 20
0.4825530502324753
 10
2.111019202450584
 20
0.491439721339242
 10
2.092241609557608
 20
0.4990758161282121
 10
2.092241609557608
 20
0.499075816128212
 10
2.066632032973942
 20
0.5069511310082752
 10
2.039068430893719
 20
0.5125763559226061
 10
2.009550803316939
 20
0.5159514908712044
 10
1.978079150243602
 20
0.5170765358540706
 10
1.978079150243602
 20
0.5170765358540706
 10
1.95327605327397
 20
0.5164701958211995
 10
1.930405665159115
 20
0.5146511757225863
 10
1.909467985899036
 20
0.511619475558231
 10
1.890463015493734
 20
0.5073750953281337
 10
1.873390753943208
 20
0.5019180350322947
 10
1.873390753943208
 20
0.5019180350322947
 10
1.854590660150576
 20
0.4938354750238082
 10
1.838455146580521
 20
0.4847462958201258
 10
1.824984213233044
 20
0.4746504974212472
 10
1.814177860108144
 20
0.463548079827172
 10
1.814177860108144
 20
0.463548079827172
 10
1.805414351820554
 20
0.4514094365909843
 10
1.798071952985006
 20
0.4377312581150847
 10
1.7921506636015
 20
0.4225135443994733
 10
1.787650483670035
 20
0.4057562954441503
 10
1.787650483670035
 20
0.4057562954441503
 10
1.78611568546183
 20
0.3956379961456142
 10
1.784921953522115
 20
0.3827153741950494
 10
1.78406928785089
 20
0.366988429592456
 10
1.783557688448155
 20
0.3484571623378341
 10
1.78338715531391
 20
0.3271215724311837
 10
1.783387155313911
 20
0.3271215724311837
 10
1.783387155313911
 20
0.2134328162678593
 10
1.783387155313911
 20
0.2134328162678593
 10
1.783305737584887
 20
0.1850698401208635
 10
1.783061484397818
 20
0.1594306570902806
 10
1.782654395752702
 20
0.1365152671761106
 10
1.782084471649539
 20
0.1163236703783535
 10
1.78135171208833
 20
0.0988558666970095
 10
1.780456117069075
 20
0.0841118561320785
 10
1.779397686591773
 20
0.0720916386835605
 10
1.778176420656425
 20
0.0627952143514557
 10
1.778176420656425
 20
0.0627952143514556
 10
1.773228854415983
 20
0.0422154441385576
 10
1.765965406105549
 20
0.022162010759749
 10
1.756386075725121
 20
0.0026349142150297
 10
1.756386075725121
 20
0.0026349142150297
 10
1.845442268053058
 20
0.0026349142150297
 10
1.845442268053058
 20
0.0026349142150297
 10
1.851705896782272
 20
0.0164478020244045
 10
1.856934543340142
 20
0.0313768528825703
 10
1.860680380610595
 20
0.0474487125917528
 10
1.862495581477556
 20
0.0646900269541781
210
0.0
220
0.0
230
-1.0
  0
LWPOLYLINE
  5
1B9
330
70
100
AcDbEntity
  8
Vector Layer 1
 62
    18
420
        0
370
    30
100
AcDbPolyline
 90
       52
 70
     0
 43
0.0
 10
-1.869601128737764
 20
0.255118693527745
 10
-1.886364956903513
 20
0.2489605525688983
 10
-1.905707835556301
 20
0.2431182137105054
 10
-1.927629764696127
 20
0.2375916769525661
 10
-1.952130744322992
 20
0.2323809422950803
 10
-1.979210774436895
 20
0.2274860097380481
 10
-2.008869855037836
 20
0.2229068792814695
 10
-2.008869855037836
 20
0.2229068792814695
 10
-2.028670646736282
 20
0.2197993866130052
 10
-2.046008182051189
 20
0.2165403089363234
 10
-2.060882460982557
 20
0.2131296462514238
 10
-2.073293483530387
 20
0.2095673985583065
 10
-2.083241249694677
 20
0.2058535658569713
 10
-2.083241249694677
 20
0.2058535658569713
 10
-2.096662838963958
 20
0.1985374838631277
 10
-2.107873813530064
 20
0.1892213218997441
 10
-2.116874173392994
 20
0.1779050799668209
 10
-2.116874173392994
 20
0.1779050799668209
 10
-2.123453383819112
 20
0.1654308969989008
 10
-2.127400910074783
 20
0.1520093077296192
 10
-2.128716752160006
 20
0.1376403121589773
 10
-2.128716752160006
 20
0.1376403121589773
 10
-2.127693553354536
 20
0.1244524164440315
 10
-2.124623956938127
 20
0.1121740307783924
 10
-2.119507962910777
 20
0.1008051551620599
 10
-2.112345571272488
 20
0.0903457895950339
 10
-2.10313678202326
 20
0.0807959340773143
 10
-2.103136782023259
 20
0.0807959340773144
 10
-2.091767906406926
 20
0.0726103436335554
 10
-2.078504218187872
 20
0.0662437732884096
 10
-2.063345717366095
 20
0.0616962230418769
 10
-2.046292403941597
 20
0.0589676928939572
 10
-2.027344277914376
 20
0.0580581828446507
 10
-2.027344277914376
 20
0.0580581828446507
 10
-2.003392662358093
 20
0.0593904729559396
 10
-1.980802943360016
 20
0.0633873432898064
 10
-1.959575120920145
 20
0.0700487938462511
 10
-1.939709195038481
 20
0.0793748246252737
 10
-1.939709195038481
 20
0.0793748246252737
 10
-1.925175982375603
 20
0.0887162507566935
 10
-1.912272308551066
 20
0.0993082532059099
 10
-1.900998173564869
 20
0.1111508319729226
 10
-1.891353577417014
 20
0.1242439870577319
 10
-1.883338520107499
 20
0.1385877184603377
 10
-1.883338520107499
 20
0.1385877184603377
 10
-1.878393059214394
 20
0.1512450666465212
 10
-1.874546589630869
 20
0.1661003974518622
 10
-1.871799111356922
 20
0.1831537108763609
 10
-1.870150624392554
 20
0.2024050069200173
 10
-1.869601128737764
 20
0.2238542855828316
 10
-1.869601128737764
 20
0.2238542855828316
 10
-1.869601128737764
 20
0.255118693527745
  0
LWPOLYLINE
  5
1BA
330
70
100
AcDbEntity
  8
Vector Layer 1
 62
    18
420
        0
370
    30
100
AcDbPolyline
 90
      125
 70
     0
 43
0.0
 10
4.482325910215625
 20
0.1509433962264151
 10
4.398480452545175
 20
0.140048223760763
 10
4.398480452545175
 20
0.140048223760763
 10
4.403285155930649
 20
0.1160440416558706
 10
4.409849328161508
 20
0.093567310526642
 10
4.418172969237751
 20
0.0726180303730771
 10
4.428256079159379
 20
0.0531962011951759
 10
4.440098657926392
 20
0.0353018229929385
 10
4.45370070553879
 20
0.0189348957663648
 10
4.469062221996573
 20
0.0040954195154548
 10
4.469062221996573
 20
0.0040954195154548
 10
4.488576160120439
 20
-0.0108130713101294
 10
4.509537524538052
 20
-0.0230109274401528
 10
4.531946315249411
 20
-0.0324981488746153
 10
4.555802532254515
 20
-0.0392747356135171
 10
4.581106175553366
 20
-0.0433406876568582
 10
4.607857245145964
 20
-0.0446960050046386
 10
4.607857245145964
 20
-0.0446960050046386
 10
4.633044929861054
 20
-0.0436449761390661
 10
4.656974340582149
 20
-0.0404918895423489
 10
4.67964547730925
 20
-0.0352367452144869
 10
4.701058340042355
 20
-0.02787954315548
 10
4.721212928781466
 20
-0.0184202833653284
 10
4.740109243526581
 20
-0.006858965844032
 10
4.757747284277701
 20
0.0068044094084092
 10
4.774127051034827
 20
0.0225698423919951
 10
4.774127051034826
 20
0.0225698423919951
 10
4.788782242259004
 20
0.0404151282715378
 10
4.801483407986625
 20
0.0600812106365087
 10
4.812230548217689
 20
0.0815680894869079
 10
4.821023662952196
 20
0.1048757648227352
 10
4.827862752190146
 20
0.1300042366439907
 10
4.832747815931538
 20
0.1569535049506745
 10
4.835678854176374
 20
0.1857235697427865
 10
4.836655866924653
 20
0.2163144310203267
 10
4.836655866924653
 20
0.2163144310203266
 10
4.835575823741101
 20
0.2480904383679756
 10
4.832335694190446
 20
0.2782369068772835
 10
4.826935478272688
 20
0.3067538365482505
 10
4.819375175987827
 20
0.3336412273808768
 10
4.809654787335863
 20
0.3588990793751625
 10
4.809654787335864
 20
0.3588990793751625
 10
4.799878080642652
 20
0.3784130174990288
 10
4.788548680288876
 20
0.3962163609121047
 10
4.775666586274536
 20
0.4123091096143901
 10
4.761231798599633
 20
0.4266912636058848
 10
4.745244317264165
 20
0.4393628228865888
 10
4.727704142268134
 20
0.4503237874565019
 10
4.727704142268134
 20
0.4503237874565019
 10
4.705155872295741
 20
0.4614084411824257
 10
4.68184967728226
 20
0.470029838524811
 10
4.657785557227689
 20
0.4761879794836578
 10
4.632963512132029
 20
0.4798828640589658
 10
4.607383541995281
 20
0.4811144922507351
 10
4.607383541995281
 20
0.4811144922507351
 10
4.58089564081973
 20
0.4799565512157383
 10
4.556065700671561
 20
0.4764827281107478
 10
4.532893721550772
 20
0.4706930229357638
 10
4.511379703457365
 20
0.4625874356907861
 10
4.491523646391341
 20
0.4521659663758147
 10
4.473325550352698
 20
0.4394286149908497
 10
4.473325550352696
 20
0.4394286149908497
 10
4.456995950075071
 20
0.4247175004780494
 10
4.442745380292098
 20
0.408058939679118
 10
4.430573841003779
 20
0.3894529325940553
 10
4.420481332210114
 20
0.3688994792228617
 10
4.412467853911102
 20
0.3463985795655372
 10
4.406533406106744
 20
0.3219502336220818
 10
4.406533406106744
 20
0.3219502336220819
 10
4.489431457475834
 20
0.3091602485537086
 10
4.489431457475834
 20
0.3091602485537086
 10
4.494907465897701
 20
0.3284304927233914
 10
4.50186142814969
 20
0.3456922355341892
 10
4.510293344231803
 20
0.3609454769861018
 10
4.52020321414404
 20
0.374190217079129
 10
4.5315910378864
 20
0.3854264558132705
 10
4.5315910378864
 20
0.3854264558132705
 10
4.544039956686283
 20
0.3946352450625001
 10
4.557512074291637
 20
0.4017976367007897
 10
4.572007390702461
 20
0.4069136307281393
 10
4.587525905918755
 20
0.4099832271445489
 10
4.604067619940519
 20
0.4110064259500187
 10
4.604067619940519
 20
0.4110064259500188
 10
4.624871083307904
 20
0.4097169007064997
 10
4.644332387748361
 20
0.4058483249759421
 10
4.662451533261891
 20
0.3994006987583463
 10
4.679228519848493
 20
0.390374022053712
 10
4.694663347508167
 20
0.3787682948620392
 10
4.708756016240912
 20
0.3645835171833278
 10
4.708756016240913
 20
0.3645835171833278
 10
4.719438505659321
 20
0.350353087840436
 10
4.728477535167205
 20
0.3339184887351938
 10
4.735873104764564
 20
0.3152797198676014
 10
4.741625214451399
 20
0.2944367812376586
 10
4.74573386422771
 20
0.2713896728453656
 10
4.748199054093496
 20
0.2461383946907223
 10
4.749020784048758
 20
0.218682946773729
 10
4.749020784048757
 20
0.218682946773729
 10
4.74822805632721
 20
0.1908504698184388
 10
4.745849873162569
 20
0.1652801670929293
 10
4.741886234554835
 20
0.1419720385972003
 10
4.736337140504006
 20
0.1209260843312518
 10
4.729202591010084
 20
0.1021423042950837
 10
4.720482586073067
 20
0.0856206984886959
 10
4.710177125692958
 20
0.0713612669120885
 10
4.710177125692956
 20
0.0713612669120885
 10
4.696571318531743
 20
0.0573212318627519
 10
4.681649669285307
 20
0.0458339304587492
 10
4.665412177953647
 20
0.0368993627000804
 10
4.647858844536763
 20
0.0305175285867456
 10
4.628989669034655
 20
0.0266884281187447
 10
4.608804651447324
 20
0.0254120612960778
 10
4.608804651447325
 20
0.0254120612960778
 10
4.589382822269423
 20
0.0266436894878471
 10
4.571287361913427
 20
0.0303385740631552
 10
4.554518270379337
 20
0.0364967150220019
 10
4.539075547667152
 20
0.0451181123643872
 10
4.524959193776874
 20
0.0562027660903111
 10
4.524959193776874
 20
0.0562027660903111
 10
4.514432457095084
 20
0.0673874238147124
 10
4.505274196181927
 20
0.0804142604584268
 10
4.497484411037403
 20
0.0952832760214544
 10
4.491063101661511
 20
0.111994470503795
 10
4.486010268054252
 20
0.1305478439054486
 10
4.482325910215625
 20
0.1509433962264151
210
0.0
220
0.0
230
-1.0
  0
LWPOLYLINE
  5
1BB
330
70
100
AcDbEntity
  8
Vector Layer 1
 62
    18
420
        0
370
    30
100
AcDbPolyline
 90
       64
 70
     0
 43
0.0
 10
3.704409884442609
 20
4.390532493875168
 10
3.783518310606255
 20
4.390532493875168
 10
3.783518310606255
 20
4.390532493875168
 10
3.783518310606255
 20
5.084981312772804
 10
3.783518310606255
 20
5.084981312772804
 10
3.698251743483763
 20
5.084981312772804
 10
3.698251743483763
 20
5.084981312772804
 10
3.698251743483763
 20
4.837234564966894
 10
3.698251743483763
 20
4.837234564966894
 10
3.682213508239294
 20
4.855206282459039
 10
3.664957179178789
 20
4.870413120337008
 10
3.646482756302249
 20
4.8828550786008
 10
3.626790239609673
 20
4.892532157250417
 10
3.605879629101062
 20
4.899444356285856
 10
3.583750924776415
 20
4.90359167570712
 10
3.560404126635732
 20
4.904974115514207
 10
3.560404126635732
 20
4.904974115514209
 10
3.53751834316848
 20
4.903789857637507
 10
3.515283901533413
 20
4.900237084007403
 10
3.493700801730532
 20
4.894315794623897
 10
3.472769043759837
 20
4.886025989486988
 10
3.472769043759837
 20
4.886025989486988
 10
3.452873511431256
 20
4.875811765300439
 10
3.434872791705396
 20
4.863643515617333
 10
3.418766884582259
 20
4.84952124043767
 10
3.404555790061843
 20
4.833444939761451
 10
3.404555790061843
 20
4.833444939761452
 10
3.391795411440387
 20
4.815740284504768
 10
3.380515355164807
 20
4.796259242433031
 10
3.370715621235104
 20
4.775001813546244
 10
3.362396209651278
 20
4.751967997844404
 10
3.362396209651278
 20
4.751967997844403
 10
3.35576436554175
 20
4.72763149847819
 10
3.351027334034945
 20
4.702466018598288
 10
3.348185115130862
 20
4.676471558204695
 10
3.347237708829501
 20
4.649648117297411
 10
3.347237708829501
 20
4.649648117297411
 10
3.348236926412967
 20
4.618235677117909
 10
3.351234579163367
 20
4.588658836647294
 10
3.356230667080701
 20
4.560917595885566
 10
3.363225190164968
 20
4.535011954832725
 10
3.372218148416168
 20
4.510941913488771
 10
3.383209541834302
 20
4.488707471853704
 10
3.396199370419369
 20
4.468308629927524
 10
3.41118763417137
 20
4.449745387710231
 10
3.41118763417137
 20
4.449745387710231
 10
3.429981081618777
 20
4.431019612141494
 10
3.449818609479928
 20
4.415174725121794
 10
3.470700217754824
 20
4.402210726651129
 10
3.492625906443465
 20
4.392127616729501
 10
3.51559567554585
 20
4.384925395356909
 10
3.539609525061981
 20
4.380604062533355
 10
3.564667454991856
 20
4.379163618258837
 10
3.564667454991857
 20
4.379163618258836
 10
3.586331972523762
 20
4.380325671300349
 10
3.606797428955506
 20
4.383811830424888
 10
3.626063824287091
 20
4.389622095632454
 10
3.644131158518515
 20
4.397756466923046
 10
3.660999431649779
 20
4.408214944296664
 10
3.676668643680883
 20
4.420997527753308
 10
3.691138794611826
 20
4.436104217292978
 10
3.704409884442609
 20
4.453535012915675
 10
3.704409884442609
 20
4.453535012915675
 10
3.704409884442609
 20
4.390532493875168
210
0.0
220
0.0
230
-1.0
  0
LWPOLYLINE
  5
1BC
330
70
100
AcDbEntity
  8
Vector Layer 1
 62
    18
420
        0
370
    30
100
AcDbPolyline
 90
       60
 70
     0
 43
0.0
 10
-3.705357290743971
 20
4.645858492091965
 10
-3.704673052859655
 20
4.617094184108976
 10
-3.702620339206706
 20
4.591119461346662
 10
-3.699199149785124
 20
4.567934323805021
 10
-3.69440948459491
 20
4.547538771484054
 10
-3.688251343636063
 20
4.529932804383762
 10
-3.680724726908583
 20
4.515116422504145
 10
-3.680724726908584
 20
4.515116422504144
 10
-3.668640462860611
 20
4.497647410396395
 10
-3.655396109464033
 20
4.482865938612915
 10
-3.64099166671885
 20
4.470772007153704
 10
-3.625427134625062
 20
4.461365616018762
 10
-3.608702513182668
 20
4.45464676520809
 10
-3.590817802391669
 20
4.450615454721686
 10
-3.571773002252064
 20
4.449271684559551
 10
-3.571773002252065
 20
4.449271684559551
 10
-3.55356174779257
 20
4.450613843486479
 10
-3.536192632267618
 20
4.454640320267263
 10
-3.519665655677208
 20
4.461351114901904
 10
-3.503980818021342
 20
4.470746227390401
 10
-3.489138119300019
 20
4.482825657732754
 10
-3.47513755951324
 20
4.497589405928963
 10
-3.47513755951324
 20
4.497589405928964
 10
-3.464329393748734
 20
4.512496554058542
 10
-3.455184022717228
 20
4.529337184435796
 10
-3.447701446418724
 20
4.548111297060725
 10
-3.44188166485322
 20
4.568818891933331
 10
-3.437724678020718
 20
4.591459969053611
 10
-3.435230485921216
 20
4.616034528421568
 10
-3.434399088554715
 20
4.642542570037201
 10
-3.434399088554716
 20
4.642542570037202
 10
-3.435201483687501
 20
4.669640323738376
 10
-3.437608669085857
 20
4.694630581789583
 10
-3.441620644749784
 20
4.717513344190824
 10
-3.447237410679282
 20
4.738288610942098
 10
-3.45445896687435
 20
4.756956382043405
 10
-3.463285313334989
 20
4.773516657494746
 10
-3.473716450061198
 20
4.78796943729612
 10
-3.473716450061198
 20
4.787969437296121
 10
-3.487124880909627
 20
4.802298957604207
 10
-3.501454401217713
 20
4.81402311058355
 10
-3.516705010985455
 20
4.82314189623415
 10
-3.532876710212853
 20
4.829655314556007
 10
-3.549969498899908
 20
4.833563365549121
 10
-3.56798337704662
 20
4.834866049213492
 10
-3.567983377046621
 20
4.834866049213491
 10
-3.586194631506116
 20
4.833510731865711
 10
-3.603563747031068
 20
4.82944477982237
 10
-3.620090723621478
 20
4.822668193083468
 10
-3.635775561277343
 20
4.813180971649005
 10
-3.650618259998667
 20
4.800983115518982
 10
-3.664618819785447
 20
4.786074624693398
 10
-3.664618819785447
 20
4.786074624693398
 10
-3.675426985549953
 20
4.771380159611065
 10
-3.684572356581459
 20
4.754906890860869
 10
-3.692054932879964
 20
4.736654818442811
 10
-3.697874714445467
 20
4.716623942356892
 10
-3.702031701277969
 20
4.694814262603111
 10
-3.704525893377471
 20
4.671225779181469
 10
-3.705357290743971
 20
4.645858492091965
  0
POLYLINE
  5
1BD
330
70
100
AcDbEntity
  8
Vector Layer 1
 62
    18
420
        0
370
    30
100
AcDb3dPolyline
 66
     1
 10
0.0
 20
0.0
 30
0.0
 70
     8
  0
VERTEX
  5
1BE
330
1BD
100
AcDbEntity
  8
0
 62
    18
420
        0
100
AcDbVertex
100
AcDb3dPolylineVertex
 10
9.490103417848677
 20
2.999999999999999
 30
0.0
 70
    32
  0
VERTEX
  5
1BF
330
1BD
100
AcDbEntity
  8
0
 62
    18
420
        0
100
AcDbVertex
100
AcDb3dPolylineVertex
 10
9.32414950374321
 20
2.999701803088239
 30
0.0
 70
    32
  0
VERTEX
  5
1C0
330
1BD
100
AcDbEntity
  8
0
 62
    18
420
        0
100
AcDbVertex
100
AcDb3dPolylineVertex
 10
9.313370626261505
 20
2.999682434891985
 30
0.0
 70
    32
  0
SEQEND
  5
1C1
330
1BD
100
AcDbEntity
  8
Vector Layer 1
 62
    18
420
        0
370
    30
  0
LWPOLYLINE
  5
1C2
330
70
100
AcDbEntity
  8
Vector Layer 1
 62
    18
420
        0
370
    30
100
AcDbPolyline
 90
       10
 70
     0
 43
0.0
 10
-9.320704401250846
 20
2.041059676960315
 10
-9.327471102098527
 20
2.032414928814536
 10
-9.327471102098527
 20
2.032414928814536
 10
-9.364417696437376
 20
1.94082034516604
 10
-9.364417696437376
 20
1.94082034516604
 10
-9.366734364458922
 20
1.9343543216685
 10
-9.366734364458922
 20
1.9343543216685
 10
-9.367469911637515
 20
1.924650363989466
 10
-9.367469911637515
 20
1.924650363989466
 10
-9.338784826101811
 20
1.851395744118851
210
0.0
220
0.0
230
-1.0
  0
LWPOLYLINE
  5
1C3
330
70
100
AcDbEntity
  8
Vector Layer 1
 62
    18
420
        0
370
    30
100
AcDbPolyline
 90
       74
 70
     0
 43
0.0
 10
-9.338784826101811
 20
1.851395744118851
 10
-9.351431321593539
 20
1.839166157079616
 10
-9.351431321593539
 20
1.839166157079616
 10
-9.372144256420737
 20
1.816445849165533
 10
-9.372144256420737
 20
1.816445849165533
 10
-9.39040686012407
 20
1.793734347083814
 10
-9.39040686012407
 20
1.793734347083814
 10
-9.406563518666613
 20
1.771030413203745
 10
-9.406563518666613
 20
1.771030413203745
 10
-9.420864048402618
 20
1.748333149752402
 10
-9.420864048402618
 20
1.748333149752402
 10
-9.42467392396661
 20
1.741849209171983
 10
-9.42467392396661
 20
1.741849209171983
 10
-9.421594756211161
 20
1.729998151872286
 10
-9.421594756211161
 20
1.729998151872286
 10
-9.410473765771408
 20
1.702000372449174
 10
-9.410473765771408
 20
1.702000372449174
 10
-9.400477953684927
 20
1.672920174618695
 10
-9.400477953684927
 20
1.672920174618695
 10
-9.391771052853616
 20
1.642756969968747
 10
-9.391771052853616
 20
1.642756969968747
 10
-9.384743263627523
 20
1.612587731042381
 10
-9.384743263627523
 20
1.612587731042381
 10
-9.37939890731549
 20
1.582412442309973
 10
-9.37939890731549
 20
1.582412442309973
 10
-9.375793133821682
 20
1.553309280395946
 10
-9.375793133821682
 20
1.553309280395946
 10
-9.373638752795493
 20
1.523122527748584
 10
-9.373638752795493
 20
1.523122527748584
 10
-9.372973433089605
 20
1.475676426720509
 10
-9.372973433089605
 20
1.475676426720509
 10
-9.37155921293513
 20
1.123052943439387
 10
-9.37155921293513
 20
1.123052943439387
 10
-9.370071452860038
 20
0.7520973525286446
 10
-9.370071452860038
 20
0.7520973525286446
 10
-9.368046346752018
 20
0.2463468403984125
 10
-9.368046346752018
 20
0.2463468403984125
 10
-9.366277453713371
 20
-0.1947021033903127
 10
-9.366277453713371
 20
-0.1947021033903127
 10
-9.364457721452316
 20
-0.6476129874786371
 10
-9.364457721452316
 20
-0.6476129874786371
 10
-9.362935352602692
 20
-1.027195452561726
 10
-9.362935352602692
 20
-1.027195452561726
 10
-9.361408273953825
 20
-1.407856275537472
 10
-9.361408273953825
 20
-1.407856275537472
 10
-9.361038394544424
 20
-1.503830305125568
 10
-9.361038394544424
 20
-1.503830305125568
 10
-9.361973779142148
 20
-1.534028161561257
 10
-9.361973779142148
 20
-1.534028161561257
 10
-9.364525839882864
 20
-1.564231827897071
 10
-9.364525839882864
 20
-1.564231827897071
 10
-9.368700522291488
 20
-1.594441325499631
 10
-9.368700522291488
 20
-1.594441325499631
 10
-9.374513703452748
 20
-1.624656711426918
 10
-9.374513703452748
 20
-1.624656711426918
 10
-9.381982266273265
 20
-1.654878046351566
 10
-9.381982266273265
 20
-1.654878046351566
 10
-9.391516361503654
 20
-1.68618517906366
 10
-9.391516361503654
 20
-1.68618517906366
 10
-9.402473725566942
 20
-1.716419051803544
 10
-9.402473725566942
 20
-1.716419051803544
 10
-9.412270258342033
 20
-1.740178503917105
 10
-9.412270258342033
 20
-1.740178503917105
 10
-9.411990362062732
 20
-1.742334247681755
 10
-9.411990362062732
 20
-1.742334247681755
 10
-9.407027559197508
 20
-1.75310016088408
 10
-9.407027559197508
 20
-1.75310016088408
 10
-9.391463596971449
 20
-1.77676847418563
 10
-9.391463596971449
 20
-1.77676847418563
 10
-9.374667354987639
 20
-1.799353984186112
 10
-9.374667354987639
 20
-1.799353984186112
 10
-9.356659314759882
 20
-1.820856764490589
 10
-9.356659314759882
 20
-1.820856764490589
 10
-9.344365274310879
 20
-1.833928841485984
210
0.0
220
0.0
230
-1.0
  0
LINE
  5
1C4
330
70
100
AcDbEntity
  8
Vector Layer 1
 62
    18
420
        0
370
    30
100
AcDbLine
 10
9.313370055641804
 20
-2.999364870996757
 30
0.0
 11
9.313370055641804
 21
-2.999364870996757
 31
0.0
  0
LINE
  5
1C5
330
70
100
AcDbEntity
  8
Vector Layer 1
 62
    18
420
        0
370
    30
100
AcDbLine
 10
9.674615261501193
 20
2.731977445178635
 30
0.0
 11
9.674730470131077
 21
2.999999999999999
 31
0.0
  0
LWPOLYLINE
  5
1C6
330
70
100
AcDbEntity
  8
Vector Layer 1
 62
    18
420
        0
370
    30
100
AcDbPolyline
 90
       62
 70
     0
 43
0.0
 10
9.674615261501193
 20
2.731977445178635
 10
9.578302744422266
 20
2.636348207678331
 10
9.578302744422266
 20
2.636348207678331
 10
9.565683380033744
 20
2.622374685647895
 10
9.565683380033744
 20
2.622374685647895
 10
9.514821711283467
 20
2.571873852369943
 10
9.514821711283467
 20
2.571873852369943
 10
9.514241289668863
 20
2.564327314520808
 10
9.514241289668863
 20
2.564327314520808
 10
9.514565719320774
 20
2.560012649334218
 10
9.514565719320774
 20
2.560012649334218
 10
9.531926809333356
 20
2.531912512958857
 10
9.531926809333356
 20
2.531912512958857
 10
9.540862885688014
 20
2.515704776823347
 10
9.540862885688014
 20
2.515704776823347
 10
9.546902808081343
 20
2.501664198324566
 10
9.546902808081343
 20
2.501664198324566
 10
9.551186761038968
 20
2.487629930308617
 10
9.551186761038968
 20
2.487629930308617
 10
9.553295273994047
 20
2.473603480240126
 10
9.553295273994047
 20
2.473603480240126
 10
9.552975693002172
 20
2.460664130907929
 10
9.552975693002172
 20
2.460664130907929
 10
9.551123467760652
 20
2.448808664306163
 10
9.551123467760652
 20
2.448808664306163
 10
9.547962062090334
 20
2.438036277365836
 10
9.547962062090334
 20
2.438036277365836
 10
9.54319670951178
 20
2.42726965458018
 10
9.54319670951178
 20
2.42726965458018
 10
9.536622602337493
 20
2.416509531973053
 10
9.536622602337493
 20
2.416509531973053
 10
9.528051914506146
 20
2.405756584540904
 10
9.528051914506146
 20
2.405756584540904
 10
9.518475806318068
 20
2.396085625138027
 10
9.518475806318068
 20
2.396085625138027
 10
9.502755302267871
 20
2.383201622589533
 10
9.502755302267871
 20
2.383201622589533
 10
9.478634916494543
 20
2.366034307687834
 10
9.478634916494543
 20
2.366034307687834
 10
9.444292908924154
 20
2.343511852459406
 10
9.444292908924154
 20
2.343511852459406
 10
9.430479053341516
 20
2.33385612238321
 10
9.430479053341516
 20
2.33385612238321
 10
9.415617008957475
 20
2.320969034761095
 10
9.415617008957475
 20
2.320969034761095
 10
9.406040248847807
 20
2.311298077701049
 10
9.406040248847807
 20
2.311298077701049
 10
9.398514828946336
 20
2.301619748674896
 10
9.398514828946336
 20
2.301619748674896
 10
9.392276517271177
 20
2.290858419308876
 10
9.392276517271177
 20
2.290858419308876
 10
9.387862811199608
 20
2.28009053280006
 10
9.387862811199608
 20
2.28009053280006
 10
9.385100261272672
 20
2.268238337660873
 10
9.385100261272672
 20
2.268238337660873
 10
9.384132018821834
 20
2.259614818717353
 10
9.384132018821834
 20
2.259614818717353
 10
9.323797596126253
 20
2.249047896254375
 10
9.323797596126253
 20
2.249047896254375
 10
9.321448010039947
 20
2.247977965217741
 10
9.321448010039947
 20
2.247977965217741
 10
9.320704401250846
 20
2.041059676960315
  0
LINE
  5
1C7
330
70
100
AcDbEntity
  8
Vector Layer 1
 62
    18
420
        0
370
    30
100
AcDbLine
 10
8.946076205645418
 20
-2.999999999999991
 30
0.0
 11
9.665186286170083
 21
-2.99999999999999
 31
0.0
  0
LWPOLYLINE
  5
1C8
330
70
100
AcDbEntity
  8
Vector Layer 1
 62
    18
420
        0
370
    30
100
AcDbPolyline
 90
       82
 70
     0
 43
0.0
 10
9.344365274310874
 20
-1.833928841485984
 10
9.376711547767659
 20
-1.914310198543024
 10
9.376711547767659
 20
-1.914310198543024
 10
9.380699291000301
 20
-1.925086676835388
 10
9.380699291000301
 20
-1.925086676835388
 10
9.379890492298448
 20
-1.935871773869887
 10
9.379890492298448
 20
-1.935871773869887
 10
9.333530392099573
 20
-2.05349679342453
 10
9.333530392099573
 20
-2.05349679342453
 10
9.320753327873484
 20
-2.06430339582597
 10
9.320753327873484
 20
-2.06430339582597
 10
9.319686973741561
 20
-2.06646204066759
 10
9.319686973741561
 20
-2.06646204066759
 10
9.318221347293826
 20
-2.076169953560219
 10
9.318221347293826
 20
-2.076169953560219
 10
9.312170655849868
 20
-2.085886105199306
 10
9.312170655849868
 20
-2.085886105199306
 10
9.311744159678486
 20
-2.094513786541108
 10
9.311744159678486
 20
-2.094513786541108
 10
9.312193699072226
 20
-2.344693513356316
 10
9.312193699072226
 20
-2.344693513356316
 10
9.314644117090859
 20
-2.345767474657173
 10
9.314644117090859
 20
-2.345767474657173
 10
9.371044195700287
 20
-2.355371410643696
 10
9.371044195700287
 20
-2.355371410643696
 10
9.374900752074385
 20
-2.356442845302639
 10
9.374900752074385
 20
-2.356442845302639
 10
9.37652855803704
 20
-2.368301928458736
 10
9.37652855803704
 20
-2.368301928458736
 10
9.379607644828144
 20
-2.379080039484776
 10
9.379607644828144
 20
-2.379080039484776
 10
9.384459624212517
 20
-2.389854964860758
 10
9.384459624212517
 20
-2.389854964860758
 10
9.39119783423923
 20
-2.400626500933418
 10
9.39119783423923
 20
-2.400626500933418
 10
9.40025816297185
 20
-2.411393864470404
 10
9.40025816297185
 20
-2.411393864470404
 10
9.414250001732535
 20
-2.424309095492058
 10
9.414250001732535
 20
-2.424309095492058
 10
9.426486514774717
 20
-2.433992387478923
 10
9.426486514774717
 20
-2.433992387478923
 10
9.466849759529578
 20
-2.460878969474495
 10
9.466849759529578
 20
-2.460878969474495
 10
9.488507831129693
 20
-2.47593715405094
 10
9.488507831129693
 20
-2.47593715405094
 10
9.503598168625384
 20
-2.487772046844615
 10
9.503598168625384
 20
-2.487772046844615
 10
9.514248468192061
 20
-2.497458189044217
 10
9.514248468192061
 20
-2.497458189044217
 10
9.523713011689931
 20
-2.508224826261517
 10
9.523713011689931
 20
-2.508224826261517
 10
9.531104789316804
 20
-2.518995187960912
 10
9.531104789316804
 20
-2.518995187960912
 10
9.53659889781594
 20
-2.529768959517051
 10
9.53659889781594
 20
-2.529768959517051
 10
9.540401326781848
 20
-2.54054577079428
 10
9.540401326781848
 20
-2.54054577079428
 10
9.542817104876364
 20
-2.552403438070206
 10
9.542817104876364
 20
-2.552403438070206
 10
9.543648381729159
 20
-2.564263952482216
 10
9.543648381729159
 20
-2.564263952482216
 10
9.543055552658419
 20
-2.575048661448269
 10
9.543055552658419
 20
-2.575048661448269
 10
9.540764895994712
 20
-2.586914785555828
 10
9.540764895994712
 20
-2.586914785555828
 10
9.535292625122876
 20
-2.603100084089838
 10
9.535292625122876
 20
-2.603100084089838
 10
9.527309760374688
 20
-2.61928989382411
 10
9.527309760374688
 20
-2.61928989382411
 10
9.512423584807876
 20
-2.644119022866882
 10
9.512423584807876
 20
-2.644119022866882
 10
9.504322922676388
 20
-2.657073951147711
 10
9.504322922676388
 20
-2.657073951147711
 10
9.504874440755015
 20
-2.665699875129159
 10
9.504874440755015
 20
-2.665699875129159
 10
9.505672963526563
 20
-2.668933533410437
 10
9.505672963526563
 20
-2.668933533410437
 10
9.558604271072633
 20
-2.721678277240132
 10
9.558604271072633
 20
-2.721678277240132
 10
9.571198502900836
 20
-2.735674383947055
 10
9.571198502900836
 20
-2.735674383947055
 10
9.665186286170099
 20
-2.829323200980613
  0
LINE
  5
1C9
330
70
100
AcDbEntity
  8
Vector Layer 1
 62
    18
420
        0
370
    30
100
AcDbLine
 10
8.946076205645418
 20
2.144518821089028
 30
0.0
 11
8.946076205645418
 21
-2.999999999999991
 31
0.0
  0
LINE
  5
1CA
330
70
100
AcDbEntity
  8
Vector Layer 1
 62
    18
420
        0
370
    30
100
AcDbLine
 10
9.665186286170099
 20
-2.829323200980613
 30
0.0
 11
9.665186286170099
 21
-2.99999999999999
 31
0.0
  0
LINE
  5
1CB
330
70
100
AcDbEntity
  8
Vector Layer 1
 62
    18
420
        0
370
    30
100
AcDbLine
 10
8.946076205645418
 20
2.144518821089028
 30
0.0
 11
8.946076205645418
 21
2.999999999999999
 31
0.0
  0
POLYLINE
  5
1CC
330
70
100
AcDbEntity
  8
Vector Layer 1
 62
    18
420
        0
370
    30
100
AcDb3dPolyline
 66
     1
 10
0.0
 20
0.0
 30
0.0
 70
     8
  0
VERTEX
  5
1CD
330
1CC
100
AcDbEntity
  8
0
 62
    18
420
        0
100
AcDbVertex
100
AcDb3dPolylineVertex
 10
8.94607620564542
 20
2.999999999999999
 30
0.0
 70
    32
  0
VERTEX
  5
1CE
330
1CC
100
AcDbEntity
  8
0
 62
    18
420
        0
100
AcDbVertex
100
AcDb3dPolylineVertex
 10
9.313371196883387
 20
2.999999999999999
 30
0.0
 70
    32
  0
VERTEX
  5
1CF
330
1CC
100
AcDbEntity
  8
0
 62
    18
420
        0
100
AcDbVertex
100
AcDb3dPolylineVertex
 10
9.324150575382873
 20
2.999999999999999
 30
0.0
 70
    32
  0
VERTEX
  5
1D0
330
1CC
100
AcDbEntity
  8
0
 62
    18
420
        0
100
AcDbVertex
100
AcDb3dPolylineVertex
 10
9.490103417848484
 20
2.999999999999999
 30
0.0
 70
    32
  0
VERTEX
  5
1D1
330
1CC
100
AcDbEntity
  8
0
 62
    18
420
        0
100
AcDbVertex
100
AcDb3dPolylineVertex
 10
9.500884612619223
 20
2.999999999999999
 30
0.0
 70
    32
  0
VERTEX
  5
1D2
330
1CC
100
AcDbEntity
  8
0
 62
    18
420
        0
100
AcDbVertex
100
AcDb3dPolylineVertex
 10
9.51166489925796
 20
2.999999999999999
 30
0.0
 70
    32
  0
VERTEX
  5
1D3
330
1CC
100
AcDbEntity
  8
0
 62
    18
420
        0
100
AcDbVertex
100
AcDb3dPolylineVertex
 10
9.674730470131077
 20
2.999999999999999
 30
0.0
 70
    32
  0
SEQEND
  5
1D4
330
1CC
100
AcDbEntity
  8
Vector Layer 1
 62
    18
420
        0
370
    30
  0
LWPOLYLINE
  5
1D5
330
70
100
AcDbEntity
  8
Vector Layer 1
 62
    18
420
        0
370
    30
100
AcDbPolyline
 90
       34
 70
     0
 43
0.0
 10
1.010781194768469
 20
3.000794333207037
 10
-2.778625214613484
 20
3.000794333207037
 10
-2.778625214613484
 20
3.000794333207037
 10
-3.591308180406837
 20
3.000794333207037
 10
-3.591308180406837
 20
3.000794333207037
 10
-4.403991146200202
 20
3.000794333207037
 10
-4.403991146200202
 20
3.000794333207037
 10
-5.21667411199358
 20
3.000794333207037
 10
-5.21667411199358
 20
3.000794333207037
 10
-8.161766273016908
 20
3.000794333207037
 10
-8.161766273016908
 20
3.000794333207037
 10
-8.161766273016908
 20
2.999999999999999
 10
-8.161766273016908
 20
2.999999999999999
 10
-8.161766273016908
 20
2.57432137704626
 10
-8.161766273016908
 20
2.57432137704626
 10
-8.161766273016908
 20
2.251211707256392
 10
-8.161766273016908
 20
2.251211707256392
 10
-8.161766273016908
 20
1.862409241771688
 10
-8.161766273016908
 20
1.862409241771688
 10
-8.161766273016908
 20
1.73089905202778
 10
-8.161766273016908
 20
1.73089905202778
 10
-8.161766273016908
 20
-1.733190650946998
 10
-8.161766273016908
 20
-1.733190650946998
 10
-8.161766273016908
 20
-1.867702457102223
 10
-8.161766273016908
 20
-1.867702457102223
 10
-8.161766273016908
 20
-2.349304706159667
 10
-8.161766273016908
 20
-2.349304706159667
 10
-8.161766273016908
 20
-2.668125917242261
 10
-8.161766273016908
 20
-2.668125917242261
 10
-8.161766273016908
 20
-2.999205666792962
 10
-8.161766273016908
 20
-2.999205666792962
 10
0.0000000000000022
 20
-2.999205666792962
 10
0.0000000000000022
 20
-2.999205666792962
 10
1.010781194768468
 20
-2.999205666792963
210
0.0
220
0.0
230
-1.0
  0
POLYLINE
  5
1D6
330
70
100
AcDbEntity
  8
Vector Layer 1
 62
    18
420
        0
370
    30
100
AcDb3dPolyline
 66
     1
 10
0.0
 20
0.0
 30
0.0
 70
     8
  0
VERTEX
  5
1D7
330
1D6
100
AcDbEntity
  8
0
 62
    18
420
        0
100
AcDbVertex
100
AcDb3dPolylineVertex
 10
-3.766111885691138
 20
-2.998657114559534
 30
0.0
 70
    32
  0
VERTEX
  5
1D8
330
1D6
100
AcDbEntity
  8
0
 62
    18
420
        0
100
AcDbVertex
100
AcDb3dPolylineVertex
 10
-3.600157971585671
 20
-2.998358917647774
 30
0.0
 70
    32
  0
VERTEX
  5
1D9
330
1D6
100
AcDbEntity
  8
0
 62
    18
420
        0
100
AcDbVertex
100
AcDb3dPolylineVertex
 10
-3.589379094103966
 20
-2.99833954945152
 30
0.0
 70
    32
  0
SEQEND
  5
1DA
330
1D6
100
AcDbEntity
  8
Vector Layer 1
 62
    18
420
        0
370
    30
  0
LWPOLYLINE
  5
1DB
330
70
100
AcDbEntity
  8
Vector Layer 1
 62
    18
420
        0
370
    30
100
AcDbPolyline
 90
       10
 70
     0
 43
0.0
 10
3.596712869093307
 20
-2.03971679151985
 10
3.603479569940988
 20
-2.03107204337407
 10
3.603479569940988
 20
-2.03107204337407
 10
3.640426164279837
 20
-1.939477459725575
 10
3.640426164279837
 20
-1.939477459725575
 10
3.642742832301383
 20
-1.933011436228035
 10
3.642742832301383
 20
-1.933011436228035
 10
3.643478379479975
 20
-1.923307478549001
 10
3.643478379479975
 20
-1.923307478549001
 10
3.614793293944273
 20
-1.850052858678393
210
0.0
220
0.0
230
-1.0
  0
LWPOLYLINE
  5
1DC
330
70
100
AcDbEntity
  8
Vector Layer 1
 62
    18
420
        0
370
    30
100
AcDbPolyline
 90
       74
 70
     0
 43
0.0
 10
3.614793293944273
 20
-1.850052858678392
 10
3.627439789435999
 20
-1.837823271639158
 10
3.627439789435999
 20
-1.837823271639158
 10
3.6481527242632
 20
-1.815102963725074
 10
3.6481527242632
 20
-1.815102963725074
 10
3.666415327966531
 20
-1.792391461643355
 10
3.666415327966531
 20
-1.792391461643355
 10
3.682571986509074
 20
-1.769687527763286
 10
3.682571986509074
 20
-1.769687527763286
 10
3.696872516245079
 20
-1.746990264311944
 10
3.696872516245079
 20
-1.746990264311944
 10
3.70068239180907
 20
-1.740506323731525
 10
3.70068239180907
 20
-1.740506323731525
 10
3.697603224053622
 20
-1.728655266431827
 10
3.697603224053622
 20
-1.728655266431827
 10
3.686482233613868
 20
-1.700657487008716
 10
3.686482233613868
 20
-1.700657487008716
 10
3.676486421527387
 20
-1.671577289178237
 10
3.676486421527387
 20
-1.671577289178237
 10
3.667779520696077
 20
-1.641414084528289
 10
3.667779520696077
 20
-1.641414084528289
 10
3.660751731469984
 20
-1.611244845601923
 10
3.660751731469984
 20
-1.611244845601923
 10
3.65540737515795
 20
-1.581069556869515
 10
3.65540737515795
 20
-1.581069556869515
 10
3.651801601664145
 20
-1.551966394955487
 10
3.651801601664145
 20
-1.551966394955487
 10
3.649647220637953
 20
-1.521779642308125
 10
3.649647220637953
 20
-1.521779642308125
 10
3.648981900932065
 20
-1.47433354128005
 10
3.648981900932065
 20
-1.47433354128005
 10
3.647567680777592
 20
-1.121710057998928
 10
3.647567680777592
 20
-1.121710057998928
 10
3.646079920702499
 20
-0.7507544670881761
 10
3.646079920702499
 20
-0.7507544670881761
 10
3.644054814594479
 20
-0.2450039549579465
 10
3.644054814594479
 20
-0.2450039549579465
 10
3.642285921555831
 20
0.1960449888307778
 10
3.642285921555831
 20
0.1960449888307778
 10
3.640466189294777
 20
0.6489558729191057
 10
3.640466189294777
 20
0.6489558729191057
 10
3.638943820445152
 20
1.028538338002191
 10
3.638943820445152
 20
1.028538338002191
 10
3.637416741796286
 20
1.409199160977931
 10
3.637416741796286
 20
1.409199160977931
 10
3.637046862386884
 20
1.505173190566026
 10
3.637046862386884
 20
1.505173190566026
 10
3.637982246984609
 20
1.535371047001715
 10
3.637982246984609
 20
1.535371047001715
 10
3.640534307725324
 20
1.56557471333753
 10
3.640534307725324
 20
1.56557471333753
 10
3.644708990133949
 20
1.595784210940089
 10
3.644708990133949
 20
1.595784210940089
 10
3.650522171295209
 20
1.625999596867376
 10
3.650522171295209
 20
1.625999596867376
 10
3.657990734115725
 20
1.656220931792025
 10
3.657990734115725
 20
1.656220931792025
 10
3.667524829346115
 20
1.687528064504119
 10
3.667524829346115
 20
1.687528064504119
 10
3.678482193409404
 20
1.717761937244002
 10
3.678482193409404
 20
1.717761937244002
 10
3.688278726184496
 20
1.741521389357563
 10
3.688278726184496
 20
1.741521389357563
 10
3.687998829905193
 20
1.743677133122213
 10
3.687998829905193
 20
1.743677133122213
 10
3.683036027039971
 20
1.754443046324538
 10
3.683036027039971
 20
1.754443046324538
 10
3.667472064813912
 20
1.778111359626089
 10
3.667472064813912
 20
1.778111359626089
 10
3.6506758228301
 20
1.800696869626571
 10
3.6506758228301
 20
1.800696869626571
 10
3.632667782602343
 20
1.822199649931048
 10
3.632667782602343
 20
1.822199649931048
 10
3.620373742153339
 20
1.835271726926443
210
0.0
220
0.0
230
-1.0
  0
LINE
  5
1DD
330
70
100
AcDbEntity
  8
Vector Layer 1
 62
    18
420
        0
370
    30
100
AcDbLine
 10
-3.589378523484265
 20
3.000707756437222
 30
0.0
 11
-3.589378523484265
 21
3.000707756437222
 31
0.0
  0
LINE
  5
1DE
330
70
100
AcDbEntity
  8
Vector Layer 1
 62
    18
420
        0
370
    30
100
AcDbLine
 10
-3.950623729343653
 20
-2.73063455973817
 30
0.0
 11
-3.950738937973539
 21
-2.998657114559533
 31
0.0
  0
LWPOLYLINE
  5
1DF
330
70
100
AcDbEntity
  8
Vector Layer 1
 62
    18
420
        0
370
    30
100
AcDbPolyline
 90
       62
 70
     0
 43
0.0
 10
-3.950623729343653
 20
-2.73063455973817
 10
-3.854311212264727
 20
-2.635005322237866
 10
-3.854311212264727
 20
-2.635005322237866
 10
-3.841691847876207
 20
-2.62103180020743
 10
-3.841691847876207
 20
-2.62103180020743
 10
-3.790830179125927
 20
-2.570530966929478
 10
-3.790830179125927
 20
-2.570530966929478
 10
-3.790249757511323
 20
-2.562984429080343
 10
-3.790249757511323
 20
-2.562984429080343
 10
-3.790574187163235
 20
-2.558669763893753
 10
-3.790574187163235
 20
-2.558669763893753
 10
-3.807935277175818
 20
-2.530569627518392
 10
-3.807935277175818
 20
-2.530569627518392
 10
-3.816871353530476
 20
-2.514361891382882
 10
-3.816871353530476
 20
-2.514361891382882
 10
-3.822911275923804
 20
-2.500321312884101
 10
-3.822911275923804
 20
-2.500321312884101
 10
-3.827195228881429
 20
-2.486287044868152
 10
-3.827195228881429
 20
-2.486287044868152
 10
-3.829303741836507
 20
-2.472260594799661
 10
-3.829303741836507
 20
-2.472260594799661
 10
-3.828984160844633
 20
-2.459321245467464
 10
-3.828984160844633
 20
-2.459321245467464
 10
-3.827131935603112
 20
-2.447465778865698
 10
-3.827131935603112
 20
-2.447465778865698
 10
-3.823970529932797
 20
-2.436693391925371
 10
-3.823970529932797
 20
-2.436693391925371
 10
-3.819205177354241
 20
-2.425926769139715
 10
-3.819205177354241
 20
-2.425926769139715
 10
-3.812631070179953
 20
-2.415166646532588
 10
-3.812631070179953
 20
-2.415166646532588
 10
-3.804060382348607
 20
-2.404413699100439
 10
-3.804060382348607
 20
-2.404413699100439
 10
-3.794484274160529
 20
-2.394742739697562
 10
-3.794484274160529
 20
-2.394742739697562
 10
-3.778763770110332
 20
-2.381858737149068
 10
-3.778763770110332
 20
-2.381858737149068
 10
-3.754643384337004
 20
-2.364691422247369
 10
-3.754643384337004
 20
-2.364691422247369
 10
-3.720301376766614
 20
-2.342168967018941
 10
-3.720301376766614
 20
-2.342168967018941
 10
-3.706487521183976
 20
-2.332513236942745
 10
-3.706487521183976
 20
-2.332513236942745
 10
-3.691625476799937
 20
-2.31962614932063
 10
-3.691625476799937
 20
-2.31962614932063
 10
-3.682048716690268
 20
-2.309955192260584
 10
-3.682048716690268
 20
-2.309955192260584
 10
-3.674523296788796
 20
-2.300276863234431
 10
-3.674523296788796
 20
-2.300276863234431
 10
-3.668284985113638
 20
-2.289515533868411
 10
-3.668284985113638
 20
-2.289515533868411
 10
-3.663871279042071
 20
-2.278747647359595
 10
-3.663871279042071
 20
-2.278747647359595
 10
-3.661108729115132
 20
-2.266895452220408
 10
-3.661108729115132
 20
-2.266895452220408
 10
-3.660140486664294
 20
-2.258271933276888
 10
-3.660140486664294
 20
-2.258271933276888
 10
-3.599806063968715
 20
-2.24770501081391
 10
-3.599806063968715
 20
-2.24770501081391
 10
-3.597456477882408
 20
-2.246635079777276
 10
-3.597456477882408
 20
-2.246635079777276
 10
-3.596712869093307
 20
-2.03971679151985
  0
LINE
  5
1E0
330
70
100
AcDbEntity
  8
Vector Layer 1
 62
    18
420
        0
370
    30
100
AcDbLine
 10
-3.222084673487879
 20
3.00134288544047
 30
0.0
 11
-3.941194754012545
 21
3.001342885440455
 31
0.0
  0
LWPOLYLINE
  5
1E1
330
70
100
AcDbEntity
  8
Vector Layer 1
 62
    18
420
        0
370
    30
100
AcDbPolyline
 90
       82
 70
     0
 43
0.0
 10
-3.620373742153336
 20
1.835271726926443
 10
-3.652720015610119
 20
1.915653083983483
 10
-3.652720015610119
 20
1.915653083983483
 10
-3.656707758842761
 20
1.926429562275847
 10
-3.656707758842761
 20
1.926429562275847
 10
-3.655898960140911
 20
1.937214659310346
 10
-3.655898960140911
 20
1.937214659310346
 10
-3.609538859942035
 20
2.054839678864983
 10
-3.609538859942035
 20
2.054839678864983
 10
-3.596761795715947
 20
2.065646281266422
 10
-3.596761795715947
 20
2.065646281266422
 10
-3.595695441584021
 20
2.067804926108042
 10
-3.595695441584021
 20
2.067804926108042
 10
-3.594229815136289
 20
2.077512839000671
 10
-3.594229815136289
 20
2.077512839000671
 10
-3.588179123692329
 20
2.087228990639758
 10
-3.588179123692329
 20
2.087228990639758
 10
-3.587752627520946
 20
2.095856671981559
 10
-3.587752627520946
 20
2.095856671981559
 10
-3.588202166914689
 20
2.346036398796781
 10
-3.588202166914689
 20
2.346036398796781
 10
-3.590652584933321
 20
2.347110360097638
 10
-3.590652584933321
 20
2.347110360097638
 10
-3.64705266354275
 20
2.356714296084161
 10
-3.64705266354275
 20
2.356714296084161
 10
-3.650909219916845
 20
2.357785730743104
 10
-3.650909219916845
 20
2.357785730743104
 10
-3.652537025879501
 20
2.369644813899201
 10
-3.652537025879501
 20
2.369644813899201
 10
-3.655616112670605
 20
2.380422924925241
 10
-3.655616112670605
 20
2.380422924925241
 10
-3.660468092054978
 20
2.391197850301224
 10
-3.660468092054978
 20
2.391197850301224
 10
-3.667206302081692
 20
2.401969386373883
 10
-3.667206302081692
 20
2.401969386373883
 10
-3.676266630814312
 20
2.412736749910869
 10
-3.676266630814312
 20
2.412736749910869
 10
-3.690258469574995
 20
2.425651980932523
 10
-3.690258469574995
 20
2.425651980932523
 10
-3.702494982617178
 20
2.435335272919388
 10
-3.702494982617178
 20
2.435335272919388
 10
-3.742858227372039
 20
2.46222185491496
 10
-3.742858227372039
 20
2.46222185491496
 10
-3.764516298972154
 20
2.477280039491406
 10
-3.764516298972154
 20
2.477280039491406
 10
-3.779606636467844
 20
2.48911493228508
 10
-3.779606636467844
 20
2.48911493228508
 10
-3.790256936034521
 20
2.498801074484682
 10
-3.790256936034521
 20
2.498801074484682
 10
-3.799721479532391
 20
2.509567711701982
 10
-3.799721479532391
 20
2.509567711701982
 10
-3.807113257159267
 20
2.520338073401377
 10
-3.807113257159267
 20
2.520338073401377
 10
-3.812607365658401
 20
2.531111844957516
 10
-3.812607365658401
 20
2.531111844957516
 10
-3.816409794624309
 20
2.541888656234745
 10
-3.816409794624309
 20
2.541888656234745
 10
-3.818825572718825
 20
2.553746323510671
 10
-3.818825572718825
 20
2.553746323510671
 10
-3.819656849571621
 20
2.565606837922681
 10
-3.819656849571621
 20
2.565606837922681
 10
-3.819064020500881
 20
2.576391546888734
 10
-3.819064020500881
 20
2.576391546888734
 10
-3.816773363837174
 20
2.588257670996293
 10
-3.816773363837174
 20
2.588257670996293
 10
-3.811301092965336
 20
2.604442969530303
 10
-3.811301092965336
 20
2.604442969530303
 10
-3.803318228217148
 20
2.620632779264576
 10
-3.803318228217148
 20
2.620632779264576
 10
-3.788432052650337
 20
2.645461908307347
 10
-3.788432052650337
 20
2.645461908307347
 10
-3.78033139051885
 20
2.658416836588176
 10
-3.78033139051885
 20
2.658416836588176
 10
-3.780882908597477
 20
2.667042760569624
 10
-3.780882908597477
 20
2.667042760569624
 10
-3.781681431369024
 20
2.670276418850902
 10
-3.781681431369024
 20
2.670276418850902
 10
-3.834612738915093
 20
2.723021162680597
 10
-3.834612738915093
 20
2.723021162680597
 10
-3.847206970743298
 20
2.73701726938752
 10
-3.847206970743298
 20
2.73701726938752
 10
-3.941194754012559
 20
2.830666086421078
  0
LINE
  5
1E2
330
70
100
AcDbEntity
  8
Vector Layer 1
 62
    18
420
        0
370
    30
100
AcDbLine
 10
-3.222084673487879
 20
-2.143175935648549
 30
0.0
 11
-3.222084673487879
 21
3.00134288544047
 31
0.0
  0
LINE
  5
1E3
330
70
100
AcDbEntity
  8
Vector Layer 1
 62
    18
420
        0
370
    30
100
AcDbLine
 10
-3.941194754012559
 20
2.830666086421078
 30
0.0
 11
-3.941194754012559
 21
3.001342885440455
 31
0.0
  0
LINE
  5
1E4
330
70
100
AcDbEntity
  8
Vector Layer 1
 62
    18
420
        0
370
    30
100
AcDbLine
 10
-3.222084673487879
 20
-2.143175935648549
 30
0.0
 11
-3.222084673487879
 21
-2.998657114559519
 31
0.0
  0
POLYLINE
  5
1E5
330
70
100
AcDbEntity
  8
Vector Layer 1
 62
    18
420
        0
370
    30
100
AcDb3dPolyline
 66
     1
 10
0.0
 20
0.0
 30
0.0
 70
     8
  0
VERTEX
  5
1E6
330
1E5
100
AcDbEntity
  8
0
 62
    18
420
        0
100
AcDbVertex
100
AcDb3dPolylineVertex
 10
-3.222084673487882
 20
-2.998657114559519
 30
0.0
 70
    32
  0
VERTEX
  5
1E7
330
1E5
100
AcDbEntity
  8
0
 62
    18
420
        0
100
AcDbVertex
100
AcDb3dPolylineVertex
 10
-3.589379664725848
 20
-2.998657114559533
 30
0.0
 70
    32
  0
VERTEX
  5
1E8
330
1E5
100
AcDbEntity
  8
0
 62
    18
420
        0
100
AcDbVertex
100
AcDb3dPolylineVertex
 10
-3.600159043225334
 20
-2.998657114559533
 30
0.0
 70
    32
  0
VERTEX
  5
1E9
330
1E5
100
AcDbEntity
  8
0
 62
    18
420
        0
100
AcDbVertex
100
AcDb3dPolylineVertex
 10
-3.766111885690946
 20
-2.998657114559533
 30
0.0
 70
    32
  0
VERTEX
  5
1EA
330
1E5
100
AcDbEntity
  8
0
 62
    18
420
        0
100
AcDbVertex
100
AcDb3dPolylineVertex
 10
-3.776893080461684
 20
-2.998657114559533
 30
0.0
 70
    32
  0
VERTEX
  5
1EB
330
1E5
100
AcDbEntity
  8
0
 62
    18
420
        0
100
AcDbVertex
100
AcDb3dPolylineVertex
 10
-3.787673367100422
 20
-2.998657114559533
 30
0.0
 70
    32
  0
VERTEX
  5
1EC
330
1E5
100
AcDbEntity
  8
0
 62
    18
420
        0
100
AcDbVertex
100
AcDb3dPolylineVertex
 10
-3.950738937973539
 20
-2.998657114559533
 30
0.0
 70
    32
  0
SEQEND
  5
1ED
330
1E5
100
AcDbEntity
  8
Vector Layer 1
 62
    18
420
        0
370
    30
  0
LINE
  5
1EE
330
70
100
AcDbEntity
  8
Vector Layer 1
 62
    18
420
        0
370
    30
100
AcDbLine
 10
-3.105315618027843
 20
2.998454999625179
 30
0.0
 11
-1.725322687663756
 21
2.998454999625179
 31
0.0
  0
LINE
  5
1EF
330
70
100
AcDbEntity
  8
Vector Layer 1
 62
    18
420
        0
370
    30
100
AcDbLine
 10
-2.4153191528458
 20
2.998454999625179
 30
0.0
 11
-2.415319152845796
 21
-2.985372493636276
 31
0.0
  0
LINE
  5
1F0
330
70
100
AcDbEntity
  8
Vector Layer 1
 62
    18
420
        0
370
    30
100
AcDbLine
 10
-3.944000691243537
 20
3.191374663072775
 30
0.0
 11
-3.944000691243537
 21
4.086253369272236
 31
0.0
  0
LINE
  5
1F1
330
70
100
AcDbEntity
  8
Vector Layer 1
 62
    18
420
        0
370
    30
100
AcDbLine
 10
-3.221660641756086
 20
3.191376092244456
 30
0.0
 11
-3.221660641756086
 21
4.086254798443916
 31
0.0
  0
LINE
  5
1F2
330
70
100
AcDbEntity
  8
Vector Layer 1
 62
    18
420
        0
370
    30
100
AcDbLine
 10
-3.944000691243537
 20
3.638814016172506
 30
0.0
 11
-3.221660641756086
 21
3.638814016172506
 31
0.0
  0
POLYLINE
  5
1F3
330
70
100
AcDbEntity
  8
Vector Layer 1
 62
    18
420
        0
370
    30
100
AcDb3dPolyline
 66
     1
 10
0.0
 20
0.0
 30
0.0
 70
     8
  0
VERTEX
  5
1F4
330
1F3
100
AcDbEntity
  8
0
 62
    18
420
        0
100
AcDbVertex
100
AcDb3dPolylineVertex
 10
9.490103417848677
 20
2.999999999999999
 30
0.0
 70
    32
  0
VERTEX
  5
1F5
330
1F3
100
AcDbEntity
  8
0
 62
    18
420
        0
100
AcDbVertex
100
AcDb3dPolylineVertex
 10
9.32414950374321
 20
2.999701803088239
 30
0.0
 70
    32
  0
VERTEX
  5
1F6
330
1F3
100
AcDbEntity
  8
0
 62
    18
420
        0
100
AcDbVertex
100
AcDb3dPolylineVertex
 10
9.313370626261505
 20
2.999682434891985
 30
0.0
 70
    32
  0
SEQEND
  5
1F7
330
1F3
100
AcDbEntity
  8
Vector Layer 1
 62
    18
420
        0
370
    30
  0
LWPOLYLINE
  5
1F8
330
70
100
AcDbEntity
  8
Vector Layer 1
 62
    18
420
        0
370
    30
100
AcDbPolyline
 90
       10
 70
     0
 43
0.0
 10
-9.320704401250846
 20
2.041059676960315
 10
-9.327471102098527
 20
2.032414928814536
 10
-9.327471102098527
 20
2.032414928814536
 10
-9.364417696437376
 20
1.94082034516604
 10
-9.364417696437376
 20
1.94082034516604
 10
-9.366734364458922
 20
1.9343543216685
 10
-9.366734364458922
 20
1.9343543216685
 10
-9.367469911637515
 20
1.924650363989466
 10
-9.367469911637515
 20
1.924650363989466
 10
-9.338784826101811
 20
1.851395744118851
210
0.0
220
0.0
230
-1.0
  0
LWPOLYLINE
  5
1F9
330
70
100
AcDbEntity
  8
Vector Layer 1
 62
    18
420
        0
370
    30
100
AcDbPolyline
 90
       74
 70
     0
 43
0.0
 10
-9.338784826101811
 20
1.851395744118851
 10
-9.351431321593539
 20
1.839166157079616
 10
-9.351431321593539
 20
1.839166157079616
 10
-9.372144256420737
 20
1.816445849165533
 10
-9.372144256420737
 20
1.816445849165533
 10
-9.39040686012407
 20
1.793734347083814
 10
-9.39040686012407
 20
1.793734347083814
 10
-9.406563518666613
 20
1.771030413203745
 10
-9.406563518666613
 20
1.771030413203745
 10
-9.420864048402618
 20
1.748333149752402
 10
-9.420864048402618
 20
1.748333149752402
 10
-9.42467392396661
 20
1.741849209171983
 10
-9.42467392396661
 20
1.741849209171983
 10
-9.421594756211161
 20
1.729998151872286
 10
-9.421594756211161
 20
1.729998151872286
 10
-9.410473765771408
 20
1.702000372449174
 10
-9.410473765771408
 20
1.702000372449174
 10
-9.400477953684927
 20
1.672920174618695
 10
-9.400477953684927
 20
1.672920174618695
 10
-9.391771052853616
 20
1.642756969968747
 10
-9.391771052853616
 20
1.642756969968747
 10
-9.384743263627523
 20
1.612587731042381
 10
-9.384743263627523
 20
1.612587731042381
 10
-9.37939890731549
 20
1.582412442309973
 10
-9.37939890731549
 20
1.582412442309973
 10
-9.375793133821682
 20
1.553309280395946
 10
-9.375793133821682
 20
1.553309280395946
 10
-9.373638752795493
 20
1.523122527748584
 10
-9.373638752795493
 20
1.523122527748584
 10
-9.372973433089605
 20
1.475676426720509
 10
-9.372973433089605
 20
1.475676426720509
 10
-9.37155921293513
 20
1.123052943439387
 10
-9.37155921293513
 20
1.123052943439387
 10
-9.370071452860038
 20
0.7520973525286446
 10
-9.370071452860038
 20
0.7520973525286446
 10
-9.368046346752018
 20
0.2463468403984125
 10
-9.368046346752018
 20
0.2463468403984125
 10
-9.366277453713371
 20
-0.1947021033903127
 10
-9.366277453713371
 20
-0.1947021033903127
 10
-9.364457721452316
 20
-0.6476129874786371
 10
-9.364457721452316
 20
-0.6476129874786371
 10
-9.362935352602692
 20
-1.027195452561726
 10
-9.362935352602692
 20
-1.027195452561726
 10
-9.361408273953825
 20
-1.407856275537472
 10
-9.361408273953825
 20
-1.407856275537472
 10
-9.361038394544424
 20
-1.503830305125568
 10
-9.361038394544424
 20
-1.503830305125568
 10
-9.361973779142148
 20
-1.534028161561257
 10
-9.361973779142148
 20
-1.534028161561257
 10
-9.364525839882864
 20
-1.564231827897071
 10
-9.364525839882864
 20
-1.564231827897071
 10
-9.368700522291488
 20
-1.594441325499631
 10
-9.368700522291488
 20
-1.594441325499631
 10
-9.374513703452748
 20
-1.624656711426918
 10
-9.374513703452748
 20
-1.624656711426918
 10
-9.381982266273265
 20
-1.654878046351566
 10
-9.381982266273265
 20
-1.654878046351566
 10
-9.391516361503654
 20
-1.68618517906366
 10
-9.391516361503654
 20
-1.68618517906366
 10
-9.402473725566942
 20
-1.716419051803544
 10
-9.402473725566942
 20
-1.716419051803544
 10
-9.412270258342033
 20
-1.740178503917105
 10
-9.412270258342033
 20
-1.740178503917105
 10
-9.411990362062732
 20
-1.742334247681755
 10
-9.411990362062732
 20
-1.742334247681755
 10
-9.407027559197508
 20
-1.75310016088408
 10
-9.407027559197508
 20
-1.75310016088408
 10
-9.391463596971449
 20
-1.77676847418563
 10
-9.391463596971449
 20
-1.77676847418563
 10
-9.374667354987639
 20
-1.799353984186112
 10
-9.374667354987639
 20
-1.799353984186112
 10
-9.356659314759882
 20
-1.820856764490589
 10
-9.356659314759882
 20
-1.820856764490589
 10
-9.344365274310879
 20
-1.833928841485984
210
0.0
220
0.0
230
-1.0
  0
LINE
  5
1FA
330
70
100
AcDbEntity
  8
Vector Layer 1
 62
    18
420
        0
370
    30
100
AcDbLine
 10
9.313370055641804
 20
-2.999364870996757
 30
0.0
 11
9.313370055641804
 21
-2.999364870996757
 31
0.0
  0
LINE
  5
1FB
330
70
100
AcDbEntity
  8
Vector Layer 1
 62
    18
420
        0
370
    30
100
AcDbLine
 10
9.674615261501193
 20
2.731977445178635
 30
0.0
 11
9.674730470131077
 21
2.999999999999999
 31
0.0
  0
LWPOLYLINE
  5
1FC
330
70
100
AcDbEntity
  8
Vector Layer 1
 62
    18
420
        0
370
    30
100
AcDbPolyline
 90
       62
 70
     0
 43
0.0
 10
9.674615261501193
 20
2.731977445178635
 10
9.578302744422266
 20
2.636348207678331
 10
9.578302744422266
 20
2.636348207678331
 10
9.565683380033744
 20
2.622374685647895
 10
9.565683380033744
 20
2.622374685647895
 10
9.514821711283467
 20
2.571873852369943
 10
9.514821711283467
 20
2.571873852369943
 10
9.514241289668863
 20
2.564327314520808
 10
9.514241289668863
 20
2.564327314520808
 10
9.514565719320774
 20
2.560012649334218
 10
9.514565719320774
 20
2.560012649334218
 10
9.531926809333356
 20
2.531912512958857
 10
9.531926809333356
 20
2.531912512958857
 10
9.540862885688014
 20
2.515704776823347
 10
9.540862885688014
 20
2.515704776823347
 10
9.546902808081343
 20
2.501664198324566
 10
9.546902808081343
 20
2.501664198324566
 10
9.551186761038968
 20
2.487629930308617
 10
9.551186761038968
 20
2.487629930308617
 10
9.553295273994047
 20
2.473603480240126
 10
9.553295273994047
 20
2.473603480240126
 10
9.552975693002172
 20
2.460664130907929
 10
9.552975693002172
 20
2.460664130907929
 10
9.551123467760652
 20
2.448808664306163
 10
9.551123467760652
 20
2.448808664306163
 10
9.547962062090334
 20
2.438036277365836
 10
9.547962062090334
 20
2.438036277365836
 10
9.54319670951178
 20
2.42726965458018
 10
9.54319670951178
 20
2.42726965458018
 10
9.536622602337493
 20
2.416509531973053
 10
9.536622602337493
 20
2.416509531973053
 10
9.528051914506146
 20
2.405756584540904
 10
9.528051914506146
 20
2.405756584540904
 10
9.518475806318068
 20
2.396085625138027
 10
9.518475806318068
 20
2.396085625138027
 10
9.502755302267871
 20
2.383201622589533
 10
9.502755302267871
 20
2.383201622589533
 10
9.478634916494543
 20
2.366034307687834
 10
9.478634916494543
 20
2.366034307687834
 10
9.444292908924154
 20
2.343511852459406
 10
9.444292908924154
 20
2.343511852459406
 10
9.430479053341516
 20
2.33385612238321
 10
9.430479053341516
 20
2.33385612238321
 10
9.415617008957475
 20
2.320969034761095
 10
9.415617008957475
 20
2.320969034761095
 10
9.406040248847807
 20
2.311298077701049
 10
9.406040248847807
 20
2.311298077701049
 10
9.398514828946336
 20
2.301619748674896
 10
9.398514828946336
 20
2.301619748674896
 10
9.392276517271177
 20
2.290858419308876
 10
9.392276517271177
 20
2.290858419308876
 10
9.387862811199608
 20
2.28009053280006
 10
9.387862811199608
 20
2.28009053280006
 10
9.385100261272672
 20
2.268238337660873
 10
9.385100261272672
 20
2.268238337660873
 10
9.384132018821834
 20
2.259614818717353
 10
9.384132018821834
 20
2.259614818717353
 10
9.323797596126253
 20
2.249047896254375
 10
9.323797596126253
 20
2.249047896254375
 10
9.321448010039947
 20
2.247977965217741
 10
9.321448010039947
 20
2.247977965217741
 10
9.320704401250846
 20
2.041059676960315
  0
LINE
  5
1FD
330
70
100
AcDbEntity
  8
Vector Layer 1
 62
    18
420
        0
370
    30
100
AcDbLine
 10
8.946076205645418
 20
-2.999999999999991
 30
0.0
 11
9.665186286170083
 21
-2.99999999999999
 31
0.0
  0
LWPOLYLINE
  5
1FE
330
70
100
AcDbEntity
  8
Vector Layer 1
 62
    18
420
        0
370
    30
100
AcDbPolyline
 90
       82
 70
     0
 43
0.0
 10
9.344365274310874
 20
-1.833928841485984
 10
9.376711547767659
 20
-1.914310198543024
 10
9.376711547767659
 20
-1.914310198543024
 10
9.380699291000301
 20
-1.925086676835388
 10
9.380699291000301
 20
-1.925086676835388
 10
9.379890492298448
 20
-1.935871773869887
 10
9.379890492298448
 20
-1.935871773869887
 10
9.333530392099573
 20
-2.05349679342453
 10
9.333530392099573
 20
-2.05349679342453
 10
9.320753327873484
 20
-2.06430339582597
 10
9.320753327873484
 20
-2.06430339582597
 10
9.319686973741561
 20
-2.06646204066759
 10
9.319686973741561
 20
-2.06646204066759
 10
9.318221347293826
 20
-2.076169953560219
 10
9.318221347293826
 20
-2.076169953560219
 10
9.312170655849868
 20
-2.085886105199306
 10
9.312170655849868
 20
-2.085886105199306
 10
9.311744159678486
 20
-2.094513786541108
 10
9.311744159678486
 20
-2.094513786541108
 10
9.312193699072226
 20
-2.344693513356316
 10
9.312193699072226
 20
-2.344693513356316
 10
9.314644117090859
 20
-2.345767474657173
 10
9.314644117090859
 20
-2.345767474657173
 10
9.371044195700287
 20
-2.355371410643696
 10
9.371044195700287
 20
-2.355371410643696
 10
9.374900752074385
 20
-2.356442845302639
 10
9.374900752074385
 20
-2.356442845302639
 10
9.37652855803704
 20
-2.368301928458736
 10
9.37652855803704
 20
-2.368301928458736
 10
9.379607644828144
 20
-2.379080039484776
 10
9.379607644828144
 20
-2.379080039484776
 10
9.384459624212517
 20
-2.389854964860758
 10
9.384459624212517
 20
-2.389854964860758
 10
9.39119783423923
 20
-2.400626500933418
 10
9.39119783423923
 20
-2.400626500933418
 10
9.40025816297185
 20
-2.411393864470404
 10
9.40025816297185
 20
-2.411393864470404
 10
9.414250001732535
 20
-2.424309095492058
 10
9.414250001732535
 20
-2.424309095492058
 10
9.426486514774717
 20
-2.433992387478923
 10
9.426486514774717
 20
-2.433992387478923
 10
9.466849759529578
 20
-2.460878969474495
 10
9.466849759529578
 20
-2.460878969474495
 10
9.488507831129693
 20
-2.47593715405094
 10
9.488507831129693
 20
-2.47593715405094
 10
9.503598168625384
 20
-2.487772046844615
 10
9.503598168625384
 20
-2.487772046844615
 10
9.514248468192061
 20
-2.497458189044217
 10
9.514248468192061
 20
-2.497458189044217
 10
9.523713011689931
 20
-2.508224826261517
 10
9.523713011689931
 20
-2.508224826261517
 10
9.531104789316804
 20
-2.518995187960912
 10
9.531104789316804
 20
-2.518995187960912
 10
9.53659889781594
 20
-2.529768959517051
 10
9.53659889781594
 20
-2.529768959517051
 10
9.540401326781848
 20
-2.54054577079428
 10
9.540401326781848
 20
-2.54054577079428
 10
9.542817104876364
 20
-2.552403438070206
 10
9.542817104876364
 20
-2.552403438070206
 10
9.543648381729159
 20
-2.564263952482216
 10
9.543648381729159
 20
-2.564263952482216
 10
9.543055552658419
 20
-2.575048661448269
 10
9.543055552658419
 20
-2.575048661448269
 10
9.540764895994712
 20
-2.586914785555828
 10
9.540764895994712
 20
-2.586914785555828
 10
9.535292625122876
 20
-2.603100084089838
 10
9.535292625122876
 20
-2.603100084089838
 10
9.527309760374688
 20
-2.61928989382411
 10
9.527309760374688
 20
-2.61928989382411
 10
9.512423584807876
 20
-2.644119022866882
 10
9.512423584807876
 20
-2.644119022866882
 10
9.504322922676388
 20
-2.657073951147711
 10
9.504322922676388
 20
-2.657073951147711
 10
9.504874440755015
 20
-2.665699875129159
 10
9.504874440755015
 20
-2.665699875129159
 10
9.505672963526563
 20
-2.668933533410437
 10
9.505672963526563
 20
-2.668933533410437
 10
9.558604271072633
 20
-2.721678277240132
 10
9.558604271072633
 20
-2.721678277240132
 10
9.571198502900836
 20
-2.735674383947055
 10
9.571198502900836
 20
-2.735674383947055
 10
9.665186286170099
 20
-2.829323200980613
  0
LINE
  5
1FF
330
70
100
AcDbEntity
  8
Vector Layer 1
 62
    18
420
        0
370
    30
100
AcDbLine
 10
8.946076205645418
 20
2.144518821089028
 30
0.0
 11
8.946076205645418
 21
-2.999999999999991
 31
0.0
  0
LINE
  5
200
330
70
100
AcDbEntity
  8
Vector Layer 1
 62
    18
420
        0
370
    30
100
AcDbLine
 10
9.665186286170099
 20
-2.829323200980613
 30
0.0
 11
9.665186286170099
 21
-2.99999999999999
 31
0.0
  0
LINE
  5
201
330
70
100
AcDbEntity
  8
Vector Layer 1
 62
    18
420
        0
370
    30
100
AcDbLine
 10
8.946076205645418
 20
2.144518821089028
 30
0.0
 11
8.946076205645418
 21
2.999999999999999
 31
0.0
  0
POLYLINE
  5
202
330
70
100
AcDbEntity
  8
Vector Layer 1
 62
    18
420
        0
370
    30
100
AcDb3dPolyline
 66
     1
 10
0.0
 20
0.0
 30
0.0
 70
     8
  0
VERTEX
  5
203
330
202
100
AcDbEntity
  8
0
 62
    18
420
        0
100
AcDbVertex
100
AcDb3dPolylineVertex
 10
8.94607620564542
 20
2.999999999999999
 30
0.0
 70
    32
  0
VERTEX
  5
204
330
202
100
AcDbEntity
  8
0
 62
    18
420
        0
100
AcDbVertex
100
AcDb3dPolylineVertex
 10
9.313371196883387
 20
2.999999999999999
 30
0.0
 70
    32
  0
VERTEX
  5
205
330
202
100
AcDbEntity
  8
0
 62
    18
420
        0
100
AcDbVertex
100
AcDb3dPolylineVertex
 10
9.324150575382873
 20
2.999999999999999
 30
0.0
 70
    32
  0
VERTEX
  5
206
330
202
100
AcDbEntity
  8
0
 62
    18
420
        0
100
AcDbVertex
100
AcDb3dPolylineVertex
 10
9.490103417848484
 20
2.999999999999999
 30
0.0
 70
    32
  0
VERTEX
  5
207
330
202
100
AcDbEntity
  8
0
 62
    18
420
        0
100
AcDbVertex
100
AcDb3dPolylineVertex
 10
9.500884612619223
 20
2.999999999999999
 30
0.0
 70
    32
  0
VERTEX
  5
208
330
202
100
AcDbEntity
  8
0
 62
    18
420
        0
100
AcDbVertex
100
AcDb3dPolylineVertex
 10
9.51166489925796
 20
2.999999999999999
 30
0.0
 70
    32
  0
VERTEX
  5
209
330
202
100
AcDbEntity
  8
0
 62
    18
420
        0
100
AcDbVertex
100
AcDb3dPolylineVertex
 10
9.674730470131077
 20
2.999999999999999
 30
0.0
 70
    32
  0
SEQEND
  5
20A
330
202
100
AcDbEntity
  8
Vector Layer 1
 62
    18
420
        0
370
    30
  0
LINE
  5
20B
330
70
100
AcDbEntity
  8
Vector Layer 1
 62
    18
420
        0
370
    30
100
AcDbLine
 10
-3.116096812796312
 20
-2.979980943470921
 30
0.0
 11
-1.736103882432225
 21
-2.979980943470921
 31
0.0
  0
LINE
  5
20C
330
70
100
AcDbEntity
  8
Vector Layer 1
 62
    18
420
        0
370
    30
100
AcDbLine
 10
-1.010781194768469
 20
3.000794333207037
 30
0.0
 11
-1.010781194768468
 21
-2.999205666792962
 31
0.0
  0
LINE
  5
20D
330
70
100
AcDbEntity
  8
Vector Layer 1
 62
    18
420
        0
370
    30
100
AcDbLine
 10
-4.033055451192129
 20
1.83288409703504
 30
0.0
 11
-4.033055451192129
 21
-1.849060176702786
 31
0.0
  0
LINE
  5
20E
330
70
100
AcDbEntity
  8
Vector Layer 1
 62
    18
420
        0
370
    30
100
AcDbLine
 10
-4.261311417462015
 20
-1.849060176702786
 30
0.0
 11
-3.790478568901566
 21
-1.849060176702786
 31
0.0
  0
LINE
  5
20F
330
70
100
AcDbEntity
  8
Vector Layer 1
 62
    18
420
        0
370
    30
100
AcDbLine
 10
-3.790478568901566
 20
-1.849060176702786
 30
0.0
 11
-3.450870933694776
 21
-1.849060176702786
 31
0.0
  0
LINE
  5
210
330
70
100
AcDbEntity
  8
Vector Layer 1
 62
    18
420
        0
370
    30
100
AcDbLine
 10
-3.450870933694776
 20
-1.849060176702786
 30
0.0
 11
-3.224465843556917
 21
-1.849060176702786
 31
0.0
  0
LINE
  5
211
330
70
100
AcDbEntity
  8
Vector Layer 1
 62
    18
420
        0
370
    30
100
AcDbLine
 10
-4.265948568901566
 20
1.83288409703504
 30
0.0
 11
-3.790478568901566
 21
1.83288409703504
 31
0.0
  0
LINE
  5
212
330
70
100
AcDbEntity
  8
Vector Layer 1
 62
    18
420
        0
370
    30
100
AcDbLine
 10
-3.790478568901566
 20
1.83288409703504
 30
0.0
 11
-3.450870933694776
 21
1.83288409703504
 31
0.0
  0
LINE
  5
213
330
70
100
AcDbEntity
  8
Vector Layer 1
 62
    18
420
        0
370
    30
100
AcDbLine
 10
-3.450870933694776
 20
1.83288409703504
 30
0.0
 11
-3.224465843556917
 21
1.83288409703504
 31
0.0
  0
ENDSEC
  0
SECTION
  2
OBJECTS
  0
DICTIONARY
  5
C
330
0
100
AcDbDictionary
281
     1
  3
ACAD_COLOR
350
63
  3
ACAD_DETAILVIEWSTYLE
350
6A
  3
ACAD_GROUP
350
D
  3
ACAD_LAYOUT
350
62
  3
ACAD_MATERIAL
350
10
  3
ACAD_MLEADERSTYLE
350
66
  3
ACAD_MLINESTYLE
350
5F
  3
ACAD_PLOTSETTINGS
350
61
  3
ACAD_PLOTSTYLENAME
350
E
  3
ACAD_SCALELIST
350
42
  3
ACAD_SECTIONVIEWSTYLE
350
68
  3
ACAD_TABLESTYLE
350
64
  3
ACAD_VISUALSTYLE
350
29
  3
ACDB_RECOMPOSE_DATA
350
21D
  3
AcDbVariableDictionary
350
214
  0
DICTIONARY
  5
63
102
{ACAD_REACTORS
330
C
102
}
330
C
100
AcDbDictionary
281
     1
  0
DICTIONARY
  5
6A
102
{ACAD_REACTORS
330
C
102
}
330
C
100
AcDbDictionary
281
     1
  3
Imperial24
350
6B
  0
DICTIONARY
  5
D
102
{ACAD_REACTORS
330
C
102
}
330
C
100
AcDbDictionary
281
     1
  0
DICTIONARY
  5
62
102
{ACAD_REACTORS
330
C
102
}
330
C
100
AcDbDictionary
281
     1
  3
Layout1
350
6F
  3
Layout2
350
77
  3
Model
350
73
  0
DICTIONARY
  5
10
102
{ACAD_REACTORS
330
C
102
}
330
C
100
AcDbDictionary
281
     1
  3
ByBlock
350
19
  3
ByLayer
350
11
  3
Global
350
21
  0
DICTIONARY
  5
66
102
{ACAD_REACTORS
330
C
102
}
330
C
100
AcDbDictionary
281
     1
  3
Standard
350
67
  0
DICTIONARY
  5
5F
102
{ACAD_REACTORS
330
C
102
}
330
C
100
AcDbDictionary
281
     1
  3
Standard
350
60
  0
DICTIONARY
  5
61
102
{ACAD_REACTORS
330
C
102
}
330
C
100
AcDbDictionary
281
     1
  0
ACDBDICTIONARYWDFLT
  5
E
102
{ACAD_REACTORS
330
C
102
}
330
C
100
AcDbDictionary
281
     1
  3
Normal
350
F
100
AcDbDictionaryWithDefault
340
F
  0
DICTIONARY
  5
42
102
{ACAD_REACTORS
330
C
102
}
330
C
100
AcDbDictionary
281
     1
  3
A0
350
43
  3
A1
350
44
  3
A2
350
45
  3
A3
350
46
  3
A4
350
47
  3
A5
350
48
  3
A6
350
49
  3
A7
350
4A
  3
A8
350
4B
  3
A9
350
4C
  3
B0
350
4D
  3
B1
350
4E
  3
B2
350
4F
  3
B3
350
50
  3
B4
350
51
  3
B5
350
52
  3
B6
350
53
  0
DICTIONARY
  5
68
102
{ACAD_REACTORS
330
C
102
}
330
C
100
AcDbDictionary
281
     1
  3
Imperial24
350
69
  0
DICTIONARY
  5
64
102
{ACAD_REACTORS
330
C
102
}
330
C
100
AcDbDictionary
281
     1
  3
Standard
350
65
  0
DICTIONARY
  5
29
102
{ACAD_REACTORS
330
C
102
}
330
C
100
AcDbDictionary
281
     1
  3
2dWireframe
350
2F
  3
Basic
350
2E
  3
Brighten
350
35
  3
ColorChange
350
39
  3
Conceptual
350
32
  3
Dim
350
34
  3
EdgeColorOff
350
41
  3
Facepattern
350
38
  3
Flat
350
2A
  3
FlatWithEdges
350
2B
  3
Gouraud
350
2C
  3
GouraudWithEdges
350
2D
  3
Hidden
350
31
  3
JitterOff
350
3F
  3
Linepattern
350
37
  3
OverhangOff
350
40
  3
Realistic
350
33
  3
Shaded
350
3E
  3
Shaded with edges
350
3D
  3
Shades of Gray
350
3A
  3
Sketchy
350
3B
  3
Thicken
350
36
  3
Wireframe
350
30
  3
X-Ray
350
3C
  0
XRECORD
  5
21D
102
{ACAD_REACTORS
330
C
102
}
330
C
100
AcDbXrecord
280
     1
 90
        1
330
65
  0
DICTIONARY
  5
214
102
{ACAD_REACTORS
330
C
102
}
330
C
100
AcDbDictionary
281
     1
  3
CANNOSCALE
350
219
  3
CMLEADERSTYLE
350
216
  3
CTABLESTYLE
350
215
  3
CVIEWDETAILSTYLE
350
217
  3
CVIEWSECTIONSTYLE
350
218
  3
XCLIPFRAME
350
21A
  0
ACDBDETAILVIEWSTYLE
  5
6B
102
{ACAD_XDICTIONARY
360
253
102
}
102
{ACAD_REACTORS
330
6A
102
}
330
6A
100
AcDbModelDocViewStyle
 70
     0
  3
Imperial24
290
     0
100
AcDbDetailViewStyle
 70
     0
 71
     0
 90
        3
 71
     1
340
55
 62
   256
 40
0.24
340
0
 62
   256
 40
0.24
300

 40
0.36
280
     3
 71
     2
340
5D
 90
       25
 62
   256
 71
     3
340
55
 62
   256
 40
0.24
 90
        1
 40
0.75
 90
        1
300
%<\AcVar ViewType \f "%tc1">% %<\AcVar ViewDetailId>%\PSCALE %<\AcVar ViewScale \f "%sn">%
 71
     4
340
5D
 90
       25
 62
   256
340
5D
 90
       25
 62
   256
280
     0
  0
LAYOUT
  5
6F
102
{ACAD_REACTORS
330
62
102
}
330
62
100
AcDbPlotSettings
  1

  2

  4

  6

 40
0.0
 41
0.0
 42
0.0
 43
0.0
 44
0.0
 45
0.0
 46
0.0
 47
0.0
 48
0.0
 49
0.0
140
0.0
141
0.0
142
1.0
143
1.0
 70
   688
 72
     0
 73
     0
 74
     5
  7

 75
    16
147
1.0
 76
     0
 77
     2
 78
   300
148
0.0
149
0.0
100
AcDbLayout
  1
Layout1
 70
     1
 71
     1
 10
0.0
 20
0.0
 11
12.0
 21
9.0
 12
0.0
 22
0.0
 32
0.0
 14
0.0
 24
0.0
 34
0.0
 15
0.0
 25
0.0
 35
0.0
146
0.0
 13
0.0
 23
0.0
 33
0.0
 16
1.0
 26
0.0
 36
0.0
 17
0.0
 27
1.0
 37
0.0
 76
     0
330
6C
  0
LAYOUT
  5
77
102
{ACAD_REACTORS
330
62
102
}
330
62
100
AcDbPlotSettings
  1

  2

  4

  6

 40
0.0
 41
0.0
 42
0.0
 43
0.0
 44
0.0
 45
0.0
 46
0.0
 47
0.0
 48
0.0
 49
0.0
140
0.0
141
0.0
142
1.0
143
1.0
 70
   688
 72
     0
 73
     0
 74
     5
  7

 75
    16
147
1.0
 76
     0
 77
     2
 78
   300
148
0.0
149
0.0
100
AcDbLayout
  1
Layout2
 70
     1
 71
     2
 10
0.0
 20
0.0
 11
12.0
 21
9.0
 12
0.0
 22
0.0
 32
0.0
 14
0.0
 24
0.0
 34
0.0
 15
0.0
 25
0.0
 35
0.0
146
0.0
 13
0.0
 23
0.0
 33
0.0
 16
1.0
 26
0.0
 36
0.0
 17
0.0
 27
1.0
 37
0.0
 76
     0
330
74
  0
LAYOUT
  5
73
102
{ACAD_REACTORS
330
62
102
}
330
62
100
AcDbPlotSettings
  1

  2

  4

  6

 40
0.0
 41
0.0
 42
0.0
 43
0.0
 44
0.0
 45
0.0
 46
0.0
 47
0.0
 48
0.0
 49
0.0
140
0.0
141
0.0
142
1.0
143
1.0
 70
  1712
 72
     0
 73
     0
 74
     0
  7

 75
     0
147
1.0
 76
     0
 77
     2
 78
   300
148
0.0
149
0.0
100
AcDbLayout
  1
Model
 70
     1
 71
     0
 10
0.0
 20
0.0
 11
12.0
 21
9.0
 12
0.0
 22
0.0
 32
0.0
 14
0.0
 24
0.0
 34
0.0
 15
0.0
 25
0.0
 35
0.0
146
0.0
 13
0.0
 23
0.0
 33
0.0
 16
1.0
 26
0.0
 36
0.0
 17
0.0
 27
1.0
 37
0.0
 76
     0
330
70
  0
MATERIAL
  5
19
102
{ACAD_XDICTIONARY
360
1A
102
}
102
{ACAD_REACTORS
330
10
102
}
330
10
100
AcDbMaterial
  1
ByBlock
 72
     0
 43
0.0208333333333333
 43
0.0
 43
0.0
 43
0.0
 43
0.0
 43
0.0208333333333333
 43
0.0
 43
0.0
 43
0.0
 43
0.0
 43
1.0
 43
0.0
 43
0.0
 43
0.0
 43
0.0
 43
1.0
 77
     0
 47
0.0208333333333333
 47
0.0
 47
0.0
 47
0.0
 47
0.0
 47
0.0208333333333333
 47
0.0
 47
0.0
 47
0.0
 47
0.0
 47
1.0
 47
0.0
 47
0.0
 47
0.0
 47
0.0
 47
1.0
171
     0
 49
0.0208333333333333
 49
0.0
 49
0.0
 49
0.0
 49
0.0
 49
0.0208333333333333
 49
0.0
 49
0.0
 49
0.0
 49
0.0
 49
1.0
 49
0.0
 49
0.0
 49
0.0
 49
0.0
 49
1.0
175
     0
142
0.0208333333333333
142
0.0
142
0.0
142
0.0
142
0.0
142
0.0208333333333333
142
0.0
142
0.0
142
0.0
142
0.0
142
1.0
142
0.0
142
0.0
142
0.0
142
0.0
142
1.0
179
     0
144
0.0208333333333333
144
0.0
144
0.0
144
0.0
144
0.0
144
0.0208333333333333
144
0.0
144
0.0
144
0.0
144
0.0
144
1.0
144
0.0
144
0.0
144
0.0
144
0.0
144
1.0
147
0.0208333333333333
147
0.0
147
0.0
147
0.0
147
0.0
147
0.0208333333333333
147
0.0
147
0.0
147
0.0
147
0.0
147
1.0
147
0.0
147
0.0
147
0.0
147
0.0
147
1.0
  0
MATERIAL
  5
11
102
{ACAD_XDICTIONARY
360
12
102
}
102
{ACAD_REACTORS
330
10
102
}
330
10
100
AcDbMaterial
  1
ByLayer
 72
     0
 43
0.0208333333333333
 43
0.0
 43
0.0
 43
0.0
 43
0.0
 43
0.0208333333333333
 43
0.0
 43
0.0
 43
0.0
 43
0.0
 43
1.0
 43
0.0
 43
0.0
 43
0.0
 43
0.0
 43
1.0
 77
     0
 47
0.0208333333333333
 47
0.0
 47
0.0
 47
0.0
 47
0.0
 47
0.0208333333333333
 47
0.0
 47
0.0
 47
0.0
 47
0.0
 47
1.0
 47
0.0
 47
0.0
 47
0.0
 47
0.0
 47
1.0
171
     0
 49
0.0208333333333333
 49
0.0
 49
0.0
 49
0.0
 49
0.0
 49
0.0208333333333333
 49
0.0
 49
0.0
 49
0.0
 49
0.0
 49
1.0
 49
0.0
 49
0.0
 49
0.0
 49
0.0
 49
1.0
175
     0
142
0.0208333333333333
142
0.0
142
0.0
142
0.0
142
0.0
142
0.0208333333333333
142
0.0
142
0.0
142
0.0
142
0.0
142
1.0
142
0.0
142
0.0
142
0.0
142
0.0
142
1.0
179
     0
144
0.0208333333333333
144
0.0
144
0.0
144
0.0
144
0.0
144
0.0208333333333333
144
0.0
144
0.0
144
0.0
144
0.0
144
1.0
144
0.0
144
0.0
144
0.0
144
0.0
144
1.0
147
0.0208333333333333
147
0.0
147
0.0
147
0.0
147
0.0
147
0.0208333333333333
147
0.0
147
0.0
147
0.0
147
0.0
147
1.0
147
0.0
147
0.0
147
0.0
147
0.0
147
1.0
  0
MATERIAL
  5
21
102
{ACAD_XDICTIONARY
360
22
102
}
102
{ACAD_REACTORS
330
10
102
}
330
10
100
AcDbMaterial
  1
Global
 72
     0
 43
0.0208333333333333
 43
0.0
 43
0.0
 43
0.0
 43
0.0
 43
0.0208333333333333
 43
0.0
 43
0.0
 43
0.0
 43
0.0
 43
1.0
 43
0.0
 43
0.0
 43
0.0
 43
0.0
 43
1.0
 77
     0
 47
0.0208333333333333
 47
0.0
 47
0.0
 47
0.0
 47
0.0
 47
0.0208333333333333
 47
0.0
 47
0.0
 47
0.0
 47
0.0
 47
1.0
 47
0.0
 47
0.0
 47
0.0
 47
0.0
 47
1.0
171
     0
 49
0.0208333333333333
 49
0.0
 49
0.0
 49
0.0
 49
0.0
 49
0.0208333333333333
 49
0.0
 49
0.0
 49
0.0
 49
0.0
 49
1.0
 49
0.0
 49
0.0
 49
0.0
 49
0.0
 49
1.0
175
     0
142
0.0208333333333333
142
0.0
142
0.0
142
0.0
142
0.0
142
0.0208333333333333
142
0.0
142
0.0
142
0.0
142
0.0
142
1.0
142
0.0
142
0.0
142
0.0
142
0.0
142
1.0
179
     0
144
0.0208333333333333
144
0.0
144
0.0
144
0.0
144
0.0
144
0.0208333333333333
144
0.0
144
0.0
144
0.0
144
0.0
144
1.0
144
0.0
144
0.0
144
0.0
144
0.0
144
1.0
147
0.0208333333333333
147
0.0
147
0.0
147
0.0
147
0.0
147
0.0208333333333333
147
0.0
147
0.0
147
0.0
147
0.0
147
1.0
147
0.0
147
0.0
147
0.0
147
0.0
147
1.0
  0
MLEADERSTYLE
  5
67
102
{ACAD_XDICTIONARY
360
24F
102
}
102
{ACAD_REACTORS
330
66
102
}
330
66
100
AcDbMLeaderStyle
170
     2
171
     1
172
     0
 90
        2
 40
0.0
 41
0.0
173
     1
 91
-1056964608
340
5B
 92
       -2
290
     1
 42
0.09
291
     1
 43
0.36
  3
Standard
 44
0.18
300

342
55
174
     1
178
     6
175
     1
176
     0
 93
-1056964608
 45
0.18
292
     0
297
     0
 46
0.18
 94
-1056964608
 47
1.0
 49
1.0
140
1.0
293
     1
141
0.0
294
     1
177
     0
142
1.0
295
     0
296
     0
143
0.125
1001
ACAD_MLEADERVER
1070
     2
  0
MLINESTYLE
  5
60
102
{ACAD_REACTORS
330
5F
102
}
330
5F
100
AcDbMlineStyle
  2
STANDARD
 70
     0
  3

 62
   256
 51
90.0
 52
90.0
 71
     2
 49
0.5
 62
   256
  6
BYLAYER
 49
-0.5
 62
   256
  6
BYLAYER
  0
ACDBPLACEHOLDER
  5
F
102
{ACAD_REACTORS
330
E
102
}
330
E
  0
SCALE
  5
43
102
{ACAD_REACTORS
330
42
102
}
330
42
100
AcDbScale
 70
     0
300
1:1
140
1.0
141
1.0
290
     1
  0
SCALE
  5
44
102
{ACAD_REACTORS
330
42
102
}
330
42
100
AcDbScale
 70
     0
300
1/128" = 1'-0"
140
0.0078125
141
12.0
290
     0
  0
SCALE
  5
45
102
{ACAD_REACTORS
330
42
102
}
330
42
100
AcDbScale
 70
     0
300
1/64" = 1'-0"
140
0.015625
141
12.0
290
     0
  0
SCALE
  5
46
102
{ACAD_REACTORS
330
42
102
}
330
42
100
AcDbScale
 70
     0
300
1/32" = 1'-0"
140
0.03125
141
12.0
290
     0
  0
SCALE
  5
47
102
{ACAD_REACTORS
330
42
102
}
330
42
100
AcDbScale
 70
     0
300
1/16" = 1'-0"
140
0.0625
141
12.0
290
     0
  0
SCALE
  5
48
102
{ACAD_REACTORS
330
42
102
}
330
42
100
AcDbScale
 70
     0
300
3/32" = 1'-0"
140
0.09375
141
12.0
290
     0
  0
SCALE
  5
49
102
{ACAD_REACTORS
330
42
102
}
330
42
100
AcDbScale
 70
     0
300
1/8" = 1'-0"
140
0.125
141
12.0
290
     0
  0
SCALE
  5
4A
102
{ACAD_REACTORS
330
42
102
}
330
42
100
AcDbScale
 70
     0
300
3/16" = 1'-0"
140
0.1875
141
12.0
290
     0
  0
SCALE
  5
4B
102
{ACAD_REACTORS
330
42
102
}
330
42
100
AcDbScale
 70
     0
300
1/4" = 1'-0"
140
0.25
141
12.0
290
     0
  0
SCALE
  5
4C
102
{ACAD_REACTORS
330
42
102
}
330
42
100
AcDbScale
 70
     0
300
3/8" = 1'-0"
140
0.375
141
12.0
290
     0
  0
SCALE
  5
4D
102
{ACAD_REACTORS
330
42
102
}
330
42
100
AcDbScale
 70
     0
300
1/2" = 1'-0"
140
0.5
141
12.0
290
     0
  0
SCALE
  5
4E
102
{ACAD_REACTORS
330
42
102
}
330
42
100
AcDbScale
 70
     0
300
3/4" = 1'-0"
140
0.75
141
12.0
290
     0
  0
SCALE
  5
4F
102
{ACAD_REACTORS
330
42
102
}
330
42
100
AcDbScale
 70
     0
300
1" = 1'-0"
140
1.0
141
12.0
290
     0
  0
SCALE
  5
50
102
{ACAD_REACTORS
330
42
102
}
330
42
100
AcDbScale
 70
     0
300
1-1/2" = 1'-0"
140
1.5
141
12.0
290
     0
  0
SCALE
  5
51
102
{ACAD_REACTORS
330
42
102
}
330
42
100
AcDbScale
 70
     0
300
3" = 1'-0"
140
3.0
141
12.0
290
     0
  0
SCALE
  5
52
102
{ACAD_REACTORS
330
42
102
}
330
42
100
AcDbScale
 70
     0
300
6" = 1'-0"
140
6.0
141
12.0
290
     0
  0
SCALE
  5
53
102
{ACAD_REACTORS
330
42
102
}
330
42
100
AcDbScale
 70
     0
300
1'-0" = 1'-0"
140
12.0
141
12.0
290
     0
  0
ACDBSECTIONVIEWSTYLE
  5
69
102
{ACAD_XDICTIONARY
360
251
102
}
102
{ACAD_REACTORS
330
68
102
}
330
68
100
AcDbModelDocViewStyle
 70
     0
  3
Imperial24
290
     0
100
AcDbSectionViewStyle
 70
     0
 71
     0
 90
       78
 71
     1
340
55
 62
   256
 40
0.24
340
0
340
0
 62
   256
 40
0.24
300
I, O, Q, S, X, Z
 40
0.48
 90
        3
 40
0.18
 90
        1
 71
     2
340
5D
 90
       25
 62
   256
340
5D
 90
       50
 62
   256
 40
0.24
 40
0.0
 40
0.24
 71
     3
340
55
 62
   256
 40
0.24
 90
        1
 40
0.75
 90
        1
300
%<\AcVar ViewType \f "%tc1">% %<\AcVar ViewSectionStartId>%-%<\AcVar ViewSectionEndId>%\PSCALE %<\AcVar ViewScale \f "%sn">%
 71
     4
 62
   256
 62
   257
300
ANSI31
 40
1.0
 90
        0
290
     0
290
     0
 90
        6
 40
0.0
 40
1.570796326794896
 40
0.2617993877991494
 40
1.308996938995747
 40
-0.2617993877991494
 40
1.832595714594046
  0
TABLESTYLE
  5
65
102
{ACAD_XDICTIONARY
360
21B
102
}
102
{ACAD_REACTORS
330
64
102
}
330
64
100
AcDbTableStyle
  3
Standard
 70
     0
 71
     0
 40
0.06
 41
0.06
280
     0
281
     0
  7
Standard
140
0.18
170
     2
 62
     0
 63
     7
283
     0
 90
      512
 91
        0
  1

274
    -2
284
     1
 64
     0
275
    -2
285
     1
 65
     0
276
    -2
286
     1
 66
     0
277
    -2
287
     1
 67
     0
278
    -2
288
     1
 68
     0
279
    -2
289
     1
 69
     0
  7
Standard
140
0.25
170
     5
 62
     0
 63
     7
283
     0
 90
      512
 91
        0
  1

274
    -2
284
     1
 64
     0
275
    -2
285
     1
 65
     0
276
    -2
286
     1
 66
     0
277
    -2
287
     1
 67
     0
278
    -2
288
     1
 68
     0
279
    -2
289
     1
 69
     0
  7
Standard
140
0.18
170
     5
 62
     0
 63
     7
283
     0
 90
      512
 91
        0
  1

274
    -2
284
     1
 64
     0
275
    -2
285
     1
 65
     0
276
    -2
286
     1
 66
     0
277
    -2
287
     1
 67
     0
278
    -2
288
     1
 68
     0
279
    -2
289
     1
 69
     0
  0
VISUALSTYLE
  5
2F
102
{ACAD_XDICTIONARY
360
228
102
}
102
{ACAD_REACTORS
330
29
102
}
330
29
100
AcDbVisualStyle
  2
2dWireframe
 70
     4
 71
     0
 72
     2
 73
     0
 90
        0
 40
-0.6
 41
-30.0
 62
     5
 63
     7
421
 16777215
 74
     1
 91
        4
 64
     7
 65
   257
 75
     1
175
     1
 42
1.0
 92
        0
 66
   257
 43
1.0
 76
     1
 77
     6
 78
     2
 67
     7
 79
     5
170
     0
171
     0
290
     0
174
     0
 93
        1
 44
0.0
173
     0
291
     0
 45
0.0
1001
ACAD
1000
AcDbSavedByObjectVersion
1070
     0
  0
VISUALSTYLE
  5
2E
102
{ACAD_XDICTIONARY
360
226
102
}
102
{ACAD_REACTORS
330
29
102
}
330
29
100
AcDbVisualStyle
  2
Basic
 70
     7
 71
     1
 72
     0
 73
     1
 90
        0
 40
-0.6
 41
-30.0
 62
     5
 63
     7
421
 16777215
 74
     0
 91
        4
 64
     7
 65
   257
 75
     1
175
     1
 42
1.0
 92
        8
 66
     7
 43
1.0
 76
     1
 77
     6
 78
     2
 67
     7
 79
     5
170
     0
171
     0
290
     0
174
     0
 93
        1
 44
0.0
173
     0
291
     1
 45
0.0
1001
ACAD
1000
AcDbSavedByObjectVersion
1070
     0
  0
VISUALSTYLE
  5
35
102
{ACAD_XDICTIONARY
360
234
102
}
102
{ACAD_REACTORS
330
29
102
}
330
29
100
AcDbVisualStyle
  2
Brighten
 70
    12
 71
     2
 72
     2
 73
     0
 90
        0
 40
-0.6
 41
-30.0
 62
     5
 63
     7
421
 16777215
 74
     1
 91
        4
 64
     7
 65
   257
 75
     1
175
     1
 42
1.0
 92
        8
 66
     7
 43
1.0
 76
     1
 77
     6
 78
     2
 67
     7
 79
     5
170
     0
171
     0
290
     0
174
     0
 93
        1
 44
50.0
173
     0
291
     1
 45
0.0
1001
ACAD
1000
AcDbSavedByObjectVersion
1070
     0
  0
VISUALSTYLE
  5
39
102
{ACAD_XDICTIONARY
360
23C
102
}
102
{ACAD_REACTORS
330
29
102
}
330
29
100
AcDbVisualStyle
  2
ColorChange
 70
    16
 71
     2
 72
     2
 73
     3
 90
        0
 40
-0.6
 41
-30.0
 62
     5
 63
     8
421
  8421504
 74
     1
 91
        4
 64
     7
 65
   257
 75
     1
175
     1
 42
1.0
 92
        8
 66
     8
424
  8421504
 43
1.0
 76
     1
 77
     6
 78
     2
 67
     7
 79
     5
170
     0
171
     0
290
     0
174
     0
 93
        1
 44
0.0
173
     0
291
     1
 45
0.0
1001
ACAD
1000
AcDbSavedByObjectVersion
1070
     0
  0
VISUALSTYLE
  5
32
102
{ACAD_XDICTIONARY
360
22E
102
}
102
{ACAD_REACTORS
330
29
102
}
330
29
100
AcDbVisualStyle
  2
Conceptual
 70
     9
 71
     3
 72
     2
 73
     0
 90
        0
 40
-0.6
 41
-30.0
 62
     5
 63
     7
421
 16777215
 74
     2
 91
        2
 64
     7
 65
   257
 75
     1
175
     1
 42
179.0
 92
        8
 66
     7
 43
1.0
 76
     1
 77
     6
 78
     2
 67
     7
 79
     3
170
     0
171
     0
290
     0
174
     0
 93
        1
 44
0.0
173
     0
291
     0
 45
0.0
1001
ACAD
1000
AcDbSavedByObjectVersion
1070
     0
  0
VISUALSTYLE
  5
34
102
{ACAD_XDICTIONARY
360
232
102
}
102
{ACAD_REACTORS
330
29
102
}
330
29
100
AcDbVisualStyle
  2
Dim
 70
    11
 71
     2
 72
     2
 73
     0
 90
        0
 40
-0.6
 41
-30.0
 62
     5
 63
     7
421
 16777215
 74
     1
 91
        4
 64
     7
 65
   257
 75
     1
175
     1
 42
1.0
 92
        8
 66
     7
 43
1.0
 76
     1
 77
     6
 78
     2
 67
     7
 79
     5
170
     0
171
     0
290
     0
174
     0
 93
        1
 44
-50.0
173
     0
291
     1
 45
0.0
1001
ACAD
1000
AcDbSavedByObjectVersion
1070
     0
  0
VISUALSTYLE
  5
41
102
{ACAD_XDICTIONARY
360
24C
102
}
102
{ACAD_REACTORS
330
29
102
}
330
29
100
AcDbVisualStyle
  2
EdgeColorOff
 70
    22
 71
     2
 72
     2
 73
     0
 90
        0
 40
-0.6
 41
-30.0
 62
     5
 63
     7
421
 16777215
 74
     1
 91
        4
 64
     7
 65
   257
 75
     1
175
     1
 42
1.0
 92
        8
 66
     7
 43
1.0
 76
     1
 77
     6
 78
     2
 67
     7
 79
     5
170
     0
171
     0
290
     0
174
     0
 93
        1
 44
0.0
173
     0
291
     1
 45
0.0
1001
ACAD
1000
AcDbSavedByObjectVersion
1070
     0
  0
VISUALSTYLE
  5
38
102
{ACAD_XDICTIONARY
360
23A
102
}
102
{ACAD_REACTORS
330
29
102
}
330
29
100
AcDbVisualStyle
  2
Facepattern
 70
    15
 71
     2
 72
     2
 73
     0
 90
        0
 40
-0.6
 41
-30.0
 62
     5
 63
     7
421
 16777215
 74
     1
 91
        4
 64
     7
 65
   257
 75
     1
175
     1
 42
1.0
 92
        8
 66
     7
 43
1.0
 76
     1
 77
     6
 78
     2
 67
     7
 79
     5
170
     0
171
     0
290
     0
174
     0
 93
        1
 44
0.0
173
     0
291
     1
 45
0.0
1001
ACAD
1000
AcDbSavedByObjectVersion
1070
     0
  0
VISUALSTYLE
  5
2A
102
{ACAD_XDICTIONARY
360
21E
102
}
102
{ACAD_REACTORS
330
29
102
}
330
29
100
AcDbVisualStyle
  2
Flat
 70
     0
 71
     2
 72
     1
 73
     1
 90
        2
 40
-0.6
 41
30.0
 62
     5
 63
     7
421
 16777215
 74
     0
 91
        0
 64
     7
 65
   257
 75
     1
175
     1
 42
1.0
 92
        8
 66
     7
 43
1.0
 76
     1
 77
     6
 78
     2
 67
     7
 79
     5
170
     0
171
     0
290
     0
174
     0
 93
       13
 44
0.0
173
     0
291
     1
 45
0.0
1001
ACAD
1000
AcDbSavedByObjectVersion
1070
     0
  0
VISUALSTYLE
  5
2B
102
{ACAD_XDICTIONARY
360
220
102
}
102
{ACAD_REACTORS
330
29
102
}
330
29
100
AcDbVisualStyle
  2
FlatWithEdges
 70
     1
 71
     2
 72
     1
 73
     1
 90
        2
 40
-0.6
 41
30.0
 62
     5
 63
     7
421
 16777215
 74
     1
 91
        0
 64
     7
 65
   257
 75
     1
175
     1
 42
1.0
 92
        0
 66
   257
 43
1.0
 76
     1
 77
     6
 78
     2
 67
     7
 79
     5
170
     0
171
     0
290
     0
174
     0
 93
       13
 44
0.0
173
     0
291
     1
 45
0.0
1001
ACAD
1000
AcDbSavedByObjectVersion
1070
     0
  0
VISUALSTYLE
  5
2C
102
{ACAD_XDICTIONARY
360
222
102
}
102
{ACAD_REACTORS
330
29
102
}
330
29
100
AcDbVisualStyle
  2
Gouraud
 70
     2
 71
     2
 72
     2
 73
     1
 90
        2
 40
-0.6
 41
30.0
 62
     5
 63
     7
421
 16777215
 74
     0
 91
        0
 64
     7
 65
   257
 75
     1
175
     1
 42
1.0
 92
        0
 66
     7
 43
1.0
 76
     1
 77
     6
 78
     2
 67
     7
 79
     5
170
     0
171
     0
290
     0
174
     0
 93
       13
 44
0.0
173
     0
291
     1
 45
0.0
1001
ACAD
1000
AcDbSavedByObjectVersion
1070
     0
  0
VISUALSTYLE
  5
2D
102
{ACAD_XDICTIONARY
360
224
102
}
102
{ACAD_REACTORS
330
29
102
}
330
29
100
AcDbVisualStyle
  2
GouraudWithEdges
 70
     3
 71
     2
 72
     2
 73
     1
 90
        2
 40
-0.6
 41
30.0
 62
     5
 63
     7
421
 16777215
 74
     1
 91
        0
 64
     7
 65
   257
 75
     1
175
     1
 42
1.0
 92
        0
 66
   257
 43
1.0
 76
     1
 77
     6
 78
     2
 67
     7
 79
     5
170
     0
171
     0
290
     0
174
     0
 93
       13
 44
0.0
173
     0
291
     1
 45
0.0
1001
ACAD
1000
AcDbSavedByObjectVersion
1070
     0
  0
VISUALSTYLE
  5
31
102
{ACAD_XDICTIONARY
360
22C
102
}
102
{ACAD_REACTORS
330
29
102
}
330
29
100
AcDbVisualStyle
  2
Hidden
 70
     6
 71
     1
 72
     2
 73
     2
 90
        0
 40
-0.6
 41
-30.0
 62
     5
 63
     7
421
 16777215
 74
     2
 91
        2
 64
     7
 65
   257
 75
     2
175
     1
 42
40.0
 92
        0
 66
   257
 43
1.0
 76
     1
 77
     6
 78
     2
 67
     7
 79
     3
170
     0
171
     0
290
     0
174
     0
 93
        1
 44
0.0
173
     0
291
     0
 45
0.0
1001
ACAD
1000
AcDbSavedByObjectVersion
1070
     0
  0
VISUALSTYLE
  5
3F
102
{ACAD_XDICTIONARY
360
248
102
}
102
{ACAD_REACTORS
330
29
102
}
330
29
100
AcDbVisualStyle
  2
JitterOff
 70
    20
 71
     2
 72
     2
 73
     0
 90
        0
 40
-0.6
 41
-30.0
 62
     5
 63
     7
421
 16777215
 74
     1
 91
        4
 64
     7
 65
   257
 75
     1
175
     1
 42
1.0
 92
       10
 66
     7
 43
1.0
 76
     1
 77
     6
 78
     2
 67
     7
 79
     5
170
     0
171
     0
290
     0
174
     0
 93
        1
 44
0.0
173
     0
291
     1
 45
0.0
1001
ACAD
1000
AcDbSavedByObjectVersion
1070
     0
  0
VISUALSTYLE
  5
37
102
{ACAD_XDICTIONARY
360
238
102
}
102
{ACAD_REACTORS
330
29
102
}
330
29
100
AcDbVisualStyle
  2
Linepattern
 70
    14
 71
     2
 72
     2
 73
     0
 90
        0
 40
-0.6
 41
-30.0
 62
     5
 63
     7
421
 16777215
 74
     1
 91
        4
 64
     7
 65
   257
 75
     7
175
     7
 42
1.0
 92
        8
 66
     7
 43
1.0
 76
     1
 77
     6
 78
     2
 67
     7
 79
     5
170
     0
171
     0
290
     0
174
     0
 93
        1
 44
0.0
173
     0
291
     1
 45
0.0
1001
ACAD
1000
AcDbSavedByObjectVersion
1070
     0
  0
VISUALSTYLE
  5
40
102
{ACAD_XDICTIONARY
360
24A
102
}
102
{ACAD_REACTORS
330
29
102
}
330
29
100
AcDbVisualStyle
  2
OverhangOff
 70
    21
 71
     2
 72
     2
 73
     0
 90
        0
 40
-0.6
 41
-30.0
 62
     5
 63
     7
421
 16777215
 74
     1
 91
        4
 64
     7
 65
   257
 75
     1
175
     1
 42
1.0
 92
        9
 66
     7
 43
1.0
 76
     1
 77
     6
 78
     2
 67
     7
 79
     5
170
     0
171
     0
290
     0
174
     0
 93
        1
 44
0.0
173
     0
291
     1
 45
0.0
1001
ACAD
1000
AcDbSavedByObjectVersion
1070
     0
  0
VISUALSTYLE
  5
33
102
{ACAD_XDICTIONARY
360
230
102
}
102
{ACAD_REACTORS
330
29
102
}
330
29
100
AcDbVisualStyle
  2
Realistic
 70
     8
 71
     2
 72
     3
 73
     0
 90
        2
 40
-0.6
 41
30.0
 62
     5
 63
     7
421
 16777215
 74
     0
 91
        0
 64
     7
 65
   257
 75
     1
175
     1
 42
1.0
 92
        8
 66
   257
 43
1.0
 76
     1
 77
     6
 78
     2
 67
     7
 79
     3
170
     0
171
     0
290
     0
174
     0
 93
       13
 44
0.0
173
     0
291
     0
 45
0.0
1001
ACAD
1000
AcDbSavedByObjectVersion
1070
     0
  0
VISUALSTYLE
  5
3E
102
{ACAD_XDICTIONARY
360
246
102
}
102
{ACAD_REACTORS
330
29
102
}
330
29
100
AcDbVisualStyle
  2
Shaded
 70
    27
 71
     2
 72
     2
 73
     1
 90
        2
 40
-0.6
 41
30.0
 62
     5
 63
     7
421
 16777215
 74
     0
 91
        4
 64
     7
 65
   257
 75
     1
175
     1
 42
1.0
 92
        8
 66
   257
 43
1.0
 76
     1
 77
     6
 78
     2
 67
     8
425
  7895160
 79
     3
170
     0
171
     0
290
     0
174
     0
 93
        5
 44
0.0
173
     0
291
     0
 45
0.0
1001
ACAD
1000
AcDbSavedByObjectVersion
1070
     0
  0
VISUALSTYLE
  5
3D
102
{ACAD_XDICTIONARY
360
244
102
}
102
{ACAD_REACTORS
330
29
102
}
330
29
100
AcDbVisualStyle
  2
Shaded with edges
 70
    26
 71
     2
 72
     2
 73
     1
 90
        2
 40
-0.6
 41
30.0
 62
     5
 63
     7
421
 16777215
 74
     1
 91
        2
 64
     7
 65
   257
 75
     2
175
     1
 42
1.0
 92
        8
 66
   257
 43
1.0
 76
     1
 77
     6
 78
     2
 67
     7
 79
     3
170
     0
171
     0
290
     0
174
     0
 93
        5
 44
0.0
173
     0
291
     0
 45
0.0
1001
ACAD
1000
AcDbSavedByObjectVersion
1070
     0
  0
VISUALSTYLE
  5
3A
102
{ACAD_XDICTIONARY
360
23E
102
}
102
{ACAD_REACTORS
330
29
102
}
330
29
100
AcDbVisualStyle
  2
Shades of Gray
 70
    23
 71
     2
 72
     2
 73
     3
 90
        0
 40
-0.6
 41
-30.0
 62
     5
 63
     7
421
 16777215
 74
     2
 91
        2
 64
     7
 65
     7
 75
     1
175
     1
 42
40.0
 92
        8
 66
     7
 43
1.0
 76
     1
 77
     6
 78
     2
 67
     7
 79
     3
170
     0
171
     0
290
     0
174
     0
 93
        1
 44
0.0
173
     0
291
     0
 45
0.0
1001
ACAD
1000
AcDbSavedByObjectVersion
1070
     0
  0
VISUALSTYLE
  5
3B
102
{ACAD_XDICTIONARY
360
240
102
}
102
{ACAD_REACTORS
330
29
102
}
330
29
100
AcDbVisualStyle
  2
Sketchy
 70
    24
 71
     1
 72
     2
 73
     2
 90
        0
 40
-0.6
 41
-30.0
 62
     5
 63
     7
421
 16777215
 74
     2
 91
        2
 64
     7
 65
     7
 75
     1
175
     1
 42
40.0
 92
       11
 66
     7
 43
1.0
 76
     1
 77
     6
 78
     2
 67
     7
 79
     6
170
     0
171
     0
290
     0
174
     0
 93
        1
 44
0.0
173
     0
291
     0
 45
0.0
1001
ACAD
1000
AcDbSavedByObjectVersion
1070
     0
  0
VISUALSTYLE
  5
36
102
{ACAD_XDICTIONARY
360
236
102
}
102
{ACAD_REACTORS
330
29
102
}
330
29
100
AcDbVisualStyle
  2
Thicken
 70
    13
 71
     2
 72
     2
 73
     0
 90
        0
 40
-0.6
 41
-30.0
 62
     5
 63
     7
421
 16777215
 74
     1
 91
        4
 64
     7
 65
   257
 75
     1
175
     1
 42
1.0
 92
       12
 66
     7
 43
1.0
 76
     1
 77
     6
 78
     2
 67
     7
 79
     5
170
     0
171
     0
290
     0
174
     0
 93
        1
 44
0.0
173
     0
291
     1
 45
0.0
1001
ACAD
1000
AcDbSavedByObjectVersion
1070
     0
  0
VISUALSTYLE
  5
30
102
{ACAD_XDICTIONARY
360
22A
102
}
102
{ACAD_REACTORS
330
29
102
}
330
29
100
AcDbVisualStyle
  2
Wireframe
 70
     5
 71
     0
 72
     2
 73
     0
 90
        0
 40
-0.6
 41
-30.0
 62
     5
 63
     7
421
 16777215
 74
     1
 91
        4
 64
     7
 65
   257
 75
     1
175
     1
 42
1.0
 92
        0
 66
   257
 43
1.0
 76
     1
 77
     6
 78
     2
 67
     7
 79
     3
170
     0
171
     0
290
     0
174
     0
 93
        1
 44
0.0
173
     0
291
     0
 45
0.0
1001
ACAD
1000
AcDbSavedByObjectVersion
1070
     0
  0
VISUALSTYLE
  5
3C
102
{ACAD_XDICTIONARY
360
242
102
}
102
{ACAD_REACTORS
330
29
102
}
330
29
100
AcDbVisualStyle
  2
X-Ray
 70
    25
 71
     2
 72
     2
 73
     1
 90
        1
 40
0.5
 41
-30.0
 62
     5
 63
     7
421
 16777215
 74
     1
 91
        0
 64
     7
 65
   257
 75
     1
175
     1
 42
1.0
 92
        8
 66
     7
 43
1.0
 76
     1
 77
     6
 78
     2
 67
     7
 79
     3
170
     0
171
     0
290
     0
174
     0
 93
       13
 44
0.0
173
     0
291
     0
 45
0.0
1001
ACAD
1000
AcDbSavedByObjectVersion
1070
     0
  0
DICTIONARYVAR
  5
219
102
{ACAD_REACTORS
330
214
102
}
330
214
100
DictionaryVariables
280
     0
  1
1:1
  0
DICTIONARYVAR
  5
216
102
{ACAD_REACTORS
330
214
102
}
330
214
100
DictionaryVariables
280
     0
  1
STANDARD
  0
DICTIONARYVAR
  5
215
102
{ACAD_REACTORS
330
214
102
}
330
214
100
DictionaryVariables
280
     0
  1
STANDARD
  0
DICTIONARYVAR
  5
217
102
{ACAD_REACTORS
330
214
102
}
330
214
100
DictionaryVariables
280
     0
  1
Imperial24
  0
DICTIONARYVAR
  5
218
102
{ACAD_REACTORS
330
214
102
}
330
214
100
DictionaryVariables
280
     0
  1
Imperial24
  0
DICTIONARYVAR
  5
21A
102
{ACAD_REACTORS
330
214
102
}
330
214
100
DictionaryVariables
280
     0
  1
2
  0
DICTIONARY
  5
253
330
6B
100
AcDbDictionary
280
     1
281
     1
  3
ACAD_XREC_ROUNDTRIP
360
254
  0
DICTIONARY
  5
1A
330
19
100
AcDbDictionary
280
     1
281
     1
  3
BUMPTILE
360
1C
  3
DIFFUSETILE
360
1B
  3
OPACITYTILE
360
1F
  3
REFLECTIONTILE
360
1E
  3
REFRACTIONTILE
360
20
  3
SPECULARTILE
360
1D
  0
DICTIONARY
  5
12
330
11
100
AcDbDictionary
280
     1
281
     1
  3
BUMPTILE
360
14
  3
DIFFUSETILE
360
13
  3
OPACITYTILE
360
17
  3
REFLECTIONTILE
360
16
  3
REFRACTIONTILE
360
18
  3
SPECULARTILE
360
15
  0
DICTIONARY
  5
22
330
21
100
AcDbDictionary
280
     1
281
     1
  3
BUMPTILE
360
24
  3
DIFFUSETILE
360
23
  3
OPACITYTILE
360
27
  3
REFLECTIONTILE
360
26
  3
REFRACTIONTILE
360
28
  3
SPECULARTILE
360
25
  0
DICTIONARY
  5
24F
330
67
100
AcDbDictionary
280
     1
281
     1
  3
ACAD_XREC_ROUNDTRIP
360
250
  0
DICTIONARY
  5
251
330
69
100
AcDbDictionary
280
     1
281
     1
  3
ACAD_XREC_ROUNDTRIP
360
252
  0
DICTIONARY
  5
21B
330
65
100
AcDbDictionary
280
     1
281
     1
  3
ACAD_ROUNDTRIP_2008_TABLESTYLE_CELLSTYLEMAP
360
21C
  0
DICTIONARY
  5
228
330
2F
100
AcDbDictionary
280
     1
281
     1
  3
ACAD_XREC_ROUNDTRIP
360
229
  0
DICTIONARY
  5
226
330
2E
100
AcDbDictionary
280
     1
281
     1
  3
ACAD_XREC_ROUNDTRIP
360
227
  0
DICTIONARY
  5
234
330
35
100
AcDbDictionary
280
     1
281
     1
  3
ACAD_XREC_ROUNDTRIP
360
235
  0
DICTIONARY
  5
23C
330
39
100
AcDbDictionary
280
     1
281
     1
  3
ACAD_XREC_ROUNDTRIP
360
23D
  0
DICTIONARY
  5
22E
330
32
100
AcDbDictionary
280
     1
281
     1
  3
ACAD_XREC_ROUNDTRIP
360
22F
  0
DICTIONARY
  5
232
330
34
100
AcDbDictionary
280
     1
281
     1
  3
ACAD_XREC_ROUNDTRIP
360
233
  0
DICTIONARY
  5
24C
330
41
100
AcDbDictionary
280
     1
281
     1
  3
ACAD_XREC_ROUNDTRIP
360
24D
  0
DICTIONARY
  5
23A
330
38
100
AcDbDictionary
280
     1
281
     1
  3
ACAD_XREC_ROUNDTRIP
360
23B
  0
DICTIONARY
  5
21E
330
2A
100
AcDbDictionary
280
     1
281
     1
  3
ACAD_XREC_ROUNDTRIP
360
21F
  0
DICTIONARY
  5
220
330
2B
100
AcDbDictionary
280
     1
281
     1
  3
ACAD_XREC_ROUNDTRIP
360
221
  0
DICTIONARY
  5
222
330
2C
100
AcDbDictionary
280
     1
281
     1
  3
ACAD_XREC_ROUNDTRIP
360
223
  0
DICTIONARY
  5
224
330
2D
100
AcDbDictionary
280
     1
281
     1
  3
ACAD_XREC_ROUNDTRIP
360
225
  0
DICTIONARY
  5
22C
330
31
100
AcDbDictionary
280
     1
281
     1
  3
ACAD_XREC_ROUNDTRIP
360
22D
  0
DICTIONARY
  5
248
330
3F
100
AcDbDictionary
280
     1
281
     1
  3
ACAD_XREC_ROUNDTRIP
360
249
  0
DICTIONARY
  5
238
330
37
100
AcDbDictionary
280
     1
281
     1
  3
ACAD_XREC_ROUNDTRIP
360
239
  0
DICTIONARY
  5
24A
330
40
100
AcDbDictionary
280
     1
281
     1
  3
ACAD_XREC_ROUNDTRIP
360
24B
  0
DICTIONARY
  5
230
330
33
100
AcDbDictionary
280
     1
281
     1
  3
ACAD_XREC_ROUNDTRIP
360
231
  0
DICTIONARY
  5
246
330
3E
100
AcDbDictionary
280
     1
281
     1
  3
ACAD_XREC_ROUNDTRIP
360
247
  0
DICTIONARY
  5
244
330
3D
100
AcDbDictionary
280
     1
281
     1
  3
ACAD_XREC_ROUNDTRIP
360
245
  0
DICTIONARY
  5
23E
330
3A
100
AcDbDictionary
280
     1
281
     1
  3
ACAD_XREC_ROUNDTRIP
360
23F
  0
DICTIONARY
  5
240
330
3B
100
AcDbDictionary
280
     1
281
     1
  3
ACAD_XREC_ROUNDTRIP
360
241
  0
DICTIONARY
  5
236
330
36
100
AcDbDictionary
280
     1
281
     1
  3
ACAD_XREC_ROUNDTRIP
360
237
  0
DICTIONARY
  5
22A
330
30
100
AcDbDictionary
280
     1
281
     1
  3
ACAD_XREC_ROUNDTRIP
360
22B
  0
DICTIONARY
  5
242
330
3C
100
AcDbDictionary
280
     1
281
     1
  3
ACAD_XREC_ROUNDTRIP
360
243
  0
XRECORD
  5
254
102
{ACAD_REACTORS
330
253
102
}
330
253
100
AcDbXrecord
280
     1
102
DISPLAYNAME
  1
Imperial24
102
FLAGS
 90
        0
  0
XRECORD
  5
1C
102
{ACAD_REACTORS
330
1A
102
}
330
1A
100
AcDbXrecord
280
     1
270
     1
271
     1
  0
XRECORD
  5
1B
102
{ACAD_REACTORS
330
1A
102
}
330
1A
100
AcDbXrecord
280
     1
270
     1
271
     1
  0
XRECORD
  5
1F
102
{ACAD_REACTORS
330
1A
102
}
330
1A
100
AcDbXrecord
280
     1
270
     1
271
     1
  0
XRECORD
  5
1E
102
{ACAD_REACTORS
330
1A
102
}
330
1A
100
AcDbXrecord
280
     1
270
     1
271
     1
  0
XRECORD
  5
20
102
{ACAD_REACTORS
330
1A
102
}
330
1A
100
AcDbXrecord
280
     1
270
     1
271
     1
  0
XRECORD
  5
1D
102
{ACAD_REACTORS
330
1A
102
}
330
1A
100
AcDbXrecord
280
     1
270
     1
271
     1
  0
XRECORD
  5
14
102
{ACAD_REACTORS
330
12
102
}
330
12
100
AcDbXrecord
280
     1
270
     1
271
     1
  0
XRECORD
  5
13
102
{ACAD_REACTORS
330
12
102
}
330
12
100
AcDbXrecord
280
     1
270
     1
271
     1
  0
XRECORD
  5
17
102
{ACAD_REACTORS
330
12
102
}
330
12
100
AcDbXrecord
280
     1
270
     1
271
     1
  0
XRECORD
  5
16
102
{ACAD_REACTORS
330
12
102
}
330
12
100
AcDbXrecord
280
     1
270
     1
271
     1
  0
XRECORD
  5
18
102
{ACAD_REACTORS
330
12
102
}
330
12
100
AcDbXrecord
280
     1
270
     1
271
     1
  0
XRECORD
  5
15
102
{ACAD_REACTORS
330
12
102
}
330
12
100
AcDbXrecord
280
     1
270
     1
271
     1
  0
XRECORD
  5
24
102
{ACAD_REACTORS
330
22
102
}
330
22
100
AcDbXrecord
280
     1
270
     1
271
     1
  0
XRECORD
  5
23
102
{ACAD_REACTORS
330
22
102
}
330
22
100
AcDbXrecord
280
     1
270
     1
271
     1
  0
XRECORD
  5
27
102
{ACAD_REACTORS
330
22
102
}
330
22
100
AcDbXrecord
280
     1
270
     1
271
     1
  0
XRECORD
  5
26
102
{ACAD_REACTORS
330
22
102
}
330
22
100
AcDbXrecord
280
     1
270
     1
271
     1
  0
XRECORD
  5
28
102
{ACAD_REACTORS
330
22
102
}
330
22
100
AcDbXrecord
280
     1
270
     1
271
     1
  0
XRECORD
  5
25
102
{ACAD_REACTORS
330
22
102
}
330
22
100
AcDbXrecord
280
     1
270
     1
271
     1
  0
XRECORD
  5
250
102
{ACAD_REACTORS
330
24F
102
}
330
24F
100
AcDbXrecord
280
     1
102
ACAD_ROUNDTRIP_2012_MLEADER_STYLE
298
     1
  0
XRECORD
  5
252
102
{ACAD_REACTORS
330
251
102
}
330
251
100
AcDbXrecord
280
     1
102
DISPLAYNAME
  1
Imperial24
102
FLAGS
 90
        0
  0
CELLSTYLEMAP
  5
21C
102
{ACAD_REACTORS
330
21B
102
}
330
21B
100
AcDbCellStyleMap
 90
        3
300
CELLSTYLE
  1
TABLEFORMAT_BEGIN
 90
        5
170
     1
 91
        0
 92
    32768
 62
   257
 93
        1
300
CONTENTFORMAT
  1
CONTENTFORMAT_BEGIN
 90
        0
 91
        0
 92
      512
 93
        0
300

 40
0.0
140
1.0
 94
        5
 62
     0
340
55
144
0.25
309
CONTENTFORMAT_END
171
     0
 94
        0
309
TABLEFORMAT_END
  1
CELLSTYLE_BEGIN
 90
        1
 91
        1
300
_TITLE
309
CELLSTYLE_END
300
CELLSTYLE
  1
TABLEFORMAT_BEGIN
 90
        5
170
     1
 91
        0
 92
        0
 62
   257
 93
        1
300
CONTENTFORMAT
  1
CONTENTFORMAT_BEGIN
 90
        0
 91
        0
 92
      512
 93
        0
300

 40
0.0
140
1.0
 94
        5
 62
     0
340
55
144
0.18
309
CONTENTFORMAT_END
171
     0
 94
        0
309
TABLEFORMAT_END
  1
CELLSTYLE_BEGIN
 90
        2
 91
        1
300
_HEADER
309
CELLSTYLE_END
300
CELLSTYLE
  1
TABLEFORMAT_BEGIN
 90
        5
170
     1
 91
        0
 92
        0
 62
   257
 93
        1
300
CONTENTFORMAT
  1
CONTENTFORMAT_BEGIN
 90
        0
 91
        0
 92
      512
 93
        0
300

 40
0.0
140
1.0
 94
        2
 62
     0
340
55
144
0.18
309
CONTENTFORMAT_END
171
     0
 94
        0
309
TABLEFORMAT_END
  1
CELLSTYLE_BEGIN
 90
        3
 91
        2
300
_DATA
309
CELLSTYLE_END
  0
XRECORD
  5
229
102
{ACAD_REACTORS
330
228
102
}
330
228
100
AcDbXrecord
280
     1
102
RTVSPost2010Prop28
280
     1
102
RTVSPost2010PropOp28
 70
     1
102
RTVSPost2010Prop29
280
     1
102
RTVSPost2010PropOp29
 70
     1
102
RTVSPost2010Prop30
280
     0
102
RTVSPost2010PropOp30
 70
     1
102
RTVSPost2010Prop31
280
     0
102
RTVSPost2010PropOp31
 70
     1
102
RTVSPost2010Prop32
280
     0
102
RTVSPost2010PropOp32
 70
     1
102
RTVSPost2010Prop33
280
     0
102
RTVSPost2010PropOp33
 70
     1
102
RTVSPost2010Prop34
280
     0
102
RTVSPost2010PropOp34
 70
     1
102
RTVSPost2010Prop35
280
     0
102
RTVSPost2010PropOp35
 70
     1
102
RTVSPost2010Prop36
280
     0
102
RTVSPost2010PropOp36
 70
     1
102
RTVSPost2010Prop37
 90
       50
102
RTVSPost2010PropOp37
 70
     1
102
RTVSPost2010Prop38
140
0.0
102
RTVSPost2010PropOp38
 70
     1
102
RTVSPost2010Prop39
140
1.0
102
RTVSPost2010PropOp39
 70
     1
102
RTVSPost2010Prop40
 90
        0
102
RTVSPost2010PropOp40
 70
     1
102
RTVSPost2010Prop41ColorIndex
 90
       18
102
RTVSPost2010Prop41ColorRGB
 90
        0
102
RTVSPost2010PropOp41
 70
     1
102
RTVSPost2010Prop42
 90
       50
102
RTVSPost2010PropOp42
 70
     1
102
RTVSPost2010Prop43
 90
        3
102
RTVSPost2010PropOp43
 70
     1
102
RTVSPost2010Prop44ColorIndex
 90
        5
102
RTVSPost2010Prop44ColorRGB
 90
      255
102
RTVSPost2010PropOp44
 70
     1
102
RTVSPost2010Prop45
280
     0
102
RTVSPost2010PropOp45
 70
     1
102
RTVSPost2010Prop46
 90
       50
102
RTVSPost2010PropOp46
 70
     1
102
RTVSPost2010Prop47
 90
       50
102
RTVSPost2010PropOp47
 70
     1
102
RTVSPost2010Prop48
 90
       50
102
RTVSPost2010PropOp48
 70
     1
102
RTVSPost2010Prop49
280
     0
102
RTVSPost2010PropOp49
 70
     1
102
RTVSPost2010Prop50
 90
       50
102
RTVSPost2010PropOp50
 70
     1
102
RTVSPost2010Prop51ColorIndex
 90
      256
102
RTVSPost2010Prop51ColorRGB
 90
-16777216
102
RTVSPost2010PropOp51
 70
     0
102
RTVSPost2010Prop52
140
1.0
102
RTVSPost2010PropOp52
 70
     0
102
RTVSPost2010Prop53
 90
        2
102
RTVSPost2010PropOp53
 70
     1
102
RTVSPost2010Prop54
  1
strokes_ogs.tif
102
RTVSPost2010PropOp54
 70
     1
102
RTVSPost2010Prop55
280
     0
102
RTVSPost2010PropOp55
 70
     1
102
RTVSPost2010Prop56
140
1.0
102
RTVSPost2010PropOp56
 70
     1
102
RTVSPost2010Prop57
140
1.0
102
RTVSPost2010PropOp57
 70
     1
102
RTVSPropertyOp0
 70
     1
102
RTVSPropertyOp1
 70
     1
102
RTVSPropertyOp2
 70
     1
102
RTVSPropertyOp3
 70
     1
102
RTVSPropertyOp4
 70
     1
102
RTVSPropertyOp5
 70
     1
102
RTVSPropertyOp6
 70
     1
102
RTVSPropertyOp7
 70
     1
102
RTVSPropertyOp8
 70
     1
102
RTVSPropertyOp9
 70
     1
102
RTVSPropertyOp10
 70
     1
102
RTVSPropertyOp11
 70
     1
102
RTVSPropertyOp12
 70
     1
102
RTVSPropertyOp13
 70
     1
102
RTVSPropertyOp14
 70
     1
102
RTVSPropertyOp15
 70
     1
102
RTVSPropertyOp16
 70
     1
102
RTVSPropertyOp17
 70
     1
102
RTVSPropertyOp18
 70
     1
102
RTVSPropertyOp19
 70
     1
102
RTVSPropertyOp20
 70
     1
102
RTVSPropertyOp21
 70
     1
102
RTVSPropertyOp22
 70
     1
102
RTVSPropertyOp23
 70
     1
102
RTVSPropertyOp24
 70
     1
102
RTVSPropertyOp25
 70
     1
102
RTVSPropertyOp26
 70
     1
102
RTVSPropertyOp27
 70
     1
102
RTVSPropertyOp28
 70
     1
102
RTVSPropertyOp29
 70
     1
102
RTVSPropertyOp30
 70
     1
102
RTVSPropertyOp31
 70
     1
102
RTVSPropertyOp32
 70
     1
102
RTVSPropertyOp33
 70
     1
102
RTVSPropertyOp34
 70
     1
102
RTVSPropertyOp35
 70
     1
102
RTVSPropertyOp36
 70
     1
102
RTVSPropertyOp37
 70
     1
102
RTVSPropertyOp38
 70
     1
102
RTVSPropertyOp39
 70
     1
102
RTVSPropertyOp40
 70
     1
102
RTVSPropertyOp41
 70
     1
102
RTVSPropertyOp42
 70
     1
102
RTVSPropertyOp43
 70
     1
102
RTVSPropertyOp44
 70
     1
102
RTVSPropertyOp45
 70
     1
102
RTVSPropertyOp46
 70
     1
102
RTVSPropertyOp47
 70
     1
102
RTVSPropertyOp48
 70
     1
102
RTVSPropertyOp49
 70
     1
102
RTVSPropertyOp50
 70
     1
102
RTVSPropertyOp51
 70
     0
102
RTVSPropertyOp52
 70
     0
102
RTVSPropertyOp53
 70
     1
102
RTVSPropertyOp54
 70
     1
102
RTVSPropertyOp55
 70
     1
102
RTVSPropertyOp56
 70
     1
102
RTVSPropertyOp57
 70
     1
102
RTVSPropertyOp58
 70
     1
102
RTVSPropertyOp59
 70
     1
102
RTVSPropertyOp60
 70
     1
102
RTVSPropertyOp61
 70
     1
102
RTVSPropertyOp62
 70
     1
  0
XRECORD
  5
227
102
{ACAD_REACTORS
330
226
102
}
330
226
100
AcDbXrecord
280
     1
102
RTVSPost2010Prop28
280
     0
102
RTVSPost2010PropOp28
 70
     1
102
RTVSPost2010Prop29
280
     1
102
RTVSPost2010PropOp29
 70
     1
102
RTVSPost2010Prop30
280
     1
102
RTVSPost2010PropOp30
 70
     1
102
RTVSPost2010Prop31
280
     0
102
RTVSPost2010PropOp31
 70
     1
102
RTVSPost2010Prop32
280
     0
102
RTVSPost2010PropOp32
 70
     1
102
RTVSPost2010Prop33
280
     0
102
RTVSPost2010PropOp33
 70
     1
102
RTVSPost2010Prop34
280
     0
102
RTVSPost2010PropOp34
 70
     1
102
RTVSPost2010Prop35
280
     0
102
RTVSPost2010PropOp35
 70
     1
102
RTVSPost2010Prop36
280
     0
102
RTVSPost2010PropOp36
 70
     1
102
RTVSPost2010Prop37
 90
       50
102
RTVSPost2010PropOp37
 70
     1
102
RTVSPost2010Prop38
140
0.0
102
RTVSPost2010PropOp38
 70
     1
102
RTVSPost2010Prop39
140
1.0
102
RTVSPost2010PropOp39
 70
     1
102
RTVSPost2010Prop40
 90
        0
102
RTVSPost2010PropOp40
 70
     1
102
RTVSPost2010Prop41ColorIndex
 90
       18
102
RTVSPost2010Prop41ColorRGB
 90
        0
102
RTVSPost2010PropOp41
 70
     1
102
RTVSPost2010Prop42
 90
       50
102
RTVSPost2010PropOp42
 70
     1
102
RTVSPost2010Prop43
 90
        3
102
RTVSPost2010PropOp43
 70
     1
102
RTVSPost2010Prop44ColorIndex
 90
        5
102
RTVSPost2010Prop44ColorRGB
 90
      255
102
RTVSPost2010PropOp44
 70
     1
102
RTVSPost2010Prop45
280
     0
102
RTVSPost2010PropOp45
 70
     1
102
RTVSPost2010Prop46
 90
       50
102
RTVSPost2010PropOp46
 70
     1
102
RTVSPost2010Prop47
 90
       50
102
RTVSPost2010PropOp47
 70
     1
102
RTVSPost2010Prop48
 90
       50
102
RTVSPost2010PropOp48
 70
     1
102
RTVSPost2010Prop49
280
     0
102
RTVSPost2010PropOp49
 70
     1
102
RTVSPost2010Prop50
 90
       50
102
RTVSPost2010PropOp50
 70
     1
102
RTVSPost2010Prop51ColorIndex
 90
      256
102
RTVSPost2010Prop51ColorRGB
 90
-16777216
102
RTVSPost2010PropOp51
 70
     0
102
RTVSPost2010Prop52
140
1.0
102
RTVSPost2010PropOp52
 70
     0
102
RTVSPost2010Prop53
 90
        2
102
RTVSPost2010PropOp53
 70
     1
102
RTVSPost2010Prop54
  1
strokes_ogs.tif
102
RTVSPost2010PropOp54
 70
     1
102
RTVSPost2010Prop55
280
     0
102
RTVSPost2010PropOp55
 70
     1
102
RTVSPost2010Prop56
140
1.0
102
RTVSPost2010PropOp56
 70
     1
102
RTVSPost2010Prop57
140
1.0
102
RTVSPost2010PropOp57
 70
     1
102
RTVSPropertyOp0
 70
     1
102
RTVSPropertyOp1
 70
     1
102
RTVSPropertyOp2
 70
     1
102
RTVSPropertyOp3
 70
     1
102
RTVSPropertyOp4
 70
     1
102
RTVSPropertyOp5
 70
     1
102
RTVSPropertyOp6
 70
     1
102
RTVSPropertyOp7
 70
     1
102
RTVSPropertyOp8
 70
     1
102
RTVSPropertyOp9
 70
     1
102
RTVSPropertyOp10
 70
     1
102
RTVSPropertyOp11
 70
     1
102
RTVSPropertyOp12
 70
     1
102
RTVSPropertyOp13
 70
     1
102
RTVSPropertyOp14
 70
     1
102
RTVSPropertyOp15
 70
     1
102
RTVSPropertyOp16
 70
     1
102
RTVSPropertyOp17
 70
     1
102
RTVSPropertyOp18
 70
     1
102
RTVSPropertyOp19
 70
     1
102
RTVSPropertyOp20
 70
     1
102
RTVSPropertyOp21
 70
     1
102
RTVSPropertyOp22
 70
     1
102
RTVSPropertyOp23
 70
     1
102
RTVSPropertyOp24
 70
     1
102
RTVSPropertyOp25
 70
     1
102
RTVSPropertyOp26
 70
     1
102
RTVSPropertyOp27
 70
     1
102
RTVSPropertyOp28
 70
     1
102
RTVSPropertyOp29
 70
     1
102
RTVSPropertyOp30
 70
     1
102
RTVSPropertyOp31
 70
     1
102
RTVSPropertyOp32
 70
     1
102
RTVSPropertyOp33
 70
     1
102
RTVSPropertyOp34
 70
     1
102
RTVSPropertyOp35
 70
     1
102
RTVSPropertyOp36
 70
     1
102
RTVSPropertyOp37
 70
     1
102
RTVSPropertyOp38
 70
     1
102
RTVSPropertyOp39
 70
     1
102
RTVSPropertyOp40
 70
     1
102
RTVSPropertyOp41
 70
     1
102
RTVSPropertyOp42
 70
     1
102
RTVSPropertyOp43
 70
     1
102
RTVSPropertyOp44
 70
     1
102
RTVSPropertyOp45
 70
     1
102
RTVSPropertyOp46
 70
     1
102
RTVSPropertyOp47
 70
     1
102
RTVSPropertyOp48
 70
     1
102
RTVSPropertyOp49
 70
     1
102
RTVSPropertyOp50
 70
     1
102
RTVSPropertyOp51
 70
     0
102
RTVSPropertyOp52
 70
     0
102
RTVSPropertyOp53
 70
     1
102
RTVSPropertyOp54
 70
     1
102
RTVSPropertyOp55
 70
     1
102
RTVSPropertyOp56
 70
     1
102
RTVSPropertyOp57
 70
     1
102
RTVSPropertyOp58
 70
     1
102
RTVSPropertyOp59
 70
     1
102
RTVSPropertyOp60
 70
     1
102
RTVSPropertyOp61
 70
     1
102
RTVSPropertyOp62
 70
     1
  0
XRECORD
  5
235
102
{ACAD_REACTORS
330
234
102
}
330
234
100
AcDbXrecord
280
     1
102
RTVSPost2010Prop28
280
     0
102
RTVSPost2010PropOp28
 70
     1
102
RTVSPost2010Prop29
280
     1
102
RTVSPost2010PropOp29
 70
     1
102
RTVSPost2010Prop30
280
     1
102
RTVSPost2010PropOp30
 70
     1
102
RTVSPost2010Prop31
280
     0
102
RTVSPost2010PropOp31
 70
     1
102
RTVSPost2010Prop32
280
     0
102
RTVSPost2010PropOp32
 70
     1
102
RTVSPost2010Prop33
280
     0
102
RTVSPost2010PropOp33
 70
     1
102
RTVSPost2010Prop34
280
     0
102
RTVSPost2010PropOp34
 70
     1
102
RTVSPost2010Prop35
280
     0
102
RTVSPost2010PropOp35
 70
     1
102
RTVSPost2010Prop36
280
     0
102
RTVSPost2010PropOp36
 70
     1
102
RTVSPost2010Prop37
 90
       50
102
RTVSPost2010PropOp37
 70
     1
102
RTVSPost2010Prop38
140
0.0
102
RTVSPost2010PropOp38
 70
     1
102
RTVSPost2010Prop39
140
1.0
102
RTVSPost2010PropOp39
 70
     1
102
RTVSPost2010Prop40
 90
        0
102
RTVSPost2010PropOp40
 70
     1
102
RTVSPost2010Prop41ColorIndex
 90
       18
102
RTVSPost2010Prop41ColorRGB
 90
        0
102
RTVSPost2010PropOp41
 70
     1
102
RTVSPost2010Prop42
 90
       50
102
RTVSPost2010PropOp42
 70
     1
102
RTVSPost2010Prop43
 90
        3
102
RTVSPost2010PropOp43
 70
     1
102
RTVSPost2010Prop44ColorIndex
 90
        5
102
RTVSPost2010Prop44ColorRGB
 90
      255
102
RTVSPost2010PropOp44
 70
     1
102
RTVSPost2010Prop45
280
     0
102
RTVSPost2010PropOp45
 70
     1
102
RTVSPost2010Prop46
 90
       50
102
RTVSPost2010PropOp46
 70
     1
102
RTVSPost2010Prop47
 90
       50
102
RTVSPost2010PropOp47
 70
     1
102
RTVSPost2010Prop48
 90
       50
102
RTVSPost2010PropOp48
 70
     1
102
RTVSPost2010Prop49
280
     0
102
RTVSPost2010PropOp49
 70
     1
102
RTVSPost2010Prop50
 90
       50
102
RTVSPost2010PropOp50
 70
     1
102
RTVSPost2010Prop51ColorIndex
 90
      256
102
RTVSPost2010Prop51ColorRGB
 90
-16777216
102
RTVSPost2010PropOp51
 70
     0
102
RTVSPost2010Prop52
140
1.0
102
RTVSPost2010PropOp52
 70
     0
102
RTVSPost2010Prop53
 90
        2
102
RTVSPost2010PropOp53
 70
     1
102
RTVSPost2010Prop54
  1
strokes_ogs.tif
102
RTVSPost2010PropOp54
 70
     1
102
RTVSPost2010Prop55
280
     0
102
RTVSPost2010PropOp55
 70
     1
102
RTVSPost2010Prop56
140
1.0
102
RTVSPost2010PropOp56
 70
     1
102
RTVSPost2010Prop57
140
1.0
102
RTVSPost2010PropOp57
 70
     1
102
RTVSPropertyOp0
 70
     1
102
RTVSPropertyOp1
 70
     1
102
RTVSPropertyOp2
 70
     1
102
RTVSPropertyOp3
 70
     1
102
RTVSPropertyOp4
 70
     1
102
RTVSPropertyOp5
 70
     1
102
RTVSPropertyOp6
 70
     1
102
RTVSPropertyOp7
 70
     1
102
RTVSPropertyOp8
 70
     1
102
RTVSPropertyOp9
 70
     1
102
RTVSPropertyOp10
 70
     1
102
RTVSPropertyOp11
 70
     1
102
RTVSPropertyOp12
 70
     1
102
RTVSPropertyOp13
 70
     1
102
RTVSPropertyOp14
 70
     1
102
RTVSPropertyOp15
 70
     1
102
RTVSPropertyOp16
 70
     1
102
RTVSPropertyOp17
 70
     1
102
RTVSPropertyOp18
 70
     1
102
RTVSPropertyOp19
 70
     1
102
RTVSPropertyOp20
 70
     1
102
RTVSPropertyOp21
 70
     1
102
RTVSPropertyOp22
 70
     1
102
RTVSPropertyOp23
 70
     1
102
RTVSPropertyOp24
 70
     1
102
RTVSPropertyOp25
 70
     1
102
RTVSPropertyOp26
 70
     1
102
RTVSPropertyOp27
 70
     1
102
RTVSPropertyOp28
 70
     1
102
RTVSPropertyOp29
 70
     1
102
RTVSPropertyOp30
 70
     1
102
RTVSPropertyOp31
 70
     1
102
RTVSPropertyOp32
 70
     1
102
RTVSPropertyOp33
 70
     1
102
RTVSPropertyOp34
 70
     1
102
RTVSPropertyOp35
 70
     1
102
RTVSPropertyOp36
 70
     1
102
RTVSPropertyOp37
 70
     1
102
RTVSPropertyOp38
 70
     1
102
RTVSPropertyOp39
 70
     1
102
RTVSPropertyOp40
 70
     1
102
RTVSPropertyOp41
 70
     1
102
RTVSPropertyOp42
 70
     1
102
RTVSPropertyOp43
 70
     1
102
RTVSPropertyOp44
 70
     1
102
RTVSPropertyOp45
 70
     1
102
RTVSPropertyOp46
 70
     1
102
RTVSPropertyOp47
 70
     1
102
RTVSPropertyOp48
 70
     1
102
RTVSPropertyOp49
 70
     1
102
RTVSPropertyOp50
 70
     1
102
RTVSPropertyOp51
 70
     0
102
RTVSPropertyOp52
 70
     0
102
RTVSPropertyOp53
 70
     1
102
RTVSPropertyOp54
 70
     1
102
RTVSPropertyOp55
 70
     1
102
RTVSPropertyOp56
 70
     1
102
RTVSPropertyOp57
 70
     1
102
RTVSPropertyOp58
 70
     1
102
RTVSPropertyOp59
 70
     1
102
RTVSPropertyOp60
 70
     1
102
RTVSPropertyOp61
 70
     1
102
RTVSPropertyOp62
 70
     1
  0
XRECORD
  5
23D
102
{ACAD_REACTORS
330
23C
102
}
330
23C
100
AcDbXrecord
280
     1
102
RTVSPost2010Prop28
280
     0
102
RTVSPost2010PropOp28
 70
     1
102
RTVSPost2010Prop29
280
     1
102
RTVSPost2010PropOp29
 70
     1
102
RTVSPost2010Prop30
280
     1
102
RTVSPost2010PropOp30
 70
     1
102
RTVSPost2010Prop31
280
     0
102
RTVSPost2010PropOp31
 70
     1
102
RTVSPost2010Prop32
280
     0
102
RTVSPost2010PropOp32
 70
     1
102
RTVSPost2010Prop33
280
     0
102
RTVSPost2010PropOp33
 70
     1
102
RTVSPost2010Prop34
280
     0
102
RTVSPost2010PropOp34
 70
     1
102
RTVSPost2010Prop35
280
     0
102
RTVSPost2010PropOp35
 70
     1
102
RTVSPost2010Prop36
280
     0
102
RTVSPost2010PropOp36
 70
     1
102
RTVSPost2010Prop37
 90
       50
102
RTVSPost2010PropOp37
 70
     1
102
RTVSPost2010Prop38
140
0.0
102
RTVSPost2010PropOp38
 70
     1
102
RTVSPost2010Prop39
140
1.0
102
RTVSPost2010PropOp39
 70
     1
102
RTVSPost2010Prop40
 90
        0
102
RTVSPost2010PropOp40
 70
     1
102
RTVSPost2010Prop41ColorIndex
 90
       18
102
RTVSPost2010Prop41ColorRGB
 90
        0
102
RTVSPost2010PropOp41
 70
     1
102
RTVSPost2010Prop42
 90
       50
102
RTVSPost2010PropOp42
 70
     1
102
RTVSPost2010Prop43
 90
        3
102
RTVSPost2010PropOp43
 70
     1
102
RTVSPost2010Prop44ColorIndex
 90
        5
102
RTVSPost2010Prop44ColorRGB
 90
      255
102
RTVSPost2010PropOp44
 70
     1
102
RTVSPost2010Prop45
280
     0
102
RTVSPost2010PropOp45
 70
     1
102
RTVSPost2010Prop46
 90
       50
102
RTVSPost2010PropOp46
 70
     1
102
RTVSPost2010Prop47
 90
       50
102
RTVSPost2010PropOp47
 70
     1
102
RTVSPost2010Prop48
 90
       50
102
RTVSPost2010PropOp48
 70
     1
102
RTVSPost2010Prop49
280
     0
102
RTVSPost2010PropOp49
 70
     1
102
RTVSPost2010Prop50
 90
       50
102
RTVSPost2010PropOp50
 70
     1
102
RTVSPost2010Prop51ColorIndex
 90
      256
102
RTVSPost2010Prop51ColorRGB
 90
-16777216
102
RTVSPost2010PropOp51
 70
     0
102
RTVSPost2010Prop52
140
1.0
102
RTVSPost2010PropOp52
 70
     0
102
RTVSPost2010Prop53
 90
        2
102
RTVSPost2010PropOp53
 70
     1
102
RTVSPost2010Prop54
  1
strokes_ogs.tif
102
RTVSPost2010PropOp54
 70
     1
102
RTVSPost2010Prop55
280
     0
102
RTVSPost2010PropOp55
 70
     1
102
RTVSPost2010Prop56
140
1.0
102
RTVSPost2010PropOp56
 70
     1
102
RTVSPost2010Prop57
140
1.0
102
RTVSPost2010PropOp57
 70
     1
102
RTVSPropertyOp0
 70
     1
102
RTVSPropertyOp1
 70
     1
102
RTVSPropertyOp2
 70
     1
102
RTVSPropertyOp3
 70
     1
102
RTVSPropertyOp4
 70
     1
102
RTVSPropertyOp5
 70
     1
102
RTVSPropertyOp6
 70
     1
102
RTVSPropertyOp7
 70
     1
102
RTVSPropertyOp8
 70
     1
102
RTVSPropertyOp9
 70
     1
102
RTVSPropertyOp10
 70
     1
102
RTVSPropertyOp11
 70
     1
102
RTVSPropertyOp12
 70
     1
102
RTVSPropertyOp13
 70
     1
102
RTVSPropertyOp14
 70
     1
102
RTVSPropertyOp15
 70
     1
102
RTVSPropertyOp16
 70
     1
102
RTVSPropertyOp17
 70
     1
102
RTVSPropertyOp18
 70
     1
102
RTVSPropertyOp19
 70
     1
102
RTVSPropertyOp20
 70
     1
102
RTVSPropertyOp21
 70
     1
102
RTVSPropertyOp22
 70
     1
102
RTVSPropertyOp23
 70
     1
102
RTVSPropertyOp24
 70
     1
102
RTVSPropertyOp25
 70
     1
102
RTVSPropertyOp26
 70
     1
102
RTVSPropertyOp27
 70
     1
102
RTVSPropertyOp28
 70
     1
102
RTVSPropertyOp29
 70
     1
102
RTVSPropertyOp30
 70
     1
102
RTVSPropertyOp31
 70
     1
102
RTVSPropertyOp32
 70
     1
102
RTVSPropertyOp33
 70
     1
102
RTVSPropertyOp34
 70
     1
102
RTVSPropertyOp35
 70
     1
102
RTVSPropertyOp36
 70
     1
102
RTVSPropertyOp37
 70
     1
102
RTVSPropertyOp38
 70
     1
102
RTVSPropertyOp39
 70
     1
102
RTVSPropertyOp40
 70
     1
102
RTVSPropertyOp41
 70
     1
102
RTVSPropertyOp42
 70
     1
102
RTVSPropertyOp43
 70
     1
102
RTVSPropertyOp44
 70
     1
102
RTVSPropertyOp45
 70
     1
102
RTVSPropertyOp46
 70
     1
102
RTVSPropertyOp47
 70
     1
102
RTVSPropertyOp48
 70
     1
102
RTVSPropertyOp49
 70
     1
102
RTVSPropertyOp50
 70
     1
102
RTVSPropertyOp51
 70
     0
102
RTVSPropertyOp52
 70
     0
102
RTVSPropertyOp53
 70
     1
102
RTVSPropertyOp54
 70
     1
102
RTVSPropertyOp55
 70
     1
102
RTVSPropertyOp56
 70
     1
102
RTVSPropertyOp57
 70
     1
102
RTVSPropertyOp58
 70
     1
102
RTVSPropertyOp59
 70
     1
102
RTVSPropertyOp60
 70
     1
102
RTVSPropertyOp61
 70
     1
102
RTVSPropertyOp62
 70
     1
  0
XRECORD
  5
22F
102
{ACAD_REACTORS
330
22E
102
}
330
22E
100
AcDbXrecord
280
     1
102
RTVSPost2010Prop28
280
     0
102
RTVSPost2010PropOp28
 70
     1
102
RTVSPost2010Prop29
280
     1
102
RTVSPost2010PropOp29
 70
     1
102
RTVSPost2010Prop30
280
     1
102
RTVSPost2010PropOp30
 70
     1
102
RTVSPost2010Prop31
280
     0
102
RTVSPost2010PropOp31
 70
     1
102
RTVSPost2010Prop32
280
     0
102
RTVSPost2010PropOp32
 70
     1
102
RTVSPost2010Prop33
280
     0
102
RTVSPost2010PropOp33
 70
     1
102
RTVSPost2010Prop34
280
     0
102
RTVSPost2010PropOp34
 70
     1
102
RTVSPost2010Prop35
280
     0
102
RTVSPost2010PropOp35
 70
     1
102
RTVSPost2010Prop36
280
     0
102
RTVSPost2010PropOp36
 70
     1
102
RTVSPost2010Prop37
 90
       50
102
RTVSPost2010PropOp37
 70
     1
102
RTVSPost2010Prop38
140
0.0
102
RTVSPost2010PropOp38
 70
     1
102
RTVSPost2010Prop39
140
1.0
102
RTVSPost2010PropOp39
 70
     1
102
RTVSPost2010Prop40
 90
        0
102
RTVSPost2010PropOp40
 70
     1
102
RTVSPost2010Prop41ColorIndex
 90
       18
102
RTVSPost2010Prop41ColorRGB
 90
        0
102
RTVSPost2010PropOp41
 70
     1
102
RTVSPost2010Prop42
 90
       50
102
RTVSPost2010PropOp42
 70
     1
102
RTVSPost2010Prop43
 90
        3
102
RTVSPost2010PropOp43
 70
     1
102
RTVSPost2010Prop44ColorIndex
 90
        5
102
RTVSPost2010Prop44ColorRGB
 90
      255
102
RTVSPost2010PropOp44
 70
     1
102
RTVSPost2010Prop45
280
     0
102
RTVSPost2010PropOp45
 70
     1
102
RTVSPost2010Prop46
 90
       50
102
RTVSPost2010PropOp46
 70
     1
102
RTVSPost2010Prop47
 90
       50
102
RTVSPost2010PropOp47
 70
     1
102
RTVSPost2010Prop48
 90
       50
102
RTVSPost2010PropOp48
 70
     1
102
RTVSPost2010Prop49
280
     0
102
RTVSPost2010PropOp49
 70
     1
102
RTVSPost2010Prop50
 90
       50
102
RTVSPost2010PropOp50
 70
     1
102
RTVSPost2010Prop51ColorIndex
 90
      256
102
RTVSPost2010Prop51ColorRGB
 90
-16777216
102
RTVSPost2010PropOp51
 70
     0
102
RTVSPost2010Prop52
140
1.0
102
RTVSPost2010PropOp52
 70
     0
102
RTVSPost2010Prop53
 90
        2
102
RTVSPost2010PropOp53
 70
     1
102
RTVSPost2010Prop54
  1
strokes_ogs.tif
102
RTVSPost2010PropOp54
 70
     1
102
RTVSPost2010Prop55
280
     0
102
RTVSPost2010PropOp55
 70
     1
102
RTVSPost2010Prop56
140
1.0
102
RTVSPost2010PropOp56
 70
     1
102
RTVSPost2010Prop57
140
1.0
102
RTVSPost2010PropOp57
 70
     1
102
RTVSPropertyOp0
 70
     1
102
RTVSPropertyOp1
 70
     1
102
RTVSPropertyOp2
 70
     1
102
RTVSPropertyOp3
 70
     1
102
RTVSPropertyOp4
 70
     1
102
RTVSPropertyOp5
 70
     1
102
RTVSPropertyOp6
 70
     1
102
RTVSPropertyOp7
 70
     1
102
RTVSPropertyOp8
 70
     1
102
RTVSPropertyOp9
 70
     1
102
RTVSPropertyOp10
 70
     1
102
RTVSPropertyOp11
 70
     1
102
RTVSPropertyOp12
 70
     1
102
RTVSPropertyOp13
 70
     1
102
RTVSPropertyOp14
 70
     1
102
RTVSPropertyOp15
 70
     1
102
RTVSPropertyOp16
 70
     1
102
RTVSPropertyOp17
 70
     1
102
RTVSPropertyOp18
 70
     1
102
RTVSPropertyOp19
 70
     1
102
RTVSPropertyOp20
 70
     1
102
RTVSPropertyOp21
 70
     1
102
RTVSPropertyOp22
 70
     1
102
RTVSPropertyOp23
 70
     1
102
RTVSPropertyOp24
 70
     1
102
RTVSPropertyOp25
 70
     1
102
RTVSPropertyOp26
 70
     1
102
RTVSPropertyOp27
 70
     1
102
RTVSPropertyOp28
 70
     1
102
RTVSPropertyOp29
 70
     1
102
RTVSPropertyOp30
 70
     1
102
RTVSPropertyOp31
 70
     1
102
RTVSPropertyOp32
 70
     1
102
RTVSPropertyOp33
 70
     1
102
RTVSPropertyOp34
 70
     1
102
RTVSPropertyOp35
 70
     1
102
RTVSPropertyOp36
 70
     1
102
RTVSPropertyOp37
 70
     1
102
RTVSPropertyOp38
 70
     1
102
RTVSPropertyOp39
 70
     1
102
RTVSPropertyOp40
 70
     1
102
RTVSPropertyOp41
 70
     1
102
RTVSPropertyOp42
 70
     1
102
RTVSPropertyOp43
 70
     1
102
RTVSPropertyOp44
 70
     1
102
RTVSPropertyOp45
 70
     1
102
RTVSPropertyOp46
 70
     1
102
RTVSPropertyOp47
 70
     1
102
RTVSPropertyOp48
 70
     1
102
RTVSPropertyOp49
 70
     1
102
RTVSPropertyOp50
 70
     1
102
RTVSPropertyOp51
 70
     0
102
RTVSPropertyOp52
 70
     0
102
RTVSPropertyOp53
 70
     1
102
RTVSPropertyOp54
 70
     1
102
RTVSPropertyOp55
 70
     1
102
RTVSPropertyOp56
 70
     1
102
RTVSPropertyOp57
 70
     1
102
RTVSPropertyOp58
 70
     1
102
RTVSPropertyOp59
 70
     1
102
RTVSPropertyOp60
 70
     1
102
RTVSPropertyOp61
 70
     1
102
RTVSPropertyOp62
 70
     1
  0
XRECORD
  5
233
102
{ACAD_REACTORS
330
232
102
}
330
232
100
AcDbXrecord
280
     1
102
RTVSPost2010Prop28
280
     0
102
RTVSPost2010PropOp28
 70
     1
102
RTVSPost2010Prop29
280
     1
102
RTVSPost2010PropOp29
 70
     1
102
RTVSPost2010Prop30
280
     1
102
RTVSPost2010PropOp30
 70
     1
102
RTVSPost2010Prop31
280
     0
102
RTVSPost2010PropOp31
 70
     1
102
RTVSPost2010Prop32
280
     0
102
RTVSPost2010PropOp32
 70
     1
102
RTVSPost2010Prop33
280
     0
102
RTVSPost2010PropOp33
 70
     1
102
RTVSPost2010Prop34
280
     0
102
RTVSPost2010PropOp34
 70
     1
102
RTVSPost2010Prop35
280
     0
102
RTVSPost2010PropOp35
 70
     1
102
RTVSPost2010Prop36
280
     0
102
RTVSPost2010PropOp36
 70
     1
102
RTVSPost2010Prop37
 90
       50
102
RTVSPost2010PropOp37
 70
     1
102
RTVSPost2010Prop38
140
0.0
102
RTVSPost2010PropOp38
 70
     1
102
RTVSPost2010Prop39
140
1.0
102
RTVSPost2010PropOp39
 70
     1
102
RTVSPost2010Prop40
 90
        0
102
RTVSPost2010PropOp40
 70
     1
102
RTVSPost2010Prop41ColorIndex
 90
       18
102
RTVSPost2010Prop41ColorRGB
 90
        0
102
RTVSPost2010PropOp41
 70
     1
102
RTVSPost2010Prop42
 90
       50
102
RTVSPost2010PropOp42
 70
     1
102
RTVSPost2010Prop43
 90
        3
102
RTVSPost2010PropOp43
 70
     1
102
RTVSPost2010Prop44ColorIndex
 90
        5
102
RTVSPost2010Prop44ColorRGB
 90
      255
102
RTVSPost2010PropOp44
 70
     1
102
RTVSPost2010Prop45
280
     0
102
RTVSPost2010PropOp45
 70
     1
102
RTVSPost2010Prop46
 90
       50
102
RTVSPost2010PropOp46
 70
     1
102
RTVSPost2010Prop47
 90
       50
102
RTVSPost2010PropOp47
 70
     1
102
RTVSPost2010Prop48
 90
       50
102
RTVSPost2010PropOp48
 70
     1
102
RTVSPost2010Prop49
280
     0
102
RTVSPost2010PropOp49
 70
     1
102
RTVSPost2010Prop50
 90
       50
102
RTVSPost2010PropOp50
 70
     1
102
RTVSPost2010Prop51ColorIndex
 90
      256
102
RTVSPost2010Prop51ColorRGB
 90
-16777216
102
RTVSPost2010PropOp51
 70
     0
102
RTVSPost2010Prop52
140
1.0
102
RTVSPost2010PropOp52
 70
     0
102
RTVSPost2010Prop53
 90
        2
102
RTVSPost2010PropOp53
 70
     1
102
RTVSPost2010Prop54
  1
strokes_ogs.tif
102
RTVSPost2010PropOp54
 70
     1
102
RTVSPost2010Prop55
280
     0
102
RTVSPost2010PropOp55
 70
     1
102
RTVSPost2010Prop56
140
1.0
102
RTVSPost2010PropOp56
 70
     1
102
RTVSPost2010Prop57
140
1.0
102
RTVSPost2010PropOp57
 70
     1
102
RTVSPropertyOp0
 70
     1
102
RTVSPropertyOp1
 70
     1
102
RTVSPropertyOp2
 70
     1
102
RTVSPropertyOp3
 70
     1
102
RTVSPropertyOp4
 70
     1
102
RTVSPropertyOp5
 70
     1
102
RTVSPropertyOp6
 70
     1
102
RTVSPropertyOp7
 70
     1
102
RTVSPropertyOp8
 70
     1
102
RTVSPropertyOp9
 70
     1
102
RTVSPropertyOp10
 70
     1
102
RTVSPropertyOp11
 70
     1
102
RTVSPropertyOp12
 70
     1
102
RTVSPropertyOp13
 70
     1
102
RTVSPropertyOp14
 70
     1
102
RTVSPropertyOp15
 70
     1
102
RTVSPropertyOp16
 70
     1
102
RTVSPropertyOp17
 70
     1
102
RTVSPropertyOp18
 70
     1
102
RTVSPropertyOp19
 70
     1
102
RTVSPropertyOp20
 70
     1
102
RTVSPropertyOp21
 70
     1
102
RTVSPropertyOp22
 70
     1
102
RTVSPropertyOp23
 70
     1
102
RTVSPropertyOp24
 70
     1
102
RTVSPropertyOp25
 70
     1
102
RTVSPropertyOp26
 70
     1
102
RTVSPropertyOp27
 70
     1
102
RTVSPropertyOp28
 70
     1
102
RTVSPropertyOp29
 70
     1
102
RTVSPropertyOp30
 70
     1
102
RTVSPropertyOp31
 70
     1
102
RTVSPropertyOp32
 70
     1
102
RTVSPropertyOp33
 70
     1
102
RTVSPropertyOp34
 70
     1
102
RTVSPropertyOp35
 70
     1
102
RTVSPropertyOp36
 70
     1
102
RTVSPropertyOp37
 70
     1
102
RTVSPropertyOp38
 70
     1
102
RTVSPropertyOp39
 70
     1
102
RTVSPropertyOp40
 70
     1
102
RTVSPropertyOp41
 70
     1
102
RTVSPropertyOp42
 70
     1
102
RTVSPropertyOp43
 70
     1
102
RTVSPropertyOp44
 70
     1
102
RTVSPropertyOp45
 70
     1
102
RTVSPropertyOp46
 70
     1
102
RTVSPropertyOp47
 70
     1
102
RTVSPropertyOp48
 70
     1
102
RTVSPropertyOp49
 70
     1
102
RTVSPropertyOp50
 70
     1
102
RTVSPropertyOp51
 70
     0
102
RTVSPropertyOp52
 70
     0
102
RTVSPropertyOp53
 70
     1
102
RTVSPropertyOp54
 70
     1
102
RTVSPropertyOp55
 70
     1
102
RTVSPropertyOp56
 70
     1
102
RTVSPropertyOp57
 70
     1
102
RTVSPropertyOp58
 70
     1
102
RTVSPropertyOp59
 70
     1
102
RTVSPropertyOp60
 70
     1
102
RTVSPropertyOp61
 70
     1
102
RTVSPropertyOp62
 70
     1
  0
XRECORD
  5
24D
102
{ACAD_REACTORS
330
24C
102
}
330
24C
100
AcDbXrecord
280
     1
102
RTVSPost2010Prop28
280
     0
102
RTVSPost2010PropOp28
 70
     0
102
RTVSPost2010Prop29
280
     1
102
RTVSPost2010PropOp29
 70
     0
102
RTVSPost2010Prop30
280
     1
102
RTVSPost2010PropOp30
 70
     0
102
RTVSPost2010Prop31
280
     0
102
RTVSPost2010PropOp31
 70
     0
102
RTVSPost2010Prop32
280
     0
102
RTVSPost2010PropOp32
 70
     0
102
RTVSPost2010Prop33
280
     0
102
RTVSPost2010PropOp33
 70
     0
102
RTVSPost2010Prop34
280
     0
102
RTVSPost2010PropOp34
 70
     0
102
RTVSPost2010Prop35
280
     0
102
RTVSPost2010PropOp35
 70
     0
102
RTVSPost2010Prop36
280
     0
102
RTVSPost2010PropOp36
 70
     0
102
RTVSPost2010Prop37
 90
       50
102
RTVSPost2010PropOp37
 70
     0
102
RTVSPost2010Prop38
140
0.0
102
RTVSPost2010PropOp38
 70
     0
102
RTVSPost2010Prop39
140
1.0
102
RTVSPost2010PropOp39
 70
     0
102
RTVSPost2010Prop40
 90
        0
102
RTVSPost2010PropOp40
 70
     0
102
RTVSPost2010Prop41ColorIndex
 90
       18
102
RTVSPost2010Prop41ColorRGB
 90
        0
102
RTVSPost2010PropOp41
 70
     0
102
RTVSPost2010Prop42
 90
       50
102
RTVSPost2010PropOp42
 70
     0
102
RTVSPost2010Prop43
 90
        3
102
RTVSPost2010PropOp43
 70
     0
102
RTVSPost2010Prop44ColorIndex
 90
        5
102
RTVSPost2010Prop44ColorRGB
 90
      255
102
RTVSPost2010PropOp44
 70
     0
102
RTVSPost2010Prop45
280
     0
102
RTVSPost2010PropOp45
 70
     0
102
RTVSPost2010Prop46
 90
       50
102
RTVSPost2010PropOp46
 70
     0
102
RTVSPost2010Prop47
 90
       50
102
RTVSPost2010PropOp47
 70
     0
102
RTVSPost2010Prop48
 90
       50
102
RTVSPost2010PropOp48
 70
     0
102
RTVSPost2010Prop49
280
     0
102
RTVSPost2010PropOp49
 70
     0
102
RTVSPost2010Prop50
 90
       50
102
RTVSPost2010PropOp50
 70
     0
102
RTVSPost2010Prop51ColorIndex
 90
      256
102
RTVSPost2010Prop51ColorRGB
 90
-16777216
102
RTVSPost2010PropOp51
 70
     0
102
RTVSPost2010Prop52
140
1.0
102
RTVSPost2010PropOp52
 70
     0
102
RTVSPost2010Prop53
 90
        2
102
RTVSPost2010PropOp53
 70
     0
102
RTVSPost2010Prop54
  1
strokes_ogs.tif
102
RTVSPost2010PropOp54
 70
     0
102
RTVSPost2010Prop55
280
     0
102
RTVSPost2010PropOp55
 70
     0
102
RTVSPost2010Prop56
140
1.0
102
RTVSPost2010PropOp56
 70
     0
102
RTVSPost2010Prop57
140
1.0
102
RTVSPost2010PropOp57
 70
     0
102
RTVSPropertyOp0
 70
     0
102
RTVSPropertyOp1
 70
     0
102
RTVSPropertyOp2
 70
     0
102
RTVSPropertyOp3
 70
     0
102
RTVSPropertyOp4
 70
     0
102
RTVSPropertyOp5
 70
     0
102
RTVSPropertyOp6
 70
     0
102
RTVSPropertyOp7
 70
     0
102
RTVSPropertyOp8
 70
     0
102
RTVSPropertyOp9
 70
     0
102
RTVSPropertyOp10
 70
     0
102
RTVSPropertyOp11
 70
     0
102
RTVSPropertyOp12
 70
     0
102
RTVSPropertyOp13
 70
     0
102
RTVSPropertyOp14
 70
     2
102
RTVSPropertyOp15
 70
     0
102
RTVSPropertyOp16
 70
     0
102
RTVSPropertyOp17
 70
     0
102
RTVSPropertyOp18
 70
     0
102
RTVSPropertyOp19
 70
     0
102
RTVSPropertyOp20
 70
     0
102
RTVSPropertyOp21
 70
     0
102
RTVSPropertyOp22
 70
     0
102
RTVSPropertyOp23
 70
     0
102
RTVSPropertyOp24
 70
     0
102
RTVSPropertyOp25
 70
     0
102
RTVSPropertyOp26
 70
     0
102
RTVSPropertyOp27
 70
     0
102
RTVSPropertyOp28
 70
     0
102
RTVSPropertyOp29
 70
     0
102
RTVSPropertyOp30
 70
     0
102
RTVSPropertyOp31
 70
     0
102
RTVSPropertyOp32
 70
     0
102
RTVSPropertyOp33
 70
     0
102
RTVSPropertyOp34
 70
     0
102
RTVSPropertyOp35
 70
     0
102
RTVSPropertyOp36
 70
     0
102
RTVSPropertyOp37
 70
     0
102
RTVSPropertyOp38
 70
     0
102
RTVSPropertyOp39
 70
     0
102
RTVSPropertyOp40
 70
     0
102
RTVSPropertyOp41
 70
     0
102
RTVSPropertyOp42
 70
     0
102
RTVSPropertyOp43
 70
     0
102
RTVSPropertyOp44
 70
     0
102
RTVSPropertyOp45
 70
     0
102
RTVSPropertyOp46
 70
     0
102
RTVSPropertyOp47
 70
     0
102
RTVSPropertyOp48
 70
     0
102
RTVSPropertyOp49
 70
     0
102
RTVSPropertyOp50
 70
     0
102
RTVSPropertyOp51
 70
     0
102
RTVSPropertyOp52
 70
     0
102
RTVSPropertyOp53
 70
     0
102
RTVSPropertyOp54
 70
     0
102
RTVSPropertyOp55
 70
     0
102
RTVSPropertyOp56
 70
     0
102
RTVSPropertyOp57
 70
     0
102
RTVSPropertyOp58
 70
     0
102
RTVSPropertyOp59
 70
     0
102
RTVSPropertyOp60
 70
     0
102
RTVSPropertyOp61
 70
     0
102
RTVSPropertyOp62
 70
     0
  0
XRECORD
  5
23B
102
{ACAD_REACTORS
330
23A
102
}
330
23A
100
AcDbXrecord
280
     1
102
RTVSPost2010Prop28
280
     0
102
RTVSPost2010PropOp28
 70
     1
102
RTVSPost2010Prop29
280
     1
102
RTVSPost2010PropOp29
 70
     1
102
RTVSPost2010Prop30
280
     1
102
RTVSPost2010PropOp30
 70
     1
102
RTVSPost2010Prop31
280
     0
102
RTVSPost2010PropOp31
 70
     1
102
RTVSPost2010Prop32
280
     0
102
RTVSPost2010PropOp32
 70
     1
102
RTVSPost2010Prop33
280
     0
102
RTVSPost2010PropOp33
 70
     1
102
RTVSPost2010Prop34
280
     0
102
RTVSPost2010PropOp34
 70
     1
102
RTVSPost2010Prop35
280
     0
102
RTVSPost2010PropOp35
 70
     1
102
RTVSPost2010Prop36
280
     0
102
RTVSPost2010PropOp36
 70
     1
102
RTVSPost2010Prop37
 90
       50
102
RTVSPost2010PropOp37
 70
     1
102
RTVSPost2010Prop38
140
0.0
102
RTVSPost2010PropOp38
 70
     1
102
RTVSPost2010Prop39
140
1.0
102
RTVSPost2010PropOp39
 70
     1
102
RTVSPost2010Prop40
 90
        0
102
RTVSPost2010PropOp40
 70
     1
102
RTVSPost2010Prop41ColorIndex
 90
       18
102
RTVSPost2010Prop41ColorRGB
 90
        0
102
RTVSPost2010PropOp41
 70
     1
102
RTVSPost2010Prop42
 90
       50
102
RTVSPost2010PropOp42
 70
     1
102
RTVSPost2010Prop43
 90
        3
102
RTVSPost2010PropOp43
 70
     1
102
RTVSPost2010Prop44ColorIndex
 90
        5
102
RTVSPost2010Prop44ColorRGB
 90
      255
102
RTVSPost2010PropOp44
 70
     1
102
RTVSPost2010Prop45
280
     0
102
RTVSPost2010PropOp45
 70
     1
102
RTVSPost2010Prop46
 90
       50
102
RTVSPost2010PropOp46
 70
     1
102
RTVSPost2010Prop47
 90
       50
102
RTVSPost2010PropOp47
 70
     1
102
RTVSPost2010Prop48
 90
       50
102
RTVSPost2010PropOp48
 70
     1
102
RTVSPost2010Prop49
280
     0
102
RTVSPost2010PropOp49
 70
     1
102
RTVSPost2010Prop50
 90
       50
102
RTVSPost2010PropOp50
 70
     1
102
RTVSPost2010Prop51ColorIndex
 90
      256
102
RTVSPost2010Prop51ColorRGB
 90
-16777216
102
RTVSPost2010PropOp51
 70
     0
102
RTVSPost2010Prop52
140
1.0
102
RTVSPost2010PropOp52
 70
     0
102
RTVSPost2010Prop53
 90
        2
102
RTVSPost2010PropOp53
 70
     1
102
RTVSPost2010Prop54
  1
strokes_ogs.tif
102
RTVSPost2010PropOp54
 70
     1
102
RTVSPost2010Prop55
280
     0
102
RTVSPost2010PropOp55
 70
     1
102
RTVSPost2010Prop56
140
1.0
102
RTVSPost2010PropOp56
 70
     1
102
RTVSPost2010Prop57
140
1.0
102
RTVSPost2010PropOp57
 70
     1
102
RTVSPropertyOp0
 70
     1
102
RTVSPropertyOp1
 70
     1
102
RTVSPropertyOp2
 70
     1
102
RTVSPropertyOp3
 70
     1
102
RTVSPropertyOp4
 70
     1
102
RTVSPropertyOp5
 70
     1
102
RTVSPropertyOp6
 70
     1
102
RTVSPropertyOp7
 70
     1
102
RTVSPropertyOp8
 70
     1
102
RTVSPropertyOp9
 70
     1
102
RTVSPropertyOp10
 70
     1
102
RTVSPropertyOp11
 70
     1
102
RTVSPropertyOp12
 70
     1
102
RTVSPropertyOp13
 70
     1
102
RTVSPropertyOp14
 70
     1
102
RTVSPropertyOp15
 70
     1
102
RTVSPropertyOp16
 70
     1
102
RTVSPropertyOp17
 70
     1
102
RTVSPropertyOp18
 70
     1
102
RTVSPropertyOp19
 70
     1
102
RTVSPropertyOp20
 70
     1
102
RTVSPropertyOp21
 70
     1
102
RTVSPropertyOp22
 70
     1
102
RTVSPropertyOp23
 70
     1
102
RTVSPropertyOp24
 70
     1
102
RTVSPropertyOp25
 70
     1
102
RTVSPropertyOp26
 70
     1
102
RTVSPropertyOp27
 70
     1
102
RTVSPropertyOp28
 70
     1
102
RTVSPropertyOp29
 70
     1
102
RTVSPropertyOp30
 70
     1
102
RTVSPropertyOp31
 70
     1
102
RTVSPropertyOp32
 70
     1
102
RTVSPropertyOp33
 70
     1
102
RTVSPropertyOp34
 70
     1
102
RTVSPropertyOp35
 70
     1
102
RTVSPropertyOp36
 70
     1
102
RTVSPropertyOp37
 70
     1
102
RTVSPropertyOp38
 70
     1
102
RTVSPropertyOp39
 70
     1
102
RTVSPropertyOp40
 70
     1
102
RTVSPropertyOp41
 70
     1
102
RTVSPropertyOp42
 70
     1
102
RTVSPropertyOp43
 70
     1
102
RTVSPropertyOp44
 70
     1
102
RTVSPropertyOp45
 70
     1
102
RTVSPropertyOp46
 70
     1
102
RTVSPropertyOp47
 70
     1
102
RTVSPropertyOp48
 70
     1
102
RTVSPropertyOp49
 70
     1
102
RTVSPropertyOp50
 70
     1
102
RTVSPropertyOp51
 70
     0
102
RTVSPropertyOp52
 70
     0
102
RTVSPropertyOp53
 70
     1
102
RTVSPropertyOp54
 70
     1
102
RTVSPropertyOp55
 70
     1
102
RTVSPropertyOp56
 70
     1
102
RTVSPropertyOp57
 70
     1
102
RTVSPropertyOp58
 70
     1
102
RTVSPropertyOp59
 70
     1
102
RTVSPropertyOp60
 70
     1
102
RTVSPropertyOp61
 70
     1
102
RTVSPropertyOp62
 70
     1
  0
XRECORD
  5
21F
102
{ACAD_REACTORS
330
21E
102
}
330
21E
100
AcDbXrecord
280
     1
102
RTVSPost2010Prop28
280
     0
102
RTVSPost2010PropOp28
 70
     1
102
RTVSPost2010Prop29
280
     1
102
RTVSPost2010PropOp29
 70
     1
102
RTVSPost2010Prop30
280
     1
102
RTVSPost2010PropOp30
 70
     1
102
RTVSPost2010Prop31
280
     0
102
RTVSPost2010PropOp31
 70
     1
102
RTVSPost2010Prop32
280
     0
102
RTVSPost2010PropOp32
 70
     1
102
RTVSPost2010Prop33
280
     0
102
RTVSPost2010PropOp33
 70
     1
102
RTVSPost2010Prop34
280
     0
102
RTVSPost2010PropOp34
 70
     1
102
RTVSPost2010Prop35
280
     0
102
RTVSPost2010PropOp35
 70
     1
102
RTVSPost2010Prop36
280
     0
102
RTVSPost2010PropOp36
 70
     1
102
RTVSPost2010Prop37
 90
       50
102
RTVSPost2010PropOp37
 70
     1
102
RTVSPost2010Prop38
140
0.0
102
RTVSPost2010PropOp38
 70
     1
102
RTVSPost2010Prop39
140
1.0
102
RTVSPost2010PropOp39
 70
     1
102
RTVSPost2010Prop40
 90
        0
102
RTVSPost2010PropOp40
 70
     1
102
RTVSPost2010Prop41ColorIndex
 90
       18
102
RTVSPost2010Prop41ColorRGB
 90
        0
102
RTVSPost2010PropOp41
 70
     1
102
RTVSPost2010Prop42
 90
       50
102
RTVSPost2010PropOp42
 70
     1
102
RTVSPost2010Prop43
 90
        3
102
RTVSPost2010PropOp43
 70
     1
102
RTVSPost2010Prop44ColorIndex
 90
        5
102
RTVSPost2010Prop44ColorRGB
 90
      255
102
RTVSPost2010PropOp44
 70
     1
102
RTVSPost2010Prop45
280
     0
102
RTVSPost2010PropOp45
 70
     1
102
RTVSPost2010Prop46
 90
       50
102
RTVSPost2010PropOp46
 70
     1
102
RTVSPost2010Prop47
 90
       50
102
RTVSPost2010PropOp47
 70
     1
102
RTVSPost2010Prop48
 90
       50
102
RTVSPost2010PropOp48
 70
     1
102
RTVSPost2010Prop49
280
     0
102
RTVSPost2010PropOp49
 70
     1
102
RTVSPost2010Prop50
 90
       50
102
RTVSPost2010PropOp50
 70
     1
102
RTVSPost2010Prop51ColorIndex
 90
      256
102
RTVSPost2010Prop51ColorRGB
 90
-16777216
102
RTVSPost2010PropOp51
 70
     0
102
RTVSPost2010Prop52
140
1.0
102
RTVSPost2010PropOp52
 70
     0
102
RTVSPost2010Prop53
 90
        2
102
RTVSPost2010PropOp53
 70
     1
102
RTVSPost2010Prop54
  1
strokes_ogs.tif
102
RTVSPost2010PropOp54
 70
     1
102
RTVSPost2010Prop55
280
     0
102
RTVSPost2010PropOp55
 70
     1
102
RTVSPost2010Prop56
140
1.0
102
RTVSPost2010PropOp56
 70
     1
102
RTVSPost2010Prop57
140
1.0
102
RTVSPost2010PropOp57
 70
     1
102
RTVSPropertyOp0
 70
     1
102
RTVSPropertyOp1
 70
     1
102
RTVSPropertyOp2
 70
     1
102
RTVSPropertyOp3
 70
     1
102
RTVSPropertyOp4
 70
     1
102
RTVSPropertyOp5
 70
     1
102
RTVSPropertyOp6
 70
     1
102
RTVSPropertyOp7
 70
     1
102
RTVSPropertyOp8
 70
     1
102
RTVSPropertyOp9
 70
     1
102
RTVSPropertyOp10
 70
     1
102
RTVSPropertyOp11
 70
     1
102
RTVSPropertyOp12
 70
     1
102
RTVSPropertyOp13
 70
     1
102
RTVSPropertyOp14
 70
     1
102
RTVSPropertyOp15
 70
     1
102
RTVSPropertyOp16
 70
     1
102
RTVSPropertyOp17
 70
     1
102
RTVSPropertyOp18
 70
     1
102
RTVSPropertyOp19
 70
     1
102
RTVSPropertyOp20
 70
     1
102
RTVSPropertyOp21
 70
     1
102
RTVSPropertyOp22
 70
     1
102
RTVSPropertyOp23
 70
     1
102
RTVSPropertyOp24
 70
     1
102
RTVSPropertyOp25
 70
     1
102
RTVSPropertyOp26
 70
     1
102
RTVSPropertyOp27
 70
     1
102
RTVSPropertyOp28
 70
     1
102
RTVSPropertyOp29
 70
     1
102
RTVSPropertyOp30
 70
     1
102
RTVSPropertyOp31
 70
     1
102
RTVSPropertyOp32
 70
     1
102
RTVSPropertyOp33
 70
     1
102
RTVSPropertyOp34
 70
     1
102
RTVSPropertyOp35
 70
     1
102
RTVSPropertyOp36
 70
     1
102
RTVSPropertyOp37
 70
     1
102
RTVSPropertyOp38
 70
     1
102
RTVSPropertyOp39
 70
     1
102
RTVSPropertyOp40
 70
     1
102
RTVSPropertyOp41
 70
     1
102
RTVSPropertyOp42
 70
     1
102
RTVSPropertyOp43
 70
     1
102
RTVSPropertyOp44
 70
     1
102
RTVSPropertyOp45
 70
     1
102
RTVSPropertyOp46
 70
     1
102
RTVSPropertyOp47
 70
     1
102
RTVSPropertyOp48
 70
     1
102
RTVSPropertyOp49
 70
     1
102
RTVSPropertyOp50
 70
     1
102
RTVSPropertyOp51
 70
     0
102
RTVSPropertyOp52
 70
     0
102
RTVSPropertyOp53
 70
     1
102
RTVSPropertyOp54
 70
     1
102
RTVSPropertyOp55
 70
     1
102
RTVSPropertyOp56
 70
     1
102
RTVSPropertyOp57
 70
     1
102
RTVSPropertyOp58
 70
     1
102
RTVSPropertyOp59
 70
     1
102
RTVSPropertyOp60
 70
     1
102
RTVSPropertyOp61
 70
     1
102
RTVSPropertyOp62
 70
     1
  0
XRECORD
  5
221
102
{ACAD_REACTORS
330
220
102
}
330
220
100
AcDbXrecord
280
     1
102
RTVSPost2010Prop28
280
     0
102
RTVSPost2010PropOp28
 70
     1
102
RTVSPost2010Prop29
280
     1
102
RTVSPost2010PropOp29
 70
     1
102
RTVSPost2010Prop30
280
     1
102
RTVSPost2010PropOp30
 70
     1
102
RTVSPost2010Prop31
280
     0
102
RTVSPost2010PropOp31
 70
     1
102
RTVSPost2010Prop32
280
     0
102
RTVSPost2010PropOp32
 70
     1
102
RTVSPost2010Prop33
280
     0
102
RTVSPost2010PropOp33
 70
     1
102
RTVSPost2010Prop34
280
     0
102
RTVSPost2010PropOp34
 70
     1
102
RTVSPost2010Prop35
280
     0
102
RTVSPost2010PropOp35
 70
     1
102
RTVSPost2010Prop36
280
     0
102
RTVSPost2010PropOp36
 70
     1
102
RTVSPost2010Prop37
 90
       50
102
RTVSPost2010PropOp37
 70
     1
102
RTVSPost2010Prop38
140
0.0
102
RTVSPost2010PropOp38
 70
     1
102
RTVSPost2010Prop39
140
1.0
102
RTVSPost2010PropOp39
 70
     1
102
RTVSPost2010Prop40
 90
        0
102
RTVSPost2010PropOp40
 70
     1
102
RTVSPost2010Prop41ColorIndex
 90
       18
102
RTVSPost2010Prop41ColorRGB
 90
        0
102
RTVSPost2010PropOp41
 70
     1
102
RTVSPost2010Prop42
 90
       50
102
RTVSPost2010PropOp42
 70
     1
102
RTVSPost2010Prop43
 90
        3
102
RTVSPost2010PropOp43
 70
     1
102
RTVSPost2010Prop44ColorIndex
 90
        5
102
RTVSPost2010Prop44ColorRGB
 90
      255
102
RTVSPost2010PropOp44
 70
     1
102
RTVSPost2010Prop45
280
     0
102
RTVSPost2010PropOp45
 70
     1
102
RTVSPost2010Prop46
 90
       50
102
RTVSPost2010PropOp46
 70
     1
102
RTVSPost2010Prop47
 90
       50
102
RTVSPost2010PropOp47
 70
     1
102
RTVSPost2010Prop48
 90
       50
102
RTVSPost2010PropOp48
 70
     1
102
RTVSPost2010Prop49
280
     0
102
RTVSPost2010PropOp49
 70
     1
102
RTVSPost2010Prop50
 90
       50
102
RTVSPost2010PropOp50
 70
     1
102
RTVSPost2010Prop51ColorIndex
 90
      256
102
RTVSPost2010Prop51ColorRGB
 90
-16777216
102
RTVSPost2010PropOp51
 70
     0
102
RTVSPost2010Prop52
140
1.0
102
RTVSPost2010PropOp52
 70
     0
102
RTVSPost2010Prop53
 90
        2
102
RTVSPost2010PropOp53
 70
     1
102
RTVSPost2010Prop54
  1
strokes_ogs.tif
102
RTVSPost2010PropOp54
 70
     1
102
RTVSPost2010Prop55
280
     0
102
RTVSPost2010PropOp55
 70
     1
102
RTVSPost2010Prop56
140
1.0
102
RTVSPost2010PropOp56
 70
     1
102
RTVSPost2010Prop57
140
1.0
102
RTVSPost2010PropOp57
 70
     1
102
RTVSPropertyOp0
 70
     1
102
RTVSPropertyOp1
 70
     1
102
RTVSPropertyOp2
 70
     1
102
RTVSPropertyOp3
 70
     1
102
RTVSPropertyOp4
 70
     1
102
RTVSPropertyOp5
 70
     1
102
RTVSPropertyOp6
 70
     1
102
RTVSPropertyOp7
 70
     1
102
RTVSPropertyOp8
 70
     1
102
RTVSPropertyOp9
 70
     1
102
RTVSPropertyOp10
 70
     1
102
RTVSPropertyOp11
 70
     1
102
RTVSPropertyOp12
 70
     1
102
RTVSPropertyOp13
 70
     1
102
RTVSPropertyOp14
 70
     1
102
RTVSPropertyOp15
 70
     1
102
RTVSPropertyOp16
 70
     1
102
RTVSPropertyOp17
 70
     1
102
RTVSPropertyOp18
 70
     1
102
RTVSPropertyOp19
 70
     1
102
RTVSPropertyOp20
 70
     1
102
RTVSPropertyOp21
 70
     1
102
RTVSPropertyOp22
 70
     1
102
RTVSPropertyOp23
 70
     1
102
RTVSPropertyOp24
 70
     1
102
RTVSPropertyOp25
 70
     1
102
RTVSPropertyOp26
 70
     1
102
RTVSPropertyOp27
 70
     1
102
RTVSPropertyOp28
 70
     1
102
RTVSPropertyOp29
 70
     1
102
RTVSPropertyOp30
 70
     1
102
RTVSPropertyOp31
 70
     1
102
RTVSPropertyOp32
 70
     1
102
RTVSPropertyOp33
 70
     1
102
RTVSPropertyOp34
 70
     1
102
RTVSPropertyOp35
 70
     1
102
RTVSPropertyOp36
 70
     1
102
RTVSPropertyOp37
 70
     1
102
RTVSPropertyOp38
 70
     1
102
RTVSPropertyOp39
 70
     1
102
RTVSPropertyOp40
 70
     1
102
RTVSPropertyOp41
 70
     1
102
RTVSPropertyOp42
 70
     1
102
RTVSPropertyOp43
 70
     1
102
RTVSPropertyOp44
 70
     1
102
RTVSPropertyOp45
 70
     1
102
RTVSPropertyOp46
 70
     1
102
RTVSPropertyOp47
 70
     1
102
RTVSPropertyOp48
 70
     1
102
RTVSPropertyOp49
 70
     1
102
RTVSPropertyOp50
 70
     1
102
RTVSPropertyOp51
 70
     0
102
RTVSPropertyOp52
 70
     0
102
RTVSPropertyOp53
 70
     1
102
RTVSPropertyOp54
 70
     1
102
RTVSPropertyOp55
 70
     1
102
RTVSPropertyOp56
 70
     1
102
RTVSPropertyOp57
 70
     1
102
RTVSPropertyOp58
 70
     1
102
RTVSPropertyOp59
 70
     1
102
RTVSPropertyOp60
 70
     1
102
RTVSPropertyOp61
 70
     1
102
RTVSPropertyOp62
 70
     1
  0
XRECORD
  5
223
102
{ACAD_REACTORS
330
222
102
}
330
222
100
AcDbXrecord
280
     1
102
RTVSPost2010Prop28
280
     0
102
RTVSPost2010PropOp28
 70
     1
102
RTVSPost2010Prop29
280
     1
102
RTVSPost2010PropOp29
 70
     1
102
RTVSPost2010Prop30
280
     1
102
RTVSPost2010PropOp30
 70
     1
102
RTVSPost2010Prop31
280
     0
102
RTVSPost2010PropOp31
 70
     1
102
RTVSPost2010Prop32
280
     0
102
RTVSPost2010PropOp32
 70
     1
102
RTVSPost2010Prop33
280
     0
102
RTVSPost2010PropOp33
 70
     1
102
RTVSPost2010Prop34
280
     0
102
RTVSPost2010PropOp34
 70
     1
102
RTVSPost2010Prop35
280
     0
102
RTVSPost2010PropOp35
 70
     1
102
RTVSPost2010Prop36
280
     0
102
RTVSPost2010PropOp36
 70
     1
102
RTVSPost2010Prop37
 90
       50
102
RTVSPost2010PropOp37
 70
     1
102
RTVSPost2010Prop38
140
0.0
102
RTVSPost2010PropOp38
 70
     1
102
RTVSPost2010Prop39
140
1.0
102
RTVSPost2010PropOp39
 70
     1
102
RTVSPost2010Prop40
 90
        0
102
RTVSPost2010PropOp40
 70
     1
102
RTVSPost2010Prop41ColorIndex
 90
       18
102
RTVSPost2010Prop41ColorRGB
 90
        0
102
RTVSPost2010PropOp41
 70
     1
102
RTVSPost2010Prop42
 90
       50
102
RTVSPost2010PropOp42
 70
     1
102
RTVSPost2010Prop43
 90
        3
102
RTVSPost2010PropOp43
 70
     1
102
RTVSPost2010Prop44ColorIndex
 90
        5
102
RTVSPost2010Prop44ColorRGB
 90
      255
102
RTVSPost2010PropOp44
 70
     1
102
RTVSPost2010Prop45
280
     0
102
RTVSPost2010PropOp45
 70
     1
102
RTVSPost2010Prop46
 90
       50
102
RTVSPost2010PropOp46
 70
     1
102
RTVSPost2010Prop47
 90
       50
102
RTVSPost2010PropOp47
 70
     1
102
RTVSPost2010Prop48
 90
       50
102
RTVSPost2010PropOp48
 70
     1
102
RTVSPost2010Prop49
280
     0
102
RTVSPost2010PropOp49
 70
     1
102
RTVSPost2010Prop50
 90
       50
102
RTVSPost2010PropOp50
 70
     1
102
RTVSPost2010Prop51ColorIndex
 90
      256
102
RTVSPost2010Prop51ColorRGB
 90
-16777216
102
RTVSPost2010PropOp51
 70
     0
102
RTVSPost2010Prop52
140
1.0
102
RTVSPost2010PropOp52
 70
     0
102
RTVSPost2010Prop53
 90
        2
102
RTVSPost2010PropOp53
 70
     1
102
RTVSPost2010Prop54
  1
strokes_ogs.tif
102
RTVSPost2010PropOp54
 70
     1
102
RTVSPost2010Prop55
280
     0
102
RTVSPost2010PropOp55
 70
     1
102
RTVSPost2010Prop56
140
1.0
102
RTVSPost2010PropOp56
 70
     1
102
RTVSPost2010Prop57
140
1.0
102
RTVSPost2010PropOp57
 70
     1
102
RTVSPropertyOp0
 70
     1
102
RTVSPropertyOp1
 70
     1
102
RTVSPropertyOp2
 70
     1
102
RTVSPropertyOp3
 70
     1
102
RTVSPropertyOp4
 70
     1
102
RTVSPropertyOp5
 70
     1
102
RTVSPropertyOp6
 70
     1
102
RTVSPropertyOp7
 70
     1
102
RTVSPropertyOp8
 70
     1
102
RTVSPropertyOp9
 70
     1
102
RTVSPropertyOp10
 70
     1
102
RTVSPropertyOp11
 70
     1
102
RTVSPropertyOp12
 70
     1
102
RTVSPropertyOp13
 70
     1
102
RTVSPropertyOp14
 70
     1
102
RTVSPropertyOp15
 70
     1
102
RTVSPropertyOp16
 70
     1
102
RTVSPropertyOp17
 70
     1
102
RTVSPropertyOp18
 70
     1
102
RTVSPropertyOp19
 70
     1
102
RTVSPropertyOp20
 70
     1
102
RTVSPropertyOp21
 70
     1
102
RTVSPropertyOp22
 70
     1
102
RTVSPropertyOp23
 70
     1
102
RTVSPropertyOp24
 70
     1
102
RTVSPropertyOp25
 70
     1
102
RTVSPropertyOp26
 70
     1
102
RTVSPropertyOp27
 70
     1
102
RTVSPropertyOp28
 70
     1
102
RTVSPropertyOp29
 70
     1
102
RTVSPropertyOp30
 70
     1
102
RTVSPropertyOp31
 70
     1
102
RTVSPropertyOp32
 70
     1
102
RTVSPropertyOp33
 70
     1
102
RTVSPropertyOp34
 70
     1
102
RTVSPropertyOp35
 70
     1
102
RTVSPropertyOp36
 70
     1
102
RTVSPropertyOp37
 70
     1
102
RTVSPropertyOp38
 70
     1
102
RTVSPropertyOp39
 70
     1
102
RTVSPropertyOp40
 70
     1
102
RTVSPropertyOp41
 70
     1
102
RTVSPropertyOp42
 70
     1
102
RTVSPropertyOp43
 70
     1
102
RTVSPropertyOp44
 70
     1
102
RTVSPropertyOp45
 70
     1
102
RTVSPropertyOp46
 70
     1
102
RTVSPropertyOp47
 70
     1
102
RTVSPropertyOp48
 70
     1
102
RTVSPropertyOp49
 70
     1
102
RTVSPropertyOp50
 70
     1
102
RTVSPropertyOp51
 70
     0
102
RTVSPropertyOp52
 70
     0
102
RTVSPropertyOp53
 70
     1
102
RTVSPropertyOp54
 70
     1
102
RTVSPropertyOp55
 70
     1
102
RTVSPropertyOp56
 70
     1
102
RTVSPropertyOp57
 70
     1
102
RTVSPropertyOp58
 70
     1
102
RTVSPropertyOp59
 70
     1
102
RTVSPropertyOp60
 70
     1
102
RTVSPropertyOp61
 70
     1
102
RTVSPropertyOp62
 70
     1
  0
XRECORD
  5
225
102
{ACAD_REACTORS
330
224
102
}
330
224
100
AcDbXrecord
280
     1
102
RTVSPost2010Prop28
280
     0
102
RTVSPost2010PropOp28
 70
     1
102
RTVSPost2010Prop29
280
     1
102
RTVSPost2010PropOp29
 70
     1
102
RTVSPost2010Prop30
280
     1
102
RTVSPost2010PropOp30
 70
     1
102
RTVSPost2010Prop31
280
     0
102
RTVSPost2010PropOp31
 70
     1
102
RTVSPost2010Prop32
280
     0
102
RTVSPost2010PropOp32
 70
     1
102
RTVSPost2010Prop33
280
     0
102
RTVSPost2010PropOp33
 70
     1
102
RTVSPost2010Prop34
280
     0
102
RTVSPost2010PropOp34
 70
     1
102
RTVSPost2010Prop35
280
     0
102
RTVSPost2010PropOp35
 70
     1
102
RTVSPost2010Prop36
280
     0
102
RTVSPost2010PropOp36
 70
     1
102
RTVSPost2010Prop37
 90
       50
102
RTVSPost2010PropOp37
 70
     1
102
RTVSPost2010Prop38
140
0.0
102
RTVSPost2010PropOp38
 70
     1
102
RTVSPost2010Prop39
140
1.0
102
RTVSPost2010PropOp39
 70
     1
102
RTVSPost2010Prop40
 90
        0
102
RTVSPost2010PropOp40
 70
     1
102
RTVSPost2010Prop41ColorIndex
 90
       18
102
RTVSPost2010Prop41ColorRGB
 90
        0
102
RTVSPost2010PropOp41
 70
     1
102
RTVSPost2010Prop42
 90
       50
102
RTVSPost2010PropOp42
 70
     1
102
RTVSPost2010Prop43
 90
        3
102
RTVSPost2010PropOp43
 70
     1
102
RTVSPost2010Prop44ColorIndex
 90
        5
102
RTVSPost2010Prop44ColorRGB
 90
      255
102
RTVSPost2010PropOp44
 70
     1
102
RTVSPost2010Prop45
280
     0
102
RTVSPost2010PropOp45
 70
     1
102
RTVSPost2010Prop46
 90
       50
102
RTVSPost2010PropOp46
 70
     1
102
RTVSPost2010Prop47
 90
       50
102
RTVSPost2010PropOp47
 70
     1
102
RTVSPost2010Prop48
 90
       50
102
RTVSPost2010PropOp48
 70
     1
102
RTVSPost2010Prop49
280
     0
102
RTVSPost2010PropOp49
 70
     1
102
RTVSPost2010Prop50
 90
       50
102
RTVSPost2010PropOp50
 70
     1
102
RTVSPost2010Prop51ColorIndex
 90
      256
102
RTVSPost2010Prop51ColorRGB
 90
-16777216
102
RTVSPost2010PropOp51
 70
     0
102
RTVSPost2010Prop52
140
1.0
102
RTVSPost2010PropOp52
 70
     0
102
RTVSPost2010Prop53
 90
        2
102
RTVSPost2010PropOp53
 70
     1
102
RTVSPost2010Prop54
  1
strokes_ogs.tif
102
RTVSPost2010PropOp54
 70
     1
102
RTVSPost2010Prop55
280
     0
102
RTVSPost2010PropOp55
 70
     1
102
RTVSPost2010Prop56
140
1.0
102
RTVSPost2010PropOp56
 70
     1
102
RTVSPost2010Prop57
140
1.0
102
RTVSPost2010PropOp57
 70
     1
102
RTVSPropertyOp0
 70
     1
102
RTVSPropertyOp1
 70
     1
102
RTVSPropertyOp2
 70
     1
102
RTVSPropertyOp3
 70
     1
102
RTVSPropertyOp4
 70
     1
102
RTVSPropertyOp5
 70
     1
102
RTVSPropertyOp6
 70
     1
102
RTVSPropertyOp7
 70
     1
102
RTVSPropertyOp8
 70
     1
102
RTVSPropertyOp9
 70
     1
102
RTVSPropertyOp10
 70
     1
102
RTVSPropertyOp11
 70
     1
102
RTVSPropertyOp12
 70
     1
102
RTVSPropertyOp13
 70
     1
102
RTVSPropertyOp14
 70
     1
102
RTVSPropertyOp15
 70
     1
102
RTVSPropertyOp16
 70
     1
102
RTVSPropertyOp17
 70
     1
102
RTVSPropertyOp18
 70
     1
102
RTVSPropertyOp19
 70
     1
102
RTVSPropertyOp20
 70
     1
102
RTVSPropertyOp21
 70
     1
102
RTVSPropertyOp22
 70
     1
102
RTVSPropertyOp23
 70
     1
102
RTVSPropertyOp24
 70
     1
102
RTVSPropertyOp25
 70
     1
102
RTVSPropertyOp26
 70
     1
102
RTVSPropertyOp27
 70
     1
102
RTVSPropertyOp28
 70
     1
102
RTVSPropertyOp29
 70
     1
102
RTVSPropertyOp30
 70
     1
102
RTVSPropertyOp31
 70
     1
102
RTVSPropertyOp32
 70
     1
102
RTVSPropertyOp33
 70
     1
102
RTVSPropertyOp34
 70
     1
102
RTVSPropertyOp35
 70
     1
102
RTVSPropertyOp36
 70
     1
102
RTVSPropertyOp37
 70
     1
102
RTVSPropertyOp38
 70
     1
102
RTVSPropertyOp39
 70
     1
102
RTVSPropertyOp40
 70
     1
102
RTVSPropertyOp41
 70
     1
102
RTVSPropertyOp42
 70
     1
102
RTVSPropertyOp43
 70
     1
102
RTVSPropertyOp44
 70
     1
102
RTVSPropertyOp45
 70
     1
102
RTVSPropertyOp46
 70
     1
102
RTVSPropertyOp47
 70
     1
102
RTVSPropertyOp48
 70
     1
102
RTVSPropertyOp49
 70
     1
102
RTVSPropertyOp50
 70
     1
102
RTVSPropertyOp51
 70
     0
102
RTVSPropertyOp52
 70
     0
102
RTVSPropertyOp53
 70
     1
102
RTVSPropertyOp54
 70
     1
102
RTVSPropertyOp55
 70
     1
102
RTVSPropertyOp56
 70
     1
102
RTVSPropertyOp57
 70
     1
102
RTVSPropertyOp58
 70
     1
102
RTVSPropertyOp59
 70
     1
102
RTVSPropertyOp60
 70
     1
102
RTVSPropertyOp61
 70
     1
102
RTVSPropertyOp62
 70
     1
  0
XRECORD
  5
22D
102
{ACAD_REACTORS
330
22C
102
}
330
22C
100
AcDbXrecord
280
     1
102
RTVSPost2010Prop28
280
     0
102
RTVSPost2010PropOp28
 70
     1
102
RTVSPost2010Prop29
280
     1
102
RTVSPost2010PropOp29
 70
     1
102
RTVSPost2010Prop30
280
     1
102
RTVSPost2010PropOp30
 70
     1
102
RTVSPost2010Prop31
280
     0
102
RTVSPost2010PropOp31
 70
     1
102
RTVSPost2010Prop32
280
     0
102
RTVSPost2010PropOp32
 70
     1
102
RTVSPost2010Prop33
280
     0
102
RTVSPost2010PropOp33
 70
     1
102
RTVSPost2010Prop34
280
     0
102
RTVSPost2010PropOp34
 70
     1
102
RTVSPost2010Prop35
280
     0
102
RTVSPost2010PropOp35
 70
     1
102
RTVSPost2010Prop36
280
     0
102
RTVSPost2010PropOp36
 70
     1
102
RTVSPost2010Prop37
 90
       50
102
RTVSPost2010PropOp37
 70
     1
102
RTVSPost2010Prop38
140
0.0
102
RTVSPost2010PropOp38
 70
     1
102
RTVSPost2010Prop39
140
1.0
102
RTVSPost2010PropOp39
 70
     1
102
RTVSPost2010Prop40
 90
        0
102
RTVSPost2010PropOp40
 70
     1
102
RTVSPost2010Prop41ColorIndex
 90
       18
102
RTVSPost2010Prop41ColorRGB
 90
        0
102
RTVSPost2010PropOp41
 70
     1
102
RTVSPost2010Prop42
 90
       50
102
RTVSPost2010PropOp42
 70
     1
102
RTVSPost2010Prop43
 90
        3
102
RTVSPost2010PropOp43
 70
     1
102
RTVSPost2010Prop44ColorIndex
 90
        5
102
RTVSPost2010Prop44ColorRGB
 90
      255
102
RTVSPost2010PropOp44
 70
     1
102
RTVSPost2010Prop45
280
     0
102
RTVSPost2010PropOp45
 70
     1
102
RTVSPost2010Prop46
 90
       50
102
RTVSPost2010PropOp46
 70
     1
102
RTVSPost2010Prop47
 90
       50
102
RTVSPost2010PropOp47
 70
     1
102
RTVSPost2010Prop48
 90
       50
102
RTVSPost2010PropOp48
 70
     1
102
RTVSPost2010Prop49
280
     0
102
RTVSPost2010PropOp49
 70
     1
102
RTVSPost2010Prop50
 90
       50
102
RTVSPost2010PropOp50
 70
     1
102
RTVSPost2010Prop51ColorIndex
 90
      256
102
RTVSPost2010Prop51ColorRGB
 90
-16777216
102
RTVSPost2010PropOp51
 70
     0
102
RTVSPost2010Prop52
140
1.0
102
RTVSPost2010PropOp52
 70
     0
102
RTVSPost2010Prop53
 90
        2
102
RTVSPost2010PropOp53
 70
     1
102
RTVSPost2010Prop54
  1
strokes_ogs.tif
102
RTVSPost2010PropOp54
 70
     1
102
RTVSPost2010Prop55
280
     0
102
RTVSPost2010PropOp55
 70
     1
102
RTVSPost2010Prop56
140
1.0
102
RTVSPost2010PropOp56
 70
     1
102
RTVSPost2010Prop57
140
1.0
102
RTVSPost2010PropOp57
 70
     1
102
RTVSPropertyOp0
 70
     1
102
RTVSPropertyOp1
 70
     1
102
RTVSPropertyOp2
 70
     1
102
RTVSPropertyOp3
 70
     1
102
RTVSPropertyOp4
 70
     1
102
RTVSPropertyOp5
 70
     1
102
RTVSPropertyOp6
 70
     1
102
RTVSPropertyOp7
 70
     1
102
RTVSPropertyOp8
 70
     1
102
RTVSPropertyOp9
 70
     1
102
RTVSPropertyOp10
 70
     1
102
RTVSPropertyOp11
 70
     1
102
RTVSPropertyOp12
 70
     1
102
RTVSPropertyOp13
 70
     1
102
RTVSPropertyOp14
 70
     1
102
RTVSPropertyOp15
 70
     1
102
RTVSPropertyOp16
 70
     1
102
RTVSPropertyOp17
 70
     1
102
RTVSPropertyOp18
 70
     1
102
RTVSPropertyOp19
 70
     1
102
RTVSPropertyOp20
 70
     1
102
RTVSPropertyOp21
 70
     1
102
RTVSPropertyOp22
 70
     1
102
RTVSPropertyOp23
 70
     1
102
RTVSPropertyOp24
 70
     1
102
RTVSPropertyOp25
 70
     1
102
RTVSPropertyOp26
 70
     1
102
RTVSPropertyOp27
 70
     1
102
RTVSPropertyOp28
 70
     1
102
RTVSPropertyOp29
 70
     1
102
RTVSPropertyOp30
 70
     1
102
RTVSPropertyOp31
 70
     1
102
RTVSPropertyOp32
 70
     1
102
RTVSPropertyOp33
 70
     1
102
RTVSPropertyOp34
 70
     1
102
RTVSPropertyOp35
 70
     1
102
RTVSPropertyOp36
 70
     1
102
RTVSPropertyOp37
 70
     1
102
RTVSPropertyOp38
 70
     1
102
RTVSPropertyOp39
 70
     1
102
RTVSPropertyOp40
 70
     1
102
RTVSPropertyOp41
 70
     1
102
RTVSPropertyOp42
 70
     1
102
RTVSPropertyOp43
 70
     1
102
RTVSPropertyOp44
 70
     1
102
RTVSPropertyOp45
 70
     1
102
RTVSPropertyOp46
 70
     1
102
RTVSPropertyOp47
 70
     1
102
RTVSPropertyOp48
 70
     1
102
RTVSPropertyOp49
 70
     1
102
RTVSPropertyOp50
 70
     1
102
RTVSPropertyOp51
 70
     0
102
RTVSPropertyOp52
 70
     0
102
RTVSPropertyOp53
 70
     1
102
RTVSPropertyOp54
 70
     1
102
RTVSPropertyOp55
 70
     1
102
RTVSPropertyOp56
 70
     1
102
RTVSPropertyOp57
 70
     1
102
RTVSPropertyOp58
 70
     1
102
RTVSPropertyOp59
 70
     1
102
RTVSPropertyOp60
 70
     1
102
RTVSPropertyOp61
 70
     1
102
RTVSPropertyOp62
 70
     1
  0
XRECORD
  5
249
102
{ACAD_REACTORS
330
248
102
}
330
248
100
AcDbXrecord
280
     1
102
RTVSPost2010Prop28
280
     0
102
RTVSPost2010PropOp28
 70
     0
102
RTVSPost2010Prop29
280
     1
102
RTVSPost2010PropOp29
 70
     0
102
RTVSPost2010Prop30
280
     1
102
RTVSPost2010PropOp30
 70
     0
102
RTVSPost2010Prop31
280
     0
102
RTVSPost2010PropOp31
 70
     0
102
RTVSPost2010Prop32
280
     0
102
RTVSPost2010PropOp32
 70
     0
102
RTVSPost2010Prop33
280
     0
102
RTVSPost2010PropOp33
 70
     0
102
RTVSPost2010Prop34
280
     0
102
RTVSPost2010PropOp34
 70
     0
102
RTVSPost2010Prop35
280
     0
102
RTVSPost2010PropOp35
 70
     0
102
RTVSPost2010Prop36
280
     0
102
RTVSPost2010PropOp36
 70
     0
102
RTVSPost2010Prop37
 90
       50
102
RTVSPost2010PropOp37
 70
     0
102
RTVSPost2010Prop38
140
0.0
102
RTVSPost2010PropOp38
 70
     0
102
RTVSPost2010Prop39
140
1.0
102
RTVSPost2010PropOp39
 70
     0
102
RTVSPost2010Prop40
 90
        0
102
RTVSPost2010PropOp40
 70
     0
102
RTVSPost2010Prop41ColorIndex
 90
       18
102
RTVSPost2010Prop41ColorRGB
 90
        0
102
RTVSPost2010PropOp41
 70
     0
102
RTVSPost2010Prop42
 90
       50
102
RTVSPost2010PropOp42
 70
     0
102
RTVSPost2010Prop43
 90
        3
102
RTVSPost2010PropOp43
 70
     0
102
RTVSPost2010Prop44ColorIndex
 90
        5
102
RTVSPost2010Prop44ColorRGB
 90
      255
102
RTVSPost2010PropOp44
 70
     0
102
RTVSPost2010Prop45
280
     0
102
RTVSPost2010PropOp45
 70
     0
102
RTVSPost2010Prop46
 90
       50
102
RTVSPost2010PropOp46
 70
     0
102
RTVSPost2010Prop47
 90
       50
102
RTVSPost2010PropOp47
 70
     0
102
RTVSPost2010Prop48
 90
       50
102
RTVSPost2010PropOp48
 70
     0
102
RTVSPost2010Prop49
280
     0
102
RTVSPost2010PropOp49
 70
     0
102
RTVSPost2010Prop50
 90
       50
102
RTVSPost2010PropOp50
 70
     0
102
RTVSPost2010Prop51ColorIndex
 90
      256
102
RTVSPost2010Prop51ColorRGB
 90
-16777216
102
RTVSPost2010PropOp51
 70
     0
102
RTVSPost2010Prop52
140
1.0
102
RTVSPost2010PropOp52
 70
     0
102
RTVSPost2010Prop53
 90
        2
102
RTVSPost2010PropOp53
 70
     0
102
RTVSPost2010Prop54
  1
strokes_ogs.tif
102
RTVSPost2010PropOp54
 70
     0
102
RTVSPost2010Prop55
280
     0
102
RTVSPost2010PropOp55
 70
     0
102
RTVSPost2010Prop56
140
1.0
102
RTVSPost2010PropOp56
 70
     0
102
RTVSPost2010Prop57
140
1.0
102
RTVSPost2010PropOp57
 70
     0
102
RTVSPropertyOp0
 70
     0
102
RTVSPropertyOp1
 70
     0
102
RTVSPropertyOp2
 70
     0
102
RTVSPropertyOp3
 70
     0
102
RTVSPropertyOp4
 70
     0
102
RTVSPropertyOp5
 70
     0
102
RTVSPropertyOp6
 70
     0
102
RTVSPropertyOp7
 70
     0
102
RTVSPropertyOp8
 70
     0
102
RTVSPropertyOp9
 70
     0
102
RTVSPropertyOp10
 70
     0
102
RTVSPropertyOp11
 70
     0
102
RTVSPropertyOp12
 70
     0
102
RTVSPropertyOp13
 70
     0
102
RTVSPropertyOp14
 70
     2
102
RTVSPropertyOp15
 70
     0
102
RTVSPropertyOp16
 70
     0
102
RTVSPropertyOp17
 70
     0
102
RTVSPropertyOp18
 70
     0
102
RTVSPropertyOp19
 70
     0
102
RTVSPropertyOp20
 70
     0
102
RTVSPropertyOp21
 70
     0
102
RTVSPropertyOp22
 70
     0
102
RTVSPropertyOp23
 70
     0
102
RTVSPropertyOp24
 70
     0
102
RTVSPropertyOp25
 70
     0
102
RTVSPropertyOp26
 70
     0
102
RTVSPropertyOp27
 70
     0
102
RTVSPropertyOp28
 70
     0
102
RTVSPropertyOp29
 70
     0
102
RTVSPropertyOp30
 70
     0
102
RTVSPropertyOp31
 70
     0
102
RTVSPropertyOp32
 70
     0
102
RTVSPropertyOp33
 70
     0
102
RTVSPropertyOp34
 70
     0
102
RTVSPropertyOp35
 70
     0
102
RTVSPropertyOp36
 70
     0
102
RTVSPropertyOp37
 70
     0
102
RTVSPropertyOp38
 70
     0
102
RTVSPropertyOp39
 70
     0
102
RTVSPropertyOp40
 70
     0
102
RTVSPropertyOp41
 70
     0
102
RTVSPropertyOp42
 70
     0
102
RTVSPropertyOp43
 70
     0
102
RTVSPropertyOp44
 70
     0
102
RTVSPropertyOp45
 70
     0
102
RTVSPropertyOp46
 70
     0
102
RTVSPropertyOp47
 70
     0
102
RTVSPropertyOp48
 70
     0
102
RTVSPropertyOp49
 70
     0
102
RTVSPropertyOp50
 70
     0
102
RTVSPropertyOp51
 70
     0
102
RTVSPropertyOp52
 70
     0
102
RTVSPropertyOp53
 70
     0
102
RTVSPropertyOp54
 70
     0
102
RTVSPropertyOp55
 70
     0
102
RTVSPropertyOp56
 70
     0
102
RTVSPropertyOp57
 70
     0
102
RTVSPropertyOp58
 70
     0
102
RTVSPropertyOp59
 70
     0
102
RTVSPropertyOp60
 70
     0
102
RTVSPropertyOp61
 70
     0
102
RTVSPropertyOp62
 70
     0
  0
XRECORD
  5
239
102
{ACAD_REACTORS
330
238
102
}
330
238
100
AcDbXrecord
280
     1
102
RTVSPost2010Prop28
280
     0
102
RTVSPost2010PropOp28
 70
     1
102
RTVSPost2010Prop29
280
     1
102
RTVSPost2010PropOp29
 70
     1
102
RTVSPost2010Prop30
280
     1
102
RTVSPost2010PropOp30
 70
     1
102
RTVSPost2010Prop31
280
     0
102
RTVSPost2010PropOp31
 70
     1
102
RTVSPost2010Prop32
280
     0
102
RTVSPost2010PropOp32
 70
     1
102
RTVSPost2010Prop33
280
     0
102
RTVSPost2010PropOp33
 70
     1
102
RTVSPost2010Prop34
280
     0
102
RTVSPost2010PropOp34
 70
     1
102
RTVSPost2010Prop35
280
     0
102
RTVSPost2010PropOp35
 70
     1
102
RTVSPost2010Prop36
280
     0
102
RTVSPost2010PropOp36
 70
     1
102
RTVSPost2010Prop37
 90
       50
102
RTVSPost2010PropOp37
 70
     1
102
RTVSPost2010Prop38
140
0.0
102
RTVSPost2010PropOp38
 70
     1
102
RTVSPost2010Prop39
140
1.0
102
RTVSPost2010PropOp39
 70
     1
102
RTVSPost2010Prop40
 90
        0
102
RTVSPost2010PropOp40
 70
     1
102
RTVSPost2010Prop41ColorIndex
 90
       18
102
RTVSPost2010Prop41ColorRGB
 90
        0
102
RTVSPost2010PropOp41
 70
     1
102
RTVSPost2010Prop42
 90
       50
102
RTVSPost2010PropOp42
 70
     1
102
RTVSPost2010Prop43
 90
        3
102
RTVSPost2010PropOp43
 70
     1
102
RTVSPost2010Prop44ColorIndex
 90
        5
102
RTVSPost2010Prop44ColorRGB
 90
      255
102
RTVSPost2010PropOp44
 70
     1
102
RTVSPost2010Prop45
280
     0
102
RTVSPost2010PropOp45
 70
     1
102
RTVSPost2010Prop46
 90
       50
102
RTVSPost2010PropOp46
 70
     1
102
RTVSPost2010Prop47
 90
       50
102
RTVSPost2010PropOp47
 70
     1
102
RTVSPost2010Prop48
 90
       50
102
RTVSPost2010PropOp48
 70
     1
102
RTVSPost2010Prop49
280
     0
102
RTVSPost2010PropOp49
 70
     1
102
RTVSPost2010Prop50
 90
       50
102
RTVSPost2010PropOp50
 70
     1
102
RTVSPost2010Prop51ColorIndex
 90
      256
102
RTVSPost2010Prop51ColorRGB
 90
-16777216
102
RTVSPost2010PropOp51
 70
     0
102
RTVSPost2010Prop52
140
1.0
102
RTVSPost2010PropOp52
 70
     0
102
RTVSPost2010Prop53
 90
        2
102
RTVSPost2010PropOp53
 70
     1
102
RTVSPost2010Prop54
  1
strokes_ogs.tif
102
RTVSPost2010PropOp54
 70
     1
102
RTVSPost2010Prop55
280
     0
102
RTVSPost2010PropOp55
 70
     1
102
RTVSPost2010Prop56
140
1.0
102
RTVSPost2010PropOp56
 70
     1
102
RTVSPost2010Prop57
140
1.0
102
RTVSPost2010PropOp57
 70
     1
102
RTVSPropertyOp0
 70
     1
102
RTVSPropertyOp1
 70
     1
102
RTVSPropertyOp2
 70
     1
102
RTVSPropertyOp3
 70
     1
102
RTVSPropertyOp4
 70
     1
102
RTVSPropertyOp5
 70
     1
102
RTVSPropertyOp6
 70
     1
102
RTVSPropertyOp7
 70
     1
102
RTVSPropertyOp8
 70
     1
102
RTVSPropertyOp9
 70
     1
102
RTVSPropertyOp10
 70
     1
102
RTVSPropertyOp11
 70
     1
102
RTVSPropertyOp12
 70
     1
102
RTVSPropertyOp13
 70
     1
102
RTVSPropertyOp14
 70
     1
102
RTVSPropertyOp15
 70
     1
102
RTVSPropertyOp16
 70
     1
102
RTVSPropertyOp17
 70
     1
102
RTVSPropertyOp18
 70
     1
102
RTVSPropertyOp19
 70
     1
102
RTVSPropertyOp20
 70
     1
102
RTVSPropertyOp21
 70
     1
102
RTVSPropertyOp22
 70
     1
102
RTVSPropertyOp23
 70
     1
102
RTVSPropertyOp24
 70
     1
102
RTVSPropertyOp25
 70
     1
102
RTVSPropertyOp26
 70
     1
102
RTVSPropertyOp27
 70
     1
102
RTVSPropertyOp28
 70
     1
102
RTVSPropertyOp29
 70
     1
102
RTVSPropertyOp30
 70
     1
102
RTVSPropertyOp31
 70
     1
102
RTVSPropertyOp32
 70
     1
102
RTVSPropertyOp33
 70
     1
102
RTVSPropertyOp34
 70
     1
102
RTVSPropertyOp35
 70
     1
102
RTVSPropertyOp36
 70
     1
102
RTVSPropertyOp37
 70
     1
102
RTVSPropertyOp38
 70
     1
102
RTVSPropertyOp39
 70
     1
102
RTVSPropertyOp40
 70
     1
102
RTVSPropertyOp41
 70
     1
102
RTVSPropertyOp42
 70
     1
102
RTVSPropertyOp43
 70
     1
102
RTVSPropertyOp44
 70
     1
102
RTVSPropertyOp45
 70
     1
102
RTVSPropertyOp46
 70
     1
102
RTVSPropertyOp47
 70
     1
102
RTVSPropertyOp48
 70
     1
102
RTVSPropertyOp49
 70
     1
102
RTVSPropertyOp50
 70
     1
102
RTVSPropertyOp51
 70
     0
102
RTVSPropertyOp52
 70
     0
102
RTVSPropertyOp53
 70
     1
102
RTVSPropertyOp54
 70
     1
102
RTVSPropertyOp55
 70
     1
102
RTVSPropertyOp56
 70
     1
102
RTVSPropertyOp57
 70
     1
102
RTVSPropertyOp58
 70
     1
102
RTVSPropertyOp59
 70
     1
102
RTVSPropertyOp60
 70
     1
102
RTVSPropertyOp61
 70
     1
102
RTVSPropertyOp62
 70
     1
  0
XRECORD
  5
24B
102
{ACAD_REACTORS
330
24A
102
}
330
24A
100
AcDbXrecord
280
     1
102
RTVSPost2010Prop28
280
     0
102
RTVSPost2010PropOp28
 70
     0
102
RTVSPost2010Prop29
280
     1
102
RTVSPost2010PropOp29
 70
     0
102
RTVSPost2010Prop30
280
     1
102
RTVSPost2010PropOp30
 70
     0
102
RTVSPost2010Prop31
280
     0
102
RTVSPost2010PropOp31
 70
     0
102
RTVSPost2010Prop32
280
     0
102
RTVSPost2010PropOp32
 70
     0
102
RTVSPost2010Prop33
280
     0
102
RTVSPost2010PropOp33
 70
     0
102
RTVSPost2010Prop34
280
     0
102
RTVSPost2010PropOp34
 70
     0
102
RTVSPost2010Prop35
280
     0
102
RTVSPost2010PropOp35
 70
     0
102
RTVSPost2010Prop36
280
     0
102
RTVSPost2010PropOp36
 70
     0
102
RTVSPost2010Prop37
 90
       50
102
RTVSPost2010PropOp37
 70
     0
102
RTVSPost2010Prop38
140
0.0
102
RTVSPost2010PropOp38
 70
     0
102
RTVSPost2010Prop39
140
1.0
102
RTVSPost2010PropOp39
 70
     0
102
RTVSPost2010Prop40
 90
        0
102
RTVSPost2010PropOp40
 70
     0
102
RTVSPost2010Prop41ColorIndex
 90
       18
102
RTVSPost2010Prop41ColorRGB
 90
        0
102
RTVSPost2010PropOp41
 70
     0
102
RTVSPost2010Prop42
 90
       50
102
RTVSPost2010PropOp42
 70
     0
102
RTVSPost2010Prop43
 90
        3
102
RTVSPost2010PropOp43
 70
     0
102
RTVSPost2010Prop44ColorIndex
 90
        5
102
RTVSPost2010Prop44ColorRGB
 90
      255
102
RTVSPost2010PropOp44
 70
     0
102
RTVSPost2010Prop45
280
     0
102
RTVSPost2010PropOp45
 70
     0
102
RTVSPost2010Prop46
 90
       50
102
RTVSPost2010PropOp46
 70
     0
102
RTVSPost2010Prop47
 90
       50
102
RTVSPost2010PropOp47
 70
     0
102
RTVSPost2010Prop48
 90
       50
102
RTVSPost2010PropOp48
 70
     0
102
RTVSPost2010Prop49
280
     0
102
RTVSPost2010PropOp49
 70
     0
102
RTVSPost2010Prop50
 90
       50
102
RTVSPost2010PropOp50
 70
     0
102
RTVSPost2010Prop51ColorIndex
 90
      256
102
RTVSPost2010Prop51ColorRGB
 90
-16777216
102
RTVSPost2010PropOp51
 70
     0
102
RTVSPost2010Prop52
140
1.0
102
RTVSPost2010PropOp52
 70
     0
102
RTVSPost2010Prop53
 90
        2
102
RTVSPost2010PropOp53
 70
     0
102
RTVSPost2010Prop54
  1
strokes_ogs.tif
102
RTVSPost2010PropOp54
 70
     0
102
RTVSPost2010Prop55
280
     0
102
RTVSPost2010PropOp55
 70
     0
102
RTVSPost2010Prop56
140
1.0
102
RTVSPost2010PropOp56
 70
     0
102
RTVSPost2010Prop57
140
1.0
102
RTVSPost2010PropOp57
 70
     0
102
RTVSPropertyOp0
 70
     0
102
RTVSPropertyOp1
 70
     0
102
RTVSPropertyOp2
 70
     0
102
RTVSPropertyOp3
 70
     0
102
RTVSPropertyOp4
 70
     0
102
RTVSPropertyOp5
 70
     0
102
RTVSPropertyOp6
 70
     0
102
RTVSPropertyOp7
 70
     0
102
RTVSPropertyOp8
 70
     0
102
RTVSPropertyOp9
 70
     0
102
RTVSPropertyOp10
 70
     0
102
RTVSPropertyOp11
 70
     0
102
RTVSPropertyOp12
 70
     0
102
RTVSPropertyOp13
 70
     0
102
RTVSPropertyOp14
 70
     2
102
RTVSPropertyOp15
 70
     0
102
RTVSPropertyOp16
 70
     0
102
RTVSPropertyOp17
 70
     0
102
RTVSPropertyOp18
 70
     0
102
RTVSPropertyOp19
 70
     0
102
RTVSPropertyOp20
 70
     0
102
RTVSPropertyOp21
 70
     0
102
RTVSPropertyOp22
 70
     0
102
RTVSPropertyOp23
 70
     0
102
RTVSPropertyOp24
 70
     0
102
RTVSPropertyOp25
 70
     0
102
RTVSPropertyOp26
 70
     0
102
RTVSPropertyOp27
 70
     0
102
RTVSPropertyOp28
 70
     0
102
RTVSPropertyOp29
 70
     0
102
RTVSPropertyOp30
 70
     0
102
RTVSPropertyOp31
 70
     0
102
RTVSPropertyOp32
 70
     0
102
RTVSPropertyOp33
 70
     0
102
RTVSPropertyOp34
 70
     0
102
RTVSPropertyOp35
 70
     0
102
RTVSPropertyOp36
 70
     0
102
RTVSPropertyOp37
 70
     0
102
RTVSPropertyOp38
 70
     0
102
RTVSPropertyOp39
 70
     0
102
RTVSPropertyOp40
 70
     0
102
RTVSPropertyOp41
 70
     0
102
RTVSPropertyOp42
 70
     0
102
RTVSPropertyOp43
 70
     0
102
RTVSPropertyOp44
 70
     0
102
RTVSPropertyOp45
 70
     0
102
RTVSPropertyOp46
 70
     0
102
RTVSPropertyOp47
 70
     0
102
RTVSPropertyOp48
 70
     0
102
RTVSPropertyOp49
 70
     0
102
RTVSPropertyOp50
 70
     0
102
RTVSPropertyOp51
 70
     0
102
RTVSPropertyOp52
 70
     0
102
RTVSPropertyOp53
 70
     0
102
RTVSPropertyOp54
 70
     0
102
RTVSPropertyOp55
 70
     0
102
RTVSPropertyOp56
 70
     0
102
RTVSPropertyOp57
 70
     0
102
RTVSPropertyOp58
 70
     0
102
RTVSPropertyOp59
 70
     0
102
RTVSPropertyOp60
 70
     0
102
RTVSPropertyOp61
 70
     0
102
RTVSPropertyOp62
 70
     0
  0
XRECORD
  5
231
102
{ACAD_REACTORS
330
230
102
}
330
230
100
AcDbXrecord
280
     1
102
RTVSPost2010Prop28
280
     0
102
RTVSPost2010PropOp28
 70
     1
102
RTVSPost2010Prop29
280
     1
102
RTVSPost2010PropOp29
 70
     1
102
RTVSPost2010Prop30
280
     1
102
RTVSPost2010PropOp30
 70
     1
102
RTVSPost2010Prop31
280
     0
102
RTVSPost2010PropOp31
 70
     1
102
RTVSPost2010Prop32
280
     0
102
RTVSPost2010PropOp32
 70
     1
102
RTVSPost2010Prop33
280
     0
102
RTVSPost2010PropOp33
 70
     1
102
RTVSPost2010Prop34
280
     0
102
RTVSPost2010PropOp34
 70
     1
102
RTVSPost2010Prop35
280
     0
102
RTVSPost2010PropOp35
 70
     1
102
RTVSPost2010Prop36
280
     0
102
RTVSPost2010PropOp36
 70
     1
102
RTVSPost2010Prop37
 90
       50
102
RTVSPost2010PropOp37
 70
     1
102
RTVSPost2010Prop38
140
0.0
102
RTVSPost2010PropOp38
 70
     1
102
RTVSPost2010Prop39
140
1.0
102
RTVSPost2010PropOp39
 70
     1
102
RTVSPost2010Prop40
 90
        0
102
RTVSPost2010PropOp40
 70
     1
102
RTVSPost2010Prop41ColorIndex
 90
       18
102
RTVSPost2010Prop41ColorRGB
 90
        0
102
RTVSPost2010PropOp41
 70
     1
102
RTVSPost2010Prop42
 90
       50
102
RTVSPost2010PropOp42
 70
     1
102
RTVSPost2010Prop43
 90
        3
102
RTVSPost2010PropOp43
 70
     1
102
RTVSPost2010Prop44ColorIndex
 90
        5
102
RTVSPost2010Prop44ColorRGB
 90
      255
102
RTVSPost2010PropOp44
 70
     1
102
RTVSPost2010Prop45
280
     0
102
RTVSPost2010PropOp45
 70
     1
102
RTVSPost2010Prop46
 90
       50
102
RTVSPost2010PropOp46
 70
     1
102
RTVSPost2010Prop47
 90
       50
102
RTVSPost2010PropOp47
 70
     1
102
RTVSPost2010Prop48
 90
       50
102
RTVSPost2010PropOp48
 70
     1
102
RTVSPost2010Prop49
280
     0
102
RTVSPost2010PropOp49
 70
     1
102
RTVSPost2010Prop50
 90
       50
102
RTVSPost2010PropOp50
 70
     1
102
RTVSPost2010Prop51ColorIndex
 90
      256
102
RTVSPost2010Prop51ColorRGB
 90
-16777216
102
RTVSPost2010PropOp51
 70
     0
102
RTVSPost2010Prop52
140
1.0
102
RTVSPost2010PropOp52
 70
     0
102
RTVSPost2010Prop53
 90
        2
102
RTVSPost2010PropOp53
 70
     1
102
RTVSPost2010Prop54
  1
strokes_ogs.tif
102
RTVSPost2010PropOp54
 70
     1
102
RTVSPost2010Prop55
280
     0
102
RTVSPost2010PropOp55
 70
     1
102
RTVSPost2010Prop56
140
1.0
102
RTVSPost2010PropOp56
 70
     1
102
RTVSPost2010Prop57
140
1.0
102
RTVSPost2010PropOp57
 70
     1
102
RTVSPropertyOp0
 70
     1
102
RTVSPropertyOp1
 70
     1
102
RTVSPropertyOp2
 70
     1
102
RTVSPropertyOp3
 70
     1
102
RTVSPropertyOp4
 70
     1
102
RTVSPropertyOp5
 70
     1
102
RTVSPropertyOp6
 70
     1
102
RTVSPropertyOp7
 70
     1
102
RTVSPropertyOp8
 70
     1
102
RTVSPropertyOp9
 70
     1
102
RTVSPropertyOp10
 70
     1
102
RTVSPropertyOp11
 70
     1
102
RTVSPropertyOp12
 70
     1
102
RTVSPropertyOp13
 70
     1
102
RTVSPropertyOp14
 70
     1
102
RTVSPropertyOp15
 70
     1
102
RTVSPropertyOp16
 70
     1
102
RTVSPropertyOp17
 70
     1
102
RTVSPropertyOp18
 70
     1
102
RTVSPropertyOp19
 70
     1
102
RTVSPropertyOp20
 70
     1
102
RTVSPropertyOp21
 70
     1
102
RTVSPropertyOp22
 70
     1
102
RTVSPropertyOp23
 70
     1
102
RTVSPropertyOp24
 70
     1
102
RTVSPropertyOp25
 70
     1
102
RTVSPropertyOp26
 70
     1
102
RTVSPropertyOp27
 70
     1
102
RTVSPropertyOp28
 70
     1
102
RTVSPropertyOp29
 70
     1
102
RTVSPropertyOp30
 70
     1
102
RTVSPropertyOp31
 70
     1
102
RTVSPropertyOp32
 70
     1
102
RTVSPropertyOp33
 70
     1
102
RTVSPropertyOp34
 70
     1
102
RTVSPropertyOp35
 70
     1
102
RTVSPropertyOp36
 70
     1
102
RTVSPropertyOp37
 70
     1
102
RTVSPropertyOp38
 70
     1
102
RTVSPropertyOp39
 70
     1
102
RTVSPropertyOp40
 70
     1
102
RTVSPropertyOp41
 70
     1
102
RTVSPropertyOp42
 70
     1
102
RTVSPropertyOp43
 70
     1
102
RTVSPropertyOp44
 70
     1
102
RTVSPropertyOp45
 70
     1
102
RTVSPropertyOp46
 70
     1
102
RTVSPropertyOp47
 70
     1
102
RTVSPropertyOp48
 70
     1
102
RTVSPropertyOp49
 70
     1
102
RTVSPropertyOp50
 70
     1
102
RTVSPropertyOp51
 70
     0
102
RTVSPropertyOp52
 70
     0
102
RTVSPropertyOp53
 70
     1
102
RTVSPropertyOp54
 70
     1
102
RTVSPropertyOp55
 70
     1
102
RTVSPropertyOp56
 70
     1
102
RTVSPropertyOp57
 70
     1
102
RTVSPropertyOp58
 70
     1
102
RTVSPropertyOp59
 70
     1
102
RTVSPropertyOp60
 70
     1
102
RTVSPropertyOp61
 70
     1
102
RTVSPropertyOp62
 70
     1
  0
XRECORD
  5
247
102
{ACAD_REACTORS
330
246
102
}
330
246
100
AcDbXrecord
280
     1
102
RTVSPost2010Prop28
280
     0
102
RTVSPost2010PropOp28
 70
     1
102
RTVSPost2010Prop29
280
     1
102
RTVSPost2010PropOp29
 70
     1
102
RTVSPost2010Prop30
280
     1
102
RTVSPost2010PropOp30
 70
     1
102
RTVSPost2010Prop31
280
     0
102
RTVSPost2010PropOp31
 70
     1
102
RTVSPost2010Prop32
280
     0
102
RTVSPost2010PropOp32
 70
     1
102
RTVSPost2010Prop33
280
     0
102
RTVSPost2010PropOp33
 70
     1
102
RTVSPost2010Prop34
280
     0
102
RTVSPost2010PropOp34
 70
     1
102
RTVSPost2010Prop35
280
     0
102
RTVSPost2010PropOp35
 70
     1
102
RTVSPost2010Prop36
280
     0
102
RTVSPost2010PropOp36
 70
     1
102
RTVSPost2010Prop37
 90
       50
102
RTVSPost2010PropOp37
 70
     1
102
RTVSPost2010Prop38
140
0.0
102
RTVSPost2010PropOp38
 70
     1
102
RTVSPost2010Prop39
140
1.0
102
RTVSPost2010PropOp39
 70
     1
102
RTVSPost2010Prop40
 90
        0
102
RTVSPost2010PropOp40
 70
     1
102
RTVSPost2010Prop41ColorIndex
 90
       18
102
RTVSPost2010Prop41ColorRGB
 90
        0
102
RTVSPost2010PropOp41
 70
     1
102
RTVSPost2010Prop42
 90
       50
102
RTVSPost2010PropOp42
 70
     1
102
RTVSPost2010Prop43
 90
        3
102
RTVSPost2010PropOp43
 70
     1
102
RTVSPost2010Prop44ColorIndex
 90
        5
102
RTVSPost2010Prop44ColorRGB
 90
      255
102
RTVSPost2010PropOp44
 70
     1
102
RTVSPost2010Prop45
280
     0
102
RTVSPost2010PropOp45
 70
     1
102
RTVSPost2010Prop46
 90
       50
102
RTVSPost2010PropOp46
 70
     1
102
RTVSPost2010Prop47
 90
       50
102
RTVSPost2010PropOp47
 70
     1
102
RTVSPost2010Prop48
 90
       50
102
RTVSPost2010PropOp48
 70
     1
102
RTVSPost2010Prop49
280
     0
102
RTVSPost2010PropOp49
 70
     1
102
RTVSPost2010Prop50
 90
       50
102
RTVSPost2010PropOp50
 70
     1
102
RTVSPost2010Prop51ColorIndex
 90
      256
102
RTVSPost2010Prop51ColorRGB
 90
-16777216
102
RTVSPost2010PropOp51
 70
     0
102
RTVSPost2010Prop52
140
1.0
102
RTVSPost2010PropOp52
 70
     0
102
RTVSPost2010Prop53
 90
        2
102
RTVSPost2010PropOp53
 70
     1
102
RTVSPost2010Prop54
  1
strokes_ogs.tif
102
RTVSPost2010PropOp54
 70
     1
102
RTVSPost2010Prop55
280
     0
102
RTVSPost2010PropOp55
 70
     1
102
RTVSPost2010Prop56
140
1.0
102
RTVSPost2010PropOp56
 70
     1
102
RTVSPost2010Prop57
140
1.0
102
RTVSPost2010PropOp57
 70
     1
102
RTVSPropertyOp0
 70
     1
102
RTVSPropertyOp1
 70
     1
102
RTVSPropertyOp2
 70
     1
102
RTVSPropertyOp3
 70
     1
102
RTVSPropertyOp4
 70
     1
102
RTVSPropertyOp5
 70
     1
102
RTVSPropertyOp6
 70
     1
102
RTVSPropertyOp7
 70
     1
102
RTVSPropertyOp8
 70
     1
102
RTVSPropertyOp9
 70
     1
102
RTVSPropertyOp10
 70
     1
102
RTVSPropertyOp11
 70
     1
102
RTVSPropertyOp12
 70
     1
102
RTVSPropertyOp13
 70
     1
102
RTVSPropertyOp14
 70
     1
102
RTVSPropertyOp15
 70
     1
102
RTVSPropertyOp16
 70
     1
102
RTVSPropertyOp17
 70
     1
102
RTVSPropertyOp18
 70
     1
102
RTVSPropertyOp19
 70
     1
102
RTVSPropertyOp20
 70
     1
102
RTVSPropertyOp21
 70
     1
102
RTVSPropertyOp22
 70
     1
102
RTVSPropertyOp23
 70
     1
102
RTVSPropertyOp24
 70
     1
102
RTVSPropertyOp25
 70
     1
102
RTVSPropertyOp26
 70
     1
102
RTVSPropertyOp27
 70
     1
102
RTVSPropertyOp28
 70
     1
102
RTVSPropertyOp29
 70
     1
102
RTVSPropertyOp30
 70
     1
102
RTVSPropertyOp31
 70
     1
102
RTVSPropertyOp32
 70
     1
102
RTVSPropertyOp33
 70
     1
102
RTVSPropertyOp34
 70
     1
102
RTVSPropertyOp35
 70
     1
102
RTVSPropertyOp36
 70
     1
102
RTVSPropertyOp37
 70
     1
102
RTVSPropertyOp38
 70
     1
102
RTVSPropertyOp39
 70
     1
102
RTVSPropertyOp40
 70
     1
102
RTVSPropertyOp41
 70
     1
102
RTVSPropertyOp42
 70
     1
102
RTVSPropertyOp43
 70
     1
102
RTVSPropertyOp44
 70
     1
102
RTVSPropertyOp45
 70
     1
102
RTVSPropertyOp46
 70
     1
102
RTVSPropertyOp47
 70
     1
102
RTVSPropertyOp48
 70
     1
102
RTVSPropertyOp49
 70
     1
102
RTVSPropertyOp50
 70
     1
102
RTVSPropertyOp51
 70
     0
102
RTVSPropertyOp52
 70
     0
102
RTVSPropertyOp53
 70
     1
102
RTVSPropertyOp54
 70
     1
102
RTVSPropertyOp55
 70
     1
102
RTVSPropertyOp56
 70
     1
102
RTVSPropertyOp57
 70
     1
102
RTVSPropertyOp58
 70
     1
102
RTVSPropertyOp59
 70
     1
102
RTVSPropertyOp60
 70
     1
102
RTVSPropertyOp61
 70
     1
102
RTVSPropertyOp62
 70
     1
  0
XRECORD
  5
245
102
{ACAD_REACTORS
330
244
102
}
330
244
100
AcDbXrecord
280
     1
102
RTVSPost2010Prop28
280
     0
102
RTVSPost2010PropOp28
 70
     1
102
RTVSPost2010Prop29
280
     1
102
RTVSPost2010PropOp29
 70
     1
102
RTVSPost2010Prop30
280
     1
102
RTVSPost2010PropOp30
 70
     1
102
RTVSPost2010Prop31
280
     0
102
RTVSPost2010PropOp31
 70
     1
102
RTVSPost2010Prop32
280
     0
102
RTVSPost2010PropOp32
 70
     1
102
RTVSPost2010Prop33
280
     0
102
RTVSPost2010PropOp33
 70
     1
102
RTVSPost2010Prop34
280
     0
102
RTVSPost2010PropOp34
 70
     1
102
RTVSPost2010Prop35
280
     0
102
RTVSPost2010PropOp35
 70
     1
102
RTVSPost2010Prop36
280
     0
102
RTVSPost2010PropOp36
 70
     1
102
RTVSPost2010Prop37
 90
       50
102
RTVSPost2010PropOp37
 70
     1
102
RTVSPost2010Prop38
140
0.0
102
RTVSPost2010PropOp38
 70
     1
102
RTVSPost2010Prop39
140
1.0
102
RTVSPost2010PropOp39
 70
     1
102
RTVSPost2010Prop40
 90
        0
102
RTVSPost2010PropOp40
 70
     1
102
RTVSPost2010Prop41ColorIndex
 90
       18
102
RTVSPost2010Prop41ColorRGB
 90
        0
102
RTVSPost2010PropOp41
 70
     1
102
RTVSPost2010Prop42
 90
       50
102
RTVSPost2010PropOp42
 70
     1
102
RTVSPost2010Prop43
 90
        3
102
RTVSPost2010PropOp43
 70
     1
102
RTVSPost2010Prop44ColorIndex
 90
        5
102
RTVSPost2010Prop44ColorRGB
 90
      255
102
RTVSPost2010PropOp44
 70
     1
102
RTVSPost2010Prop45
280
     0
102
RTVSPost2010PropOp45
 70
     1
102
RTVSPost2010Prop46
 90
       50
102
RTVSPost2010PropOp46
 70
     1
102
RTVSPost2010Prop47
 90
       50
102
RTVSPost2010PropOp47
 70
     1
102
RTVSPost2010Prop48
 90
       50
102
RTVSPost2010PropOp48
 70
     1
102
RTVSPost2010Prop49
280
     0
102
RTVSPost2010PropOp49
 70
     1
102
RTVSPost2010Prop50
 90
       50
102
RTVSPost2010PropOp50
 70
     1
102
RTVSPost2010Prop51ColorIndex
 90
      256
102
RTVSPost2010Prop51ColorRGB
 90
-16777216
102
RTVSPost2010PropOp51
 70
     0
102
RTVSPost2010Prop52
140
1.0
102
RTVSPost2010PropOp52
 70
     0
102
RTVSPost2010Prop53
 90
        2
102
RTVSPost2010PropOp53
 70
     1
102
RTVSPost2010Prop54
  1
strokes_ogs.tif
102
RTVSPost2010PropOp54
 70
     1
102
RTVSPost2010Prop55
280
     0
102
RTVSPost2010PropOp55
 70
     1
102
RTVSPost2010Prop56
140
1.0
102
RTVSPost2010PropOp56
 70
     1
102
RTVSPost2010Prop57
140
1.0
102
RTVSPost2010PropOp57
 70
     1
102
RTVSPropertyOp0
 70
     1
102
RTVSPropertyOp1
 70
     1
102
RTVSPropertyOp2
 70
     1
102
RTVSPropertyOp3
 70
     1
102
RTVSPropertyOp4
 70
     1
102
RTVSPropertyOp5
 70
     1
102
RTVSPropertyOp6
 70
     1
102
RTVSPropertyOp7
 70
     1
102
RTVSPropertyOp8
 70
     1
102
RTVSPropertyOp9
 70
     1
102
RTVSPropertyOp10
 70
     1
102
RTVSPropertyOp11
 70
     1
102
RTVSPropertyOp12
 70
     1
102
RTVSPropertyOp13
 70
     1
102
RTVSPropertyOp14
 70
     1
102
RTVSPropertyOp15
 70
     1
102
RTVSPropertyOp16
 70
     1
102
RTVSPropertyOp17
 70
     1
102
RTVSPropertyOp18
 70
     1
102
RTVSPropertyOp19
 70
     1
102
RTVSPropertyOp20
 70
     1
102
RTVSPropertyOp21
 70
     1
102
RTVSPropertyOp22
 70
     1
102
RTVSPropertyOp23
 70
     1
102
RTVSPropertyOp24
 70
     1
102
RTVSPropertyOp25
 70
     1
102
RTVSPropertyOp26
 70
     1
102
RTVSPropertyOp27
 70
     1
102
RTVSPropertyOp28
 70
     1
102
RTVSPropertyOp29
 70
     1
102
RTVSPropertyOp30
 70
     1
102
RTVSPropertyOp31
 70
     1
102
RTVSPropertyOp32
 70
     1
102
RTVSPropertyOp33
 70
     1
102
RTVSPropertyOp34
 70
     1
102
RTVSPropertyOp35
 70
     1
102
RTVSPropertyOp36
 70
     1
102
RTVSPropertyOp37
 70
     1
102
RTVSPropertyOp38
 70
     1
102
RTVSPropertyOp39
 70
     1
102
RTVSPropertyOp40
 70
     1
102
RTVSPropertyOp41
 70
     1
102
RTVSPropertyOp42
 70
     1
102
RTVSPropertyOp43
 70
     1
102
RTVSPropertyOp44
 70
     1
102
RTVSPropertyOp45
 70
     1
102
RTVSPropertyOp46
 70
     1
102
RTVSPropertyOp47
 70
     1
102
RTVSPropertyOp48
 70
     1
102
RTVSPropertyOp49
 70
     1
102
RTVSPropertyOp50
 70
     1
102
RTVSPropertyOp51
 70
     0
102
RTVSPropertyOp52
 70
     0
102
RTVSPropertyOp53
 70
     1
102
RTVSPropertyOp54
 70
     1
102
RTVSPropertyOp55
 70
     1
102
RTVSPropertyOp56
 70
     1
102
RTVSPropertyOp57
 70
     1
102
RTVSPropertyOp58
 70
     1
102
RTVSPropertyOp59
 70
     1
102
RTVSPropertyOp60
 70
     1
102
RTVSPropertyOp61
 70
     1
102
RTVSPropertyOp62
 70
     1
  0
XRECORD
  5
23F
102
{ACAD_REACTORS
330
23E
102
}
330
23E
100
AcDbXrecord
280
     1
102
RTVSPost2010Prop28
280
     0
102
RTVSPost2010PropOp28
 70
     1
102
RTVSPost2010Prop29
280
     1
102
RTVSPost2010PropOp29
 70
     1
102
RTVSPost2010Prop30
280
     1
102
RTVSPost2010PropOp30
 70
     1
102
RTVSPost2010Prop31
280
     0
102
RTVSPost2010PropOp31
 70
     1
102
RTVSPost2010Prop32
280
     0
102
RTVSPost2010PropOp32
 70
     1
102
RTVSPost2010Prop33
280
     0
102
RTVSPost2010PropOp33
 70
     1
102
RTVSPost2010Prop34
280
     0
102
RTVSPost2010PropOp34
 70
     1
102
RTVSPost2010Prop35
280
     0
102
RTVSPost2010PropOp35
 70
     1
102
RTVSPost2010Prop36
280
     0
102
RTVSPost2010PropOp36
 70
     1
102
RTVSPost2010Prop37
 90
       50
102
RTVSPost2010PropOp37
 70
     1
102
RTVSPost2010Prop38
140
0.0
102
RTVSPost2010PropOp38
 70
     1
102
RTVSPost2010Prop39
140
1.0
102
RTVSPost2010PropOp39
 70
     1
102
RTVSPost2010Prop40
 90
        0
102
RTVSPost2010PropOp40
 70
     1
102
RTVSPost2010Prop41ColorIndex
 90
       18
102
RTVSPost2010Prop41ColorRGB
 90
        0
102
RTVSPost2010PropOp41
 70
     1
102
RTVSPost2010Prop42
 90
       50
102
RTVSPost2010PropOp42
 70
     1
102
RTVSPost2010Prop43
 90
        3
102
RTVSPost2010PropOp43
 70
     1
102
RTVSPost2010Prop44ColorIndex
 90
        5
102
RTVSPost2010Prop44ColorRGB
 90
      255
102
RTVSPost2010PropOp44
 70
     1
102
RTVSPost2010Prop45
280
     0
102
RTVSPost2010PropOp45
 70
     1
102
RTVSPost2010Prop46
 90
       50
102
RTVSPost2010PropOp46
 70
     1
102
RTVSPost2010Prop47
 90
       50
102
RTVSPost2010PropOp47
 70
     1
102
RTVSPost2010Prop48
 90
       50
102
RTVSPost2010PropOp48
 70
     1
102
RTVSPost2010Prop49
280
     0
102
RTVSPost2010PropOp49
 70
     1
102
RTVSPost2010Prop50
 90
       50
102
RTVSPost2010PropOp50
 70
     1
102
RTVSPost2010Prop51ColorIndex
 90
      256
102
RTVSPost2010Prop51ColorRGB
 90
-16777216
102
RTVSPost2010PropOp51
 70
     0
102
RTVSPost2010Prop52
140
1.0
102
RTVSPost2010PropOp52
 70
     0
102
RTVSPost2010Prop53
 90
        2
102
RTVSPost2010PropOp53
 70
     1
102
RTVSPost2010Prop54
  1
strokes_ogs.tif
102
RTVSPost2010PropOp54
 70
     1
102
RTVSPost2010Prop55
280
     0
102
RTVSPost2010PropOp55
 70
     1
102
RTVSPost2010Prop56
140
1.0
102
RTVSPost2010PropOp56
 70
     1
102
RTVSPost2010Prop57
140
1.0
102
RTVSPost2010PropOp57
 70
     1
102
RTVSPropertyOp0
 70
     1
102
RTVSPropertyOp1
 70
     1
102
RTVSPropertyOp2
 70
     1
102
RTVSPropertyOp3
 70
     1
102
RTVSPropertyOp4
 70
     1
102
RTVSPropertyOp5
 70
     1
102
RTVSPropertyOp6
 70
     1
102
RTVSPropertyOp7
 70
     1
102
RTVSPropertyOp8
 70
     1
102
RTVSPropertyOp9
 70
     1
102
RTVSPropertyOp10
 70
     1
102
RTVSPropertyOp11
 70
     1
102
RTVSPropertyOp12
 70
     1
102
RTVSPropertyOp13
 70
     1
102
RTVSPropertyOp14
 70
     1
102
RTVSPropertyOp15
 70
     1
102
RTVSPropertyOp16
 70
     1
102
RTVSPropertyOp17
 70
     1
102
RTVSPropertyOp18
 70
     1
102
RTVSPropertyOp19
 70
     1
102
RTVSPropertyOp20
 70
     1
102
RTVSPropertyOp21
 70
     1
102
RTVSPropertyOp22
 70
     1
102
RTVSPropertyOp23
 70
     1
102
RTVSPropertyOp24
 70
     1
102
RTVSPropertyOp25
 70
     1
102
RTVSPropertyOp26
 70
     1
102
RTVSPropertyOp27
 70
     1
102
RTVSPropertyOp28
 70
     1
102
RTVSPropertyOp29
 70
     1
102
RTVSPropertyOp30
 70
     1
102
RTVSPropertyOp31
 70
     1
102
RTVSPropertyOp32
 70
     1
102
RTVSPropertyOp33
 70
     1
102
RTVSPropertyOp34
 70
     1
102
RTVSPropertyOp35
 70
     1
102
RTVSPropertyOp36
 70
     1
102
RTVSPropertyOp37
 70
     1
102
RTVSPropertyOp38
 70
     1
102
RTVSPropertyOp39
 70
     1
102
RTVSPropertyOp40
 70
     1
102
RTVSPropertyOp41
 70
     1
102
RTVSPropertyOp42
 70
     1
102
RTVSPropertyOp43
 70
     1
102
RTVSPropertyOp44
 70
     1
102
RTVSPropertyOp45
 70
     1
102
RTVSPropertyOp46
 70
     1
102
RTVSPropertyOp47
 70
     1
102
RTVSPropertyOp48
 70
     1
102
RTVSPropertyOp49
 70
     1
102
RTVSPropertyOp50
 70
     1
102
RTVSPropertyOp51
 70
     0
102
RTVSPropertyOp52
 70
     0
102
RTVSPropertyOp53
 70
     1
102
RTVSPropertyOp54
 70
     1
102
RTVSPropertyOp55
 70
     1
102
RTVSPropertyOp56
 70
     1
102
RTVSPropertyOp57
 70
     1
102
RTVSPropertyOp58
 70
     1
102
RTVSPropertyOp59
 70
     1
102
RTVSPropertyOp60
 70
     1
102
RTVSPropertyOp61
 70
     1
102
RTVSPropertyOp62
 70
     1
  0
XRECORD
  5
241
102
{ACAD_REACTORS
330
240
102
}
330
240
100
AcDbXrecord
280
     1
102
RTVSPost2010Prop28
280
     0
102
RTVSPost2010PropOp28
 70
     1
102
RTVSPost2010Prop29
280
     1
102
RTVSPost2010PropOp29
 70
     1
102
RTVSPost2010Prop30
280
     1
102
RTVSPost2010PropOp30
 70
     1
102
RTVSPost2010Prop31
280
     0
102
RTVSPost2010PropOp31
 70
     1
102
RTVSPost2010Prop32
280
     0
102
RTVSPost2010PropOp32
 70
     1
102
RTVSPost2010Prop33
280
     0
102
RTVSPost2010PropOp33
 70
     1
102
RTVSPost2010Prop34
280
     0
102
RTVSPost2010PropOp34
 70
     1
102
RTVSPost2010Prop35
280
     0
102
RTVSPost2010PropOp35
 70
     1
102
RTVSPost2010Prop36
280
     0
102
RTVSPost2010PropOp36
 70
     1
102
RTVSPost2010Prop37
 90
       50
102
RTVSPost2010PropOp37
 70
     1
102
RTVSPost2010Prop38
140
0.0
102
RTVSPost2010PropOp38
 70
     1
102
RTVSPost2010Prop39
140
1.0
102
RTVSPost2010PropOp39
 70
     1
102
RTVSPost2010Prop40
 90
        0
102
RTVSPost2010PropOp40
 70
     1
102
RTVSPost2010Prop41ColorIndex
 90
       18
102
RTVSPost2010Prop41ColorRGB
 90
        0
102
RTVSPost2010PropOp41
 70
     1
102
RTVSPost2010Prop42
 90
       50
102
RTVSPost2010PropOp42
 70
     1
102
RTVSPost2010Prop43
 90
        3
102
RTVSPost2010PropOp43
 70
     1
102
RTVSPost2010Prop44ColorIndex
 90
        5
102
RTVSPost2010Prop44ColorRGB
 90
      255
102
RTVSPost2010PropOp44
 70
     1
102
RTVSPost2010Prop45
280
     0
102
RTVSPost2010PropOp45
 70
     1
102
RTVSPost2010Prop46
 90
       50
102
RTVSPost2010PropOp46
 70
     1
102
RTVSPost2010Prop47
 90
       50
102
RTVSPost2010PropOp47
 70
     1
102
RTVSPost2010Prop48
 90
       50
102
RTVSPost2010PropOp48
 70
     1
102
RTVSPost2010Prop49
280
     0
102
RTVSPost2010PropOp49
 70
     1
102
RTVSPost2010Prop50
 90
       50
102
RTVSPost2010PropOp50
 70
     1
102
RTVSPost2010Prop51ColorIndex
 90
      256
102
RTVSPost2010Prop51ColorRGB
 90
-16777216
102
RTVSPost2010PropOp51
 70
     0
102
RTVSPost2010Prop52
140
1.0
102
RTVSPost2010PropOp52
 70
     0
102
RTVSPost2010Prop53
 90
        2
102
RTVSPost2010PropOp53
 70
     1
102
RTVSPost2010Prop54
  1
strokes_ogs.tif
102
RTVSPost2010PropOp54
 70
     1
102
RTVSPost2010Prop55
280
     0
102
RTVSPost2010PropOp55
 70
     1
102
RTVSPost2010Prop56
140
1.0
102
RTVSPost2010PropOp56
 70
     1
102
RTVSPost2010Prop57
140
1.0
102
RTVSPost2010PropOp57
 70
     1
102
RTVSPropertyOp0
 70
     1
102
RTVSPropertyOp1
 70
     1
102
RTVSPropertyOp2
 70
     1
102
RTVSPropertyOp3
 70
     1
102
RTVSPropertyOp4
 70
     1
102
RTVSPropertyOp5
 70
     1
102
RTVSPropertyOp6
 70
     1
102
RTVSPropertyOp7
 70
     1
102
RTVSPropertyOp8
 70
     1
102
RTVSPropertyOp9
 70
     1
102
RTVSPropertyOp10
 70
     1
102
RTVSPropertyOp11
 70
     1
102
RTVSPropertyOp12
 70
     1
102
RTVSPropertyOp13
 70
     1
102
RTVSPropertyOp14
 70
     1
102
RTVSPropertyOp15
 70
     1
102
RTVSPropertyOp16
 70
     1
102
RTVSPropertyOp17
 70
     1
102
RTVSPropertyOp18
 70
     1
102
RTVSPropertyOp19
 70
     1
102
RTVSPropertyOp20
 70
     1
102
RTVSPropertyOp21
 70
     1
102
RTVSPropertyOp22
 70
     1
102
RTVSPropertyOp23
 70
     1
102
RTVSPropertyOp24
 70
     1
102
RTVSPropertyOp25
 70
     1
102
RTVSPropertyOp26
 70
     1
102
RTVSPropertyOp27
 70
     1
102
RTVSPropertyOp28
 70
     1
102
RTVSPropertyOp29
 70
     1
102
RTVSPropertyOp30
 70
     1
102
RTVSPropertyOp31
 70
     1
102
RTVSPropertyOp32
 70
     1
102
RTVSPropertyOp33
 70
     1
102
RTVSPropertyOp34
 70
     1
102
RTVSPropertyOp35
 70
     1
102
RTVSPropertyOp36
 70
     1
102
RTVSPropertyOp37
 70
     1
102
RTVSPropertyOp38
 70
     1
102
RTVSPropertyOp39
 70
     1
102
RTVSPropertyOp40
 70
     1
102
RTVSPropertyOp41
 70
     1
102
RTVSPropertyOp42
 70
     1
102
RTVSPropertyOp43
 70
     1
102
RTVSPropertyOp44
 70
     1
102
RTVSPropertyOp45
 70
     1
102
RTVSPropertyOp46
 70
     1
102
RTVSPropertyOp47
 70
     1
102
RTVSPropertyOp48
 70
     1
102
RTVSPropertyOp49
 70
     1
102
RTVSPropertyOp50
 70
     1
102
RTVSPropertyOp51
 70
     0
102
RTVSPropertyOp52
 70
     0
102
RTVSPropertyOp53
 70
     1
102
RTVSPropertyOp54
 70
     1
102
RTVSPropertyOp55
 70
     1
102
RTVSPropertyOp56
 70
     1
102
RTVSPropertyOp57
 70
     1
102
RTVSPropertyOp58
 70
     1
102
RTVSPropertyOp59
 70
     1
102
RTVSPropertyOp60
 70
     1
102
RTVSPropertyOp61
 70
     1
102
RTVSPropertyOp62
 70
     1
  0
XRECORD
  5
237
102
{ACAD_REACTORS
330
236
102
}
330
236
100
AcDbXrecord
280
     1
102
RTVSPost2010Prop28
280
     0
102
RTVSPost2010PropOp28
 70
     1
102
RTVSPost2010Prop29
280
     1
102
RTVSPost2010PropOp29
 70
     1
102
RTVSPost2010Prop30
280
     1
102
RTVSPost2010PropOp30
 70
     1
102
RTVSPost2010Prop31
280
     0
102
RTVSPost2010PropOp31
 70
     1
102
RTVSPost2010Prop32
280
     0
102
RTVSPost2010PropOp32
 70
     1
102
RTVSPost2010Prop33
280
     0
102
RTVSPost2010PropOp33
 70
     1
102
RTVSPost2010Prop34
280
     0
102
RTVSPost2010PropOp34
 70
     1
102
RTVSPost2010Prop35
280
     0
102
RTVSPost2010PropOp35
 70
     1
102
RTVSPost2010Prop36
280
     0
102
RTVSPost2010PropOp36
 70
     1
102
RTVSPost2010Prop37
 90
       50
102
RTVSPost2010PropOp37
 70
     1
102
RTVSPost2010Prop38
140
0.0
102
RTVSPost2010PropOp38
 70
     1
102
RTVSPost2010Prop39
140
1.0
102
RTVSPost2010PropOp39
 70
     1
102
RTVSPost2010Prop40
 90
        0
102
RTVSPost2010PropOp40
 70
     1
102
RTVSPost2010Prop41ColorIndex
 90
       18
102
RTVSPost2010Prop41ColorRGB
 90
        0
102
RTVSPost2010PropOp41
 70
     1
102
RTVSPost2010Prop42
 90
       50
102
RTVSPost2010PropOp42
 70
     1
102
RTVSPost2010Prop43
 90
        3
102
RTVSPost2010PropOp43
 70
     1
102
RTVSPost2010Prop44ColorIndex
 90
        5
102
RTVSPost2010Prop44ColorRGB
 90
      255
102
RTVSPost2010PropOp44
 70
     1
102
RTVSPost2010Prop45
280
     0
102
RTVSPost2010PropOp45
 70
     1
102
RTVSPost2010Prop46
 90
       50
102
RTVSPost2010PropOp46
 70
     1
102
RTVSPost2010Prop47
 90
       50
102
RTVSPost2010PropOp47
 70
     1
102
RTVSPost2010Prop48
 90
       50
102
RTVSPost2010PropOp48
 70
     1
102
RTVSPost2010Prop49
280
     0
102
RTVSPost2010PropOp49
 70
     1
102
RTVSPost2010Prop50
 90
       50
102
RTVSPost2010PropOp50
 70
     1
102
RTVSPost2010Prop51ColorIndex
 90
      256
102
RTVSPost2010Prop51ColorRGB
 90
-16777216
102
RTVSPost2010PropOp51
 70
     0
102
RTVSPost2010Prop52
140
1.0
102
RTVSPost2010PropOp52
 70
     0
102
RTVSPost2010Prop53
 90
        2
102
RTVSPost2010PropOp53
 70
     1
102
RTVSPost2010Prop54
  1
strokes_ogs.tif
102
RTVSPost2010PropOp54
 70
     1
102
RTVSPost2010Prop55
280
     0
102
RTVSPost2010PropOp55
 70
     1
102
RTVSPost2010Prop56
140
1.0
102
RTVSPost2010PropOp56
 70
     1
102
RTVSPost2010Prop57
140
1.0
102
RTVSPost2010PropOp57
 70
     1
102
RTVSPropertyOp0
 70
     1
102
RTVSPropertyOp1
 70
     1
102
RTVSPropertyOp2
 70
     1
102
RTVSPropertyOp3
 70
     1
102
RTVSPropertyOp4
 70
     1
102
RTVSPropertyOp5
 70
     1
102
RTVSPropertyOp6
 70
     1
102
RTVSPropertyOp7
 70
     1
102
RTVSPropertyOp8
 70
     1
102
RTVSPropertyOp9
 70
     1
102
RTVSPropertyOp10
 70
     1
102
RTVSPropertyOp11
 70
     1
102
RTVSPropertyOp12
 70
     1
102
RTVSPropertyOp13
 70
     1
102
RTVSPropertyOp14
 70
     1
102
RTVSPropertyOp15
 70
     1
102
RTVSPropertyOp16
 70
     1
102
RTVSPropertyOp17
 70
     1
102
RTVSPropertyOp18
 70
     1
102
RTVSPropertyOp19
 70
     1
102
RTVSPropertyOp20
 70
     1
102
RTVSPropertyOp21
 70
     1
102
RTVSPropertyOp22
 70
     1
102
RTVSPropertyOp23
 70
     1
102
RTVSPropertyOp24
 70
     1
102
RTVSPropertyOp25
 70
     1
102
RTVSPropertyOp26
 70
     1
102
RTVSPropertyOp27
 70
     1
102
RTVSPropertyOp28
 70
     1
102
RTVSPropertyOp29
 70
     1
102
RTVSPropertyOp30
 70
     1
102
RTVSPropertyOp31
 70
     1
102
RTVSPropertyOp32
 70
     1
102
RTVSPropertyOp33
 70
     1
102
RTVSPropertyOp34
 70
     1
102
RTVSPropertyOp35
 70
     1
102
RTVSPropertyOp36
 70
     1
102
RTVSPropertyOp37
 70
     1
102
RTVSPropertyOp38
 70
     1
102
RTVSPropertyOp39
 70
     1
102
RTVSPropertyOp40
 70
     1
102
RTVSPropertyOp41
 70
     1
102
RTVSPropertyOp42
 70
     1
102
RTVSPropertyOp43
 70
     1
102
RTVSPropertyOp44
 70
     1
102
RTVSPropertyOp45
 70
     1
102
RTVSPropertyOp46
 70
     1
102
RTVSPropertyOp47
 70
     1
102
RTVSPropertyOp48
 70
     1
102
RTVSPropertyOp49
 70
     1
102
RTVSPropertyOp50
 70
     1
102
RTVSPropertyOp51
 70
     0
102
RTVSPropertyOp52
 70
     0
102
RTVSPropertyOp53
 70
     1
102
RTVSPropertyOp54
 70
     1
102
RTVSPropertyOp55
 70
     1
102
RTVSPropertyOp56
 70
     1
102
RTVSPropertyOp57
 70
     1
102
RTVSPropertyOp58
 70
     1
102
RTVSPropertyOp59
 70
     1
102
RTVSPropertyOp60
 70
     1
102
RTVSPropertyOp61
 70
     1
102
RTVSPropertyOp62
 70
     1
  0
XRECORD
  5
22B
102
{ACAD_REACTORS
330
22A
102
}
330
22A
100
AcDbXrecord
280
     1
102
RTVSPost2010Prop28
280
     0
102
RTVSPost2010PropOp28
 70
     1
102
RTVSPost2010Prop29
280
     1
102
RTVSPost2010PropOp29
 70
     1
102
RTVSPost2010Prop30
280
     1
102
RTVSPost2010PropOp30
 70
     1
102
RTVSPost2010Prop31
280
     0
102
RTVSPost2010PropOp31
 70
     1
102
RTVSPost2010Prop32
280
     0
102
RTVSPost2010PropOp32
 70
     1
102
RTVSPost2010Prop33
280
     0
102
RTVSPost2010PropOp33
 70
     1
102
RTVSPost2010Prop34
280
     0
102
RTVSPost2010PropOp34
 70
     1
102
RTVSPost2010Prop35
280
     0
102
RTVSPost2010PropOp35
 70
     1
102
RTVSPost2010Prop36
280
     0
102
RTVSPost2010PropOp36
 70
     1
102
RTVSPost2010Prop37
 90
       50
102
RTVSPost2010PropOp37
 70
     1
102
RTVSPost2010Prop38
140
0.0
102
RTVSPost2010PropOp38
 70
     1
102
RTVSPost2010Prop39
140
1.0
102
RTVSPost2010PropOp39
 70
     1
102
RTVSPost2010Prop40
 90
        0
102
RTVSPost2010PropOp40
 70
     1
102
RTVSPost2010Prop41ColorIndex
 90
       18
102
RTVSPost2010Prop41ColorRGB
 90
        0
102
RTVSPost2010PropOp41
 70
     1
102
RTVSPost2010Prop42
 90
       50
102
RTVSPost2010PropOp42
 70
     1
102
RTVSPost2010Prop43
 90
        3
102
RTVSPost2010PropOp43
 70
     1
102
RTVSPost2010Prop44ColorIndex
 90
        5
102
RTVSPost2010Prop44ColorRGB
 90
      255
102
RTVSPost2010PropOp44
 70
     1
102
RTVSPost2010Prop45
280
     0
102
RTVSPost2010PropOp45
 70
     1
102
RTVSPost2010Prop46
 90
       50
102
RTVSPost2010PropOp46
 70
     1
102
RTVSPost2010Prop47
 90
       50
102
RTVSPost2010PropOp47
 70
     1
102
RTVSPost2010Prop48
 90
       50
102
RTVSPost2010PropOp48
 70
     1
102
RTVSPost2010Prop49
280
     0
102
RTVSPost2010PropOp49
 70
     1
102
RTVSPost2010Prop50
 90
       50
102
RTVSPost2010PropOp50
 70
     1
102
RTVSPost2010Prop51ColorIndex
 90
      256
102
RTVSPost2010Prop51ColorRGB
 90
-16777216
102
RTVSPost2010PropOp51
 70
     0
102
RTVSPost2010Prop52
140
1.0
102
RTVSPost2010PropOp52
 70
     0
102
RTVSPost2010Prop53
 90
        2
102
RTVSPost2010PropOp53
 70
     1
102
RTVSPost2010Prop54
  1
strokes_ogs.tif
102
RTVSPost2010PropOp54
 70
     1
102
RTVSPost2010Prop55
280
     0
102
RTVSPost2010PropOp55
 70
     1
102
RTVSPost2010Prop56
140
1.0
102
RTVSPost2010PropOp56
 70
     1
102
RTVSPost2010Prop57
140
1.0
102
RTVSPost2010PropOp57
 70
     1
102
RTVSPropertyOp0
 70
     1
102
RTVSPropertyOp1
 70
     1
102
RTVSPropertyOp2
 70
     1
102
RTVSPropertyOp3
 70
     1
102
RTVSPropertyOp4
 70
     1
102
RTVSPropertyOp5
 70
     1
102
RTVSPropertyOp6
 70
     1
102
RTVSPropertyOp7
 70
     1
102
RTVSPropertyOp8
 70
     1
102
RTVSPropertyOp9
 70
     1
102
RTVSPropertyOp10
 70
     1
102
RTVSPropertyOp11
 70
     1
102
RTVSPropertyOp12
 70
     1
102
RTVSPropertyOp13
 70
     1
102
RTVSPropertyOp14
 70
     1
102
RTVSPropertyOp15
 70
     1
102
RTVSPropertyOp16
 70
     1
102
RTVSPropertyOp17
 70
     1
102
RTVSPropertyOp18
 70
     1
102
RTVSPropertyOp19
 70
     1
102
RTVSPropertyOp20
 70
     1
102
RTVSPropertyOp21
 70
     1
102
RTVSPropertyOp22
 70
     1
102
RTVSPropertyOp23
 70
     1
102
RTVSPropertyOp24
 70
     1
102
RTVSPropertyOp25
 70
     1
102
RTVSPropertyOp26
 70
     1
102
RTVSPropertyOp27
 70
     1
102
RTVSPropertyOp28
 70
     1
102
RTVSPropertyOp29
 70
     1
102
RTVSPropertyOp30
 70
     1
102
RTVSPropertyOp31
 70
     1
102
RTVSPropertyOp32
 70
     1
102
RTVSPropertyOp33
 70
     1
102
RTVSPropertyOp34
 70
     1
102
RTVSPropertyOp35
 70
     1
102
RTVSPropertyOp36
 70
     1
102
RTVSPropertyOp37
 70
     1
102
RTVSPropertyOp38
 70
     1
102
RTVSPropertyOp39
 70
     1
102
RTVSPropertyOp40
 70
     1
102
RTVSPropertyOp41
 70
     1
102
RTVSPropertyOp42
 70
     1
102
RTVSPropertyOp43
 70
     1
102
RTVSPropertyOp44
 70
     1
102
RTVSPropertyOp45
 70
     1
102
RTVSPropertyOp46
 70
     1
102
RTVSPropertyOp47
 70
     1
102
RTVSPropertyOp48
 70
     1
102
RTVSPropertyOp49
 70
     1
102
RTVSPropertyOp50
 70
     1
102
RTVSPropertyOp51
 70
     0
102
RTVSPropertyOp52
 70
     0
102
RTVSPropertyOp53
 70
     1
102
RTVSPropertyOp54
 70
     1
102
RTVSPropertyOp55
 70
     1
102
RTVSPropertyOp56
 70
     1
102
RTVSPropertyOp57
 70
     1
102
RTVSPropertyOp58
 70
     1
102
RTVSPropertyOp59
 70
     1
102
RTVSPropertyOp60
 70
     1
102
RTVSPropertyOp61
 70
     1
102
RTVSPropertyOp62
 70
     1
  0
XRECORD
  5
243
102
{ACAD_REACTORS
330
242
102
}
330
242
100
AcDbXrecord
280
     1
102
RTVSPost2010Prop28
280
     0
102
RTVSPost2010PropOp28
 70
     1
102
RTVSPost2010Prop29
280
     1
102
RTVSPost2010PropOp29
 70
     1
102
RTVSPost2010Prop30
280
     1
102
RTVSPost2010PropOp30
 70
     1
102
RTVSPost2010Prop31
280
     0
102
RTVSPost2010PropOp31
 70
     1
102
RTVSPost2010Prop32
280
     0
102
RTVSPost2010PropOp32
 70
     1
102
RTVSPost2010Prop33
280
     0
102
RTVSPost2010PropOp33
 70
     1
102
RTVSPost2010Prop34
280
     0
102
RTVSPost2010PropOp34
 70
     1
102
RTVSPost2010Prop35
280
     0
102
RTVSPost2010PropOp35
 70
     1
102
RTVSPost2010Prop36
280
     0
102
RTVSPost2010PropOp36
 70
     1
102
RTVSPost2010Prop37
 90
       50
102
RTVSPost2010PropOp37
 70
     1
102
RTVSPost2010Prop38
140
0.0
102
RTVSPost2010PropOp38
 70
     1
102
RTVSPost2010Prop39
140
1.0
102
RTVSPost2010PropOp39
 70
     1
102
RTVSPost2010Prop40
 90
        0
102
RTVSPost2010PropOp40
 70
     1
102
RTVSPost2010Prop41ColorIndex
 90
       18
102
RTVSPost2010Prop41ColorRGB
 90
        0
102
RTVSPost2010PropOp41
 70
     1
102
RTVSPost2010Prop42
 90
       50
102
RTVSPost2010PropOp42
 70
     1
102
RTVSPost2010Prop43
 90
        3
102
RTVSPost2010PropOp43
 70
     1
102
RTVSPost2010Prop44ColorIndex
 90
        5
102
RTVSPost2010Prop44ColorRGB
 90
      255
102
RTVSPost2010PropOp44
 70
     1
102
RTVSPost2010Prop45
280
     0
102
RTVSPost2010PropOp45
 70
     1
102
RTVSPost2010Prop46
 90
       50
102
RTVSPost2010PropOp46
 70
     1
102
RTVSPost2010Prop47
 90
       50
102
RTVSPost2010PropOp47
 70
     1
102
RTVSPost2010Prop48
 90
       50
102
RTVSPost2010PropOp48
 70
     1
102
RTVSPost2010Prop49
280
     0
102
RTVSPost2010PropOp49
 70
     1
102
RTVSPost2010Prop50
 90
       50
102
RTVSPost2010PropOp50
 70
     1
102
RTVSPost2010Prop51ColorIndex
 90
      256
102
RTVSPost2010Prop51ColorRGB
 90
-16777216
102
RTVSPost2010PropOp51
 70
     0
102
RTVSPost2010Prop52
140
1.0
102
RTVSPost2010PropOp52
 70
     0
102
RTVSPost2010Prop53
 90
        2
102
RTVSPost2010PropOp53
 70
     1
102
RTVSPost2010Prop54
  1
strokes_ogs.tif
102
RTVSPost2010PropOp54
 70
     1
102
RTVSPost2010Prop55
280
     0
102
RTVSPost2010PropOp55
 70
     1
102
RTVSPost2010Prop56
140
1.0
102
RTVSPost2010PropOp56
 70
     1
102
RTVSPost2010Prop57
140
1.0
102
RTVSPost2010PropOp57
 70
     1
102
RTVSPropertyOp0
 70
     1
102
RTVSPropertyOp1
 70
     1
102
RTVSPropertyOp2
 70
     1
102
RTVSPropertyOp3
 70
     1
102
RTVSPropertyOp4
 70
     1
102
RTVSPropertyOp5
 70
     1
102
RTVSPropertyOp6
 70
     1
102
RTVSPropertyOp7
 70
     1
102
RTVSPropertyOp8
 70
     1
102
RTVSPropertyOp9
 70
     1
102
RTVSPropertyOp10
 70
     1
102
RTVSPropertyOp11
 70
     1
102
RTVSPropertyOp12
 70
     1
102
RTVSPropertyOp13
 70
     1
102
RTVSPropertyOp14
 70
     1
102
RTVSPropertyOp15
 70
     1
102
RTVSPropertyOp16
 70
     1
102
RTVSPropertyOp17
 70
     1
102
RTVSPropertyOp18
 70
     1
102
RTVSPropertyOp19
 70
     1
102
RTVSPropertyOp20
 70
     1
102
RTVSPropertyOp21
 70
     1
102
RTVSPropertyOp22
 70
     1
102
RTVSPropertyOp23
 70
     1
102
RTVSPropertyOp24
 70
     1
102
RTVSPropertyOp25
 70
     1
102
RTVSPropertyOp26
 70
     1
102
RTVSPropertyOp27
 70
     1
102
RTVSPropertyOp28
 70
     1
102
RTVSPropertyOp29
 70
     1
102
RTVSPropertyOp30
 70
     1
102
RTVSPropertyOp31
 70
     1
102
RTVSPropertyOp32
 70
     1
102
RTVSPropertyOp33
 70
     1
102
RTVSPropertyOp34
 70
     1
102
RTVSPropertyOp35
 70
     1
102
RTVSPropertyOp36
 70
     1
102
RTVSPropertyOp37
 70
     1
102
RTVSPropertyOp38
 70
     1
102
RTVSPropertyOp39
 70
     1
102
RTVSPropertyOp40
 70
     1
102
RTVSPropertyOp41
 70
     1
102
RTVSPropertyOp42
 70
     1
102
RTVSPropertyOp43
 70
     1
102
RTVSPropertyOp44
 70
     1
102
RTVSPropertyOp45
 70
     1
102
RTVSPropertyOp46
 70
     1
102
RTVSPropertyOp47
 70
     1
102
RTVSPropertyOp48
 70
     1
102
RTVSPropertyOp49
 70
     1
102
RTVSPropertyOp50
 70
     1
102
RTVSPropertyOp51
 70
     0
102
RTVSPropertyOp52
 70
     0
102
RTVSPropertyOp53
 70
     1
102
RTVSPropertyOp54
 70
     1
102
RTVSPropertyOp55
 70
     1
102
RTVSPropertyOp56
 70
     1
102
RTVSPropertyOp57
 70
     1
102
RTVSPropertyOp58
 70
     1
102
RTVSPropertyOp59
 70
     1
102
RTVSPropertyOp60
 70
     1
102
RTVSPropertyOp61
 70
     1
102
RTVSPropertyOp62
 70
     1
  0
ENDSEC
  0
EOF
