  0
SECTION
  2
HEADER
  9
$ACADVER
  1
AC1009
  9
$EXTMIN
 10
13.10465998
 20
0.14597685
 30
0.0
  9
$EXTMAX
 10
22.09757929
 20
5.89597685
 30
0.0
  0
ENDSEC
  0
SECTION
  2
TABLES
  0
TABLE
  2
LAYER
 70
1
 0
LAYER
 2
Construction
 70
0
 62
18
 6
CONTINUOUS
 0
ENDTAB
 0
ENDSEC
  0
SECTION
  2
ENTITIES
  0
POLYLINE
  8
Construction
 62
256
 66
   1
 39
0.000000
 70
    0
  0
VERTEX
  8
0
 10
13.98027644
 20
5.30663678
  0
VERTEX
  8
0
 10
13.91716512
 20
5.33821108
  0
VERTEX
  8
0
 10
13.90479391
 20
5.34401502
  0
VERTEX
  8
0
 10
13.89973153
 20
5.34619907
  0
VERTEX
  8
0
 10
13.89743238
 20
5.34712788
  0
VERTEX
  8
0
 10
13.89526934
 20
5.34795408
  0
VERTEX
  8
0
 10
13.89322849
 20
5.34868230
  0
VERTEX
  8
0
 10
13.89129587
 20
5.34931719
  0
VERTEX
  8
0
 10
13.88945757
 20
5.34986341
  0
VERTEX
  8
0
 10
13.88769965
 20
5.35032558
  0
VERTEX
  8
0
 10
13.88684647
 20
5.35052661
  0
VERTEX
  8
0
 10
13.88600817
 20
5.35070837
  0
VERTEX
  8
0
 10
13.88518299
 20
5.35087145
  0
VERTEX
  8
0
 10
13.88436919
 20
5.35101642
  0
VERTEX
  8
0
 10
13.88356504
 20
5.35114387
  0
VERTEX
  8
0
 10
13.88276880
 20
5.35125437
  0
VERTEX
  8
0
 10
13.88197871
 20
5.35134851
  0
VERTEX
  8
0
 10
13.88119304
 20
5.35142687
  0
VERTEX
  8
0
 10
13.88041005
 20
5.35149002
  0
VERTEX
  8
0
 10
13.87962799
 20
5.35153856
  0
VERTEX
  8
0
 10
13.87805971
 20
5.35159409
  0
VERTEX
  8
0
 10
13.87647427
 20
5.35159811
  0
VERTEX
  8
0
 10
13.87485773
 20
5.35155525
  0
VERTEX
  8
0
 10
13.87319880
 20
5.35146951
  0
VERTEX
  8
0
 10
13.87149666
 20
5.35134220
  0
VERTEX
  8
0
 10
13.86975314
 20
5.35117396
  0
VERTEX
  8
0
 10
13.86797007
 20
5.35096546
  0
VERTEX
  8
0
 10
13.86614929
 20
5.35071733
  0
VERTEX
  8
0
 10
13.86429261
 20
5.35043024
  0
VERTEX
  8
0
 10
13.86047887
 20
5.34974177
  0
VERTEX
  8
0
 10
13.85654349
 20
5.34890525
  0
VERTEX
  8
0
 10
13.85250107
 20
5.34792589
  0
VERTEX
  8
0
 10
13.84836623
 20
5.34680891
  0
VERTEX
  8
0
 10
13.84415359
 20
5.34555950
  0
VERTEX
  8
0
 10
13.83987777
 20
5.34418290
  0
VERTEX
  8
0
 10
13.83555339
 20
5.34268430
  0
VERTEX
  8
0
 10
13.83119505
 20
5.34106891
  0
VERTEX
  8
0
 10
13.82681738
 20
5.33934196
  0
VERTEX
  8
0
 10
13.82243499
 20
5.33750864
  0
VERTEX
  8
0
 10
13.81806251
 20
5.33557417
  0
VERTEX
  8
0
 10
13.81371454
 20
5.33354377
  0
VERTEX
  8
0
 10
13.80940571
 20
5.33142264
  0
VERTEX
  8
0
 10
13.80514938
 20
5.32921710
  0
VERTEX
  8
0
 10
13.80095391
 20
5.32693794
  0
VERTEX
  8
0
 10
13.79277404
 20
5.32220631
  0
VERTEX
  8
0
 10
13.78492300
 20
5.31732287
  0
VERTEX
  8
0
 10
13.77745772
 20
5.31238274
  0
VERTEX
  8
0
 10
13.77043510
 20
5.30748106
  0
VERTEX
  8
0
 10
13.76391206
 20
5.30271295
  0
VERTEX
  8
0
 10
13.73494046
 20
5.27965766
  0
VERTEX
  8
0
 10
13.73016089
 20
5.27603021
  0
VERTEX
  8
0
 10
13.72469004
 20
5.27208855
  0
VERTEX
  8
0
 10
13.71825561
 20
5.26768604
  0
VERTEX
  8
0
 10
13.65485562
 20
5.22730933
  0
VERTEX
  8
0
 10
13.64183487
 20
5.21843448
  0
VERTEX
  8
0
 10
13.62875128
 20
5.20905689
  0
VERTEX
  8
0
 10
13.61584574
 20
5.19921845
  0
VERTEX
  8
0
 10
13.60952966
 20
5.19413866
  0
VERTEX
  8
0
 10
13.60331627
 20
5.18895431
  0
VERTEX
  8
0
 10
13.59720349
 20
5.18366559
  0
VERTEX
  8
0
 10
13.59118928
 20
5.17827268
  0
VERTEX
  8
0
 10
13.57944831
 20
5.16717500
  0
VERTEX
  8
0
 10
13.56807690
 20
5.15566273
  0
VERTEX
  8
0
 10
13.55705858
 20
5.14373732
  0
VERTEX
  8
0
 10
13.54637689
 20
5.13140023
  0
VERTEX
  8
0
 10
13.53601535
 20
5.11865292
  0
VERTEX
  8
0
 10
13.52595750
 20
5.10549683
  0
VERTEX
  8
0
 10
13.51619614
 20
5.09195665
  0
VERTEX
  8
0
 10
13.50676118
 20
5.07814997
  0
VERTEX
  8
0
 10
13.49769177
 20
5.06421759
  0
VERTEX
  8
0
 10
13.48902709
 20
5.05030033
  0
VERTEX
  8
0
 10
13.47306854
 20
5.02307441
  0
VERTEX
  8
0
 10
13.45919885
 20
4.99759872
  0
VERTEX
  8
0
 10
13.44764319
 20
4.97477459
  0
VERTEX
  8
0
 10
13.44269877
 20
4.96437116
  0
VERTEX
  8
0
 10
13.43827399
 20
4.95460277
  0
VERTEX
  8
0
 10
13.43434191
 20
4.94544135
  0
VERTEX
  8
0
 10
13.43087555
 20
4.93685886
  0
VERTEX
  8
0
 10
13.42784794
 20
4.92882725
  0
VERTEX
  8
0
 10
13.42523213
 20
4.92131846
  0
VERTEX
  8
0
 10
13.42299876
 20
4.91430398
  0
VERTEX
  8
0
 10
13.42110899
 20
4.90775334
  0
VERTEX
  8
0
 10
13.41952158
 20
4.90163563
  0
VERTEX
  8
0
 10
13.41819530
 20
4.89591993
  0
VERTEX
  8
0
 10
13.41708893
 20
4.89057532
  0
VERTEX
  8
0
 10
13.41616122
 20
4.88557086
  0
VERTEX
  8
0
 10
13.41282148
 20
4.86469232
  0
VERTEX
  8
0
 10
13.41218468
 20
4.86124893
  0
VERTEX
  8
0
 10
13.41184739
 20
4.85961506
  0
VERTEX
  8
0
 10
13.41149291
 20
4.85803918
  0
VERTEX
  8
0
 10
13.41111782
 20
4.85652085
  0
VERTEX
  8
0
 10
13.41071868
 20
4.85505964
  0
VERTEX
  8
0
 10
13.41029205
 20
4.85365512
  0
VERTEX
  8
0
 10
13.40983450
 20
4.85230687
  0
VERTEX
  8
0
 10
13.40959305
 20
4.85165371
  0
VERTEX
  8
0
 10
13.40934258
 20
4.85101445
  0
VERTEX
  8
0
 10
13.40908267
 20
4.85038905
  0
VERTEX
  8
0
 10
13.40881287
 20
4.84977744
  0
VERTEX
  8
0
 10
13.40853276
 20
4.84917926
  0
VERTEX
  8
0
 10
13.40824186
 20
4.84859283
  0
VERTEX
  8
0
 10
13.40793969
 20
4.84801617
  0
VERTEX
  8
0
 10
13.40762575
 20
4.84744730
  0
VERTEX
  8
0
 10
13.40729958
 20
4.84688422
  0
VERTEX
  8
0
 10
13.40696068
 20
4.84632496
  0
VERTEX
  8
0
 10
13.40624279
 20
4.84520992
  0
VERTEX
  8
0
 10
13.40546819
 20
4.84408629
  0
VERTEX
  8
0
 10
13.40463304
 20
4.84293819
  0
VERTEX
  8
0
 10
13.39530788
 20
4.83096505
  0
VERTEX
  8
0
 10
13.39210042
 20
4.82661457
  0
VERTEX
  8
0
 10
13.38849726
 20
4.82150131
  0
VERTEX
  8
0
 10
13.38455050
 20
4.81566993
  0
VERTEX
  8
0
 10
13.37590107
 20
4.80216894
  0
VERTEX
  8
0
 10
13.36670189
 20
4.78674383
  0
VERTEX
  8
0
 10
13.36206794
 20
4.77850729
  0
VERTEX
  8
0
 10
13.35750271
 20
4.77002679
  0
VERTEX
  8
0
 10
13.35306347
 20
4.76136534
  0
VERTEX
  8
0
 10
13.34876166
 20
4.75252178
  0
VERTEX
  8
0
 10
13.34459729
 20
4.74347894
  0
VERTEX
  8
0
 10
13.34057036
 20
4.73421963
  0
VERTEX
  8
0
 10
13.33668087
 20
4.72472668
  0
VERTEX
  8
0
 10
13.33292881
 20
4.71498290
  0
VERTEX
  8
0
 10
13.32931420
 20
4.70497112
  0
VERTEX
  8
0
 10
13.32583702
 20
4.69467416
  0
VERTEX
  8
0
 10
13.31930872
 20
4.67340793
  0
VERTEX
  8
0
 10
13.30022317
 20
4.60325503
  0
VERTEX
  8
0
 10
13.29854356
 20
4.59796997
  0
VERTEX
  8
0
 10
13.29770226
 20
4.59552866
  0
VERTEX
  8
0
 10
13.29684678
 20
4.59318999
  0
VERTEX
  8
0
 10
13.29596725
 20
4.59093036
  0
VERTEX
  8
0
 10
13.29505378
 20
4.58872612
  0
VERTEX
  8
0
 10
13.29409651
 20
4.58655367
  0
VERTEX
  8
0
 10
13.29308556
 20
4.58438939
  0
VERTEX
  8
0
 10
13.29201104
 20
4.58220963
  0
VERTEX
  8
0
 10
13.29086307
 20
4.57999080
  0
VERTEX
  8
0
 10
13.28830730
 20
4.57534139
  0
VERTEX
  8
0
 10
13.26748545
 20
4.54087196
  0
VERTEX
  8
0
 10
13.26387485
 20
4.53462998
  0
VERTEX
  8
0
 10
13.26045321
 20
4.52842924
  0
VERTEX
  8
0
 10
13.25728756
 20
4.52232070
  0
VERTEX
  8
0
 10
13.25436929
 20
4.51628431
  0
VERTEX
  8
0
 10
13.25167093
 20
4.51028228
  0
VERTEX
  8
0
 10
13.24916498
 20
4.50427682
  0
VERTEX
  8
0
 10
13.24682395
 20
4.49823012
  0
VERTEX
  8
0
 10
13.24462036
 20
4.49210440
  0
VERTEX
  8
0
 10
13.24252673
 20
4.48586185
  0
VERTEX
  8
0
 10
13.24051555
 20
4.47946469
  0
VERTEX
  8
0
 10
13.23670394
 20
4.46619277
  0
VERTEX
  8
0
 10
13.23494932
 20
4.45943139
  0
VERTEX
  8
0
 10
13.23333213
 20
4.45267346
  0
VERTEX
  8
0
 10
13.23187987
 20
4.44598424
  0
VERTEX
  8
0
 10
13.23062002
 20
4.43942902
  0
VERTEX
  8
0
 10
13.22958007
 20
4.43307309
  0
VERTEX
  8
0
 10
13.22915115
 20
4.42999026
  0
VERTEX
  8
0
 10
13.22878752
 20
4.42698173
  0
VERTEX
  8
0
 10
13.22849074
 20
4.42405409
  0
VERTEX
  8
0
 10
13.22825494
 20
4.42120762
  0
VERTEX
  8
0
 10
13.22793540
 20
4.41575305
  0
VERTEX
  8
0
 10
13.22755057
 20
4.39692405
  0
VERTEX
  8
0
 10
13.22736847
 20
4.39291258
  0
VERTEX
  8
0
 10
13.22722201
 20
4.39100413
  0
VERTEX
  8
0
 10
13.22702831
 20
4.38915881
  0
VERTEX
  8
0
 10
13.22678121
 20
4.38737512
  0
VERTEX
  8
0
 10
13.22663758
 20
4.38650567
  0
VERTEX
  8
0
 10
13.22648085
 20
4.38565071
  0
VERTEX
  8
0
 10
13.22631123
 20
4.38480992
  0
VERTEX
  8
0
 10
13.22612895
 20
4.38398298
  0
VERTEX
  8
0
 10
13.22593421
 20
4.38316958
  0
VERTEX
  8
0
 10
13.22572723
 20
4.38236938
  0
VERTEX
  8
0
 10
13.22550822
 20
4.38158206
  0
VERTEX
  8
0
 10
13.22527741
 20
4.38080731
  0
VERTEX
  8
0
 10
13.22503499
 20
4.38004480
  0
VERTEX
  8
0
 10
13.22478120
 20
4.37929420
  0
VERTEX
  8
0
 10
13.22451624
 20
4.37855521
  0
VERTEX
  8
0
 10
13.22424032
 20
4.37782748
  0
VERTEX
  8
0
 10
13.22395367
 20
4.37711071
  0
VERTEX
  8
0
 10
13.22365650
 20
4.37640457
  0
VERTEX
  8
0
 10
13.22334902
 20
4.37570874
  0
VERTEX
  8
0
 10
13.22303144
 20
4.37502289
  0
VERTEX
  8
0
 10
13.22236687
 20
4.37367986
  0
VERTEX
  8
0
 10
13.22166451
 20
4.37237291
  0
VERTEX
  8
0
 10
13.22092607
 20
4.37109947
  0
VERTEX
  8
0
 10
13.22015326
 20
4.36985694
  0
VERTEX
  8
0
 10
13.21934782
 20
4.36864276
  0
VERTEX
  8
0
 10
13.21851145
 20
4.36745436
  0
VERTEX
  8
0
 10
13.21764588
 20
4.36628914
  0
VERTEX
  8
0
 10
13.21675346
 20
4.36514468
  0
VERTEX
  8
0
 10
13.21583914
 20
4.36401912
  0
VERTEX
  8
0
 10
13.20840604
 20
4.35548881
  0
VERTEX
  8
0
 10
13.20754584
 20
4.35445602
  0
VERTEX
  8
0
 10
13.20671957
 20
4.35342495
  0
VERTEX
  8
0
 10
13.20593280
 20
4.35239388
  0
VERTEX
  8
0
 10
13.20519114
 20
4.35136109
  0
VERTEX
  8
0
 10
13.20483897
 20
4.35084351
  0
VERTEX
  8
0
 10
13.20450016
 20
4.35032486
  0
VERTEX
  8
0
 10
13.20417542
 20
4.34980493
  0
VERTEX
  8
0
 10
13.20386544
 20
4.34928349
  0
VERTEX
  8
0
 10
13.20357074
 20
4.34876038
  0
VERTEX
  8
0
 10
13.20329113
 20
4.34823567
  0
VERTEX
  8
0
 10
13.20302623
 20
4.34770945
  0
VERTEX
  8
0
 10
13.20277567
 20
4.34718183
  0
VERTEX
  8
0
 10
13.20253906
 20
4.34665293
  0
VERTEX
  8
0
 10
13.20231604
 20
4.34612284
  0
VERTEX
  8
0
 10
13.20210622
 20
4.34559169
  0
VERTEX
  8
0
 10
13.20190924
 20
4.34505956
  0
VERTEX
  8
0
 10
13.20172471
 20
4.34452658
  0
VERTEX
  8
0
 10
13.20155226
 20
4.34399284
  0
VERTEX
  8
0
 10
13.20139151
 20
4.34345846
  0
VERTEX
  8
0
 10
13.20124209
 20
4.34292355
  0
VERTEX
  8
0
 10
13.20110362
 20
4.34238820
  0
VERTEX
  8
0
 10
13.20097573
 20
4.34185253
  0
VERTEX
  8
0
 10
13.20085804
 20
4.34131665
  0
VERTEX
  8
0
 10
13.20075018
 20
4.34078066
  0
VERTEX
  8
0
 10
13.20056242
 20
4.33970879
  0
VERTEX
  8
0
 10
13.20040945
 20
4.33863777
  0
VERTEX
  8
0
 10
13.20028826
 20
4.33756848
  0
VERTEX
  8
0
 10
13.20019585
 20
4.33650176
  0
VERTEX
  8
0
 10
13.20012920
 20
4.33543848
  0
VERTEX
  8
0
 10
13.20008532
 20
4.33437949
  0
VERTEX
  8
0
 10
13.20005383
 20
4.33227783
  0
VERTEX
  8
0
 10
13.20012047
 20
4.32496263
  0
VERTEX
  8
0
 10
13.20009048
 20
4.32388496
  0
VERTEX
  8
0
 10
13.20003643
 20
4.32279011
  0
VERTEX
  8
0
 10
13.19995361
 20
4.32167507
  0
VERTEX
  8
0
 10
13.19983729
 20
4.32053684
  0
VERTEX
  8
0
 10
13.19968274
 20
4.31937241
  0
VERTEX
  8
0
 10
13.19948525
 20
4.31817878
  0
VERTEX
  8
0
 10
13.19924008
 20
4.31695293
  0
VERTEX
  8
0
 10
13.19894251
 20
4.31569187
  0
VERTEX
  8
0
 10
13.19858782
 20
4.31439258
  0
VERTEX
  8
0
 10
13.19817236
 20
4.31305241
  0
VERTEX
  8
0
 10
13.19769677
 20
4.31167016
  0
VERTEX
  8
0
 10
13.19716276
 20
4.31024496
  0
VERTEX
  8
0
 10
13.19657207
 20
4.30877595
  0
VERTEX
  8
0
 10
13.19592639
 20
4.30726227
  0
VERTEX
  8
0
 10
13.19522746
 20
4.30570306
  0
VERTEX
  8
0
 10
13.19367671
 20
4.30244464
  0
VERTEX
  8
0
 10
13.19001169
 20
4.29534368
  0
VERTEX
  8
0
 10
13.17546160
 20
4.26872654
  0
VERTEX
  8
0
 10
13.16973044
 20
4.25764904
  0
VERTEX
  8
0
 10
13.16369691
 20
4.24519716
  0
VERTEX
  8
0
 10
13.15748472
 20
4.23134342
  0
VERTEX
  8
0
 10
13.15138247
 20
4.21661007
  0
VERTEX
  8
0
 10
13.14572003
 20
4.20165683
  0
VERTEX
  8
0
 10
13.14315681
 20
4.19430390
  0
VERTEX
  8
0
 10
13.14082724
 20
4.18714338
  0
VERTEX
  8
0
 10
13.13876540
 20
4.18023305
  0
VERTEX
  8
0
 10
13.13697683
 20
4.17353187
  0
VERTEX
  8
0
 10
13.13618452
 20
4.17023918
  0
VERTEX
  8
0
 10
13.13545991
 20
4.16697414
  0
VERTEX
  8
0
 10
13.13480282
 20
4.16372854
  0
VERTEX
  8
0
 10
13.13421304
 20
4.16049415
  0
VERTEX
  8
0
 10
13.13369036
 20
4.15726277
  0
VERTEX
  8
0
 10
13.13323459
 20
4.15402617
  0
VERTEX
  8
0
 10
13.13284553
 20
4.15077615
  0
VERTEX
  8
0
 10
13.13252297
 20
4.14750450
  0
VERTEX
  8
0
 10
13.13226671
 20
4.14420299
  0
VERTEX
  8
0
 10
13.13207655
 20
4.14086342
  0
VERTEX
  8
0
 10
13.13195229
 20
4.13747756
  0
VERTEX
  8
0
 10
13.13189373
 20
4.13403721
  0
VERTEX
  8
0
 10
13.13196055
 20
4.12698181
  0
VERTEX
  8
0
 10
13.13357470
 20
4.09018854
  0
VERTEX
  8
0
 10
13.13362360
 20
4.08297589
  0
VERTEX
  8
0
 10
13.13355229
 20
4.07943996
  0
VERTEX
  8
0
 10
13.13340453
 20
4.07596166
  0
VERTEX
  8
0
 10
13.13317321
 20
4.07254482
  0
VERTEX
  8
0
 10
13.13286065
 20
4.06917652
  0
VERTEX
  8
0
 10
13.13247155
 20
4.06583965
  0
VERTEX
  8
0
 10
13.13201059
 20
4.06251708
  0
VERTEX
  8
0
 10
13.13089182
 20
4.05584642
  0
VERTEX
  8
0
 10
13.11867882
 20
3.99771496
  0
VERTEX
  8
0
 10
13.11486613
 20
3.97573475
  0
VERTEX
  8
0
 10
13.11140402
 20
3.95276119
  0
VERTEX
  8
0
 10
13.10855546
 20
3.92996292
  0
VERTEX
  8
0
 10
13.10652251
 20
3.90833330
  0
VERTEX
  8
0
 10
13.10526378
 20
3.88816448
  0
VERTEX
  8
0
 10
13.10467703
 20
3.86957332
  0
VERTEX
  8
0
 10
13.10465998
 20
3.85267670
  0
VERTEX
  8
0
 10
13.10509822
 20
3.83759391
  0
VERTEX
  8
0
 10
13.10582863
 20
3.82445399
  0
VERTEX
  8
0
 10
13.10804905
 20
3.79786494
  0
VERTEX
  8
0
 10
13.10839964
 20
3.79282274
  0
VERTEX
  8
0
 10
13.10848729
 20
3.79068601
  0
VERTEX
  8
0
 10
13.10851650
 20
3.78868623
  0
VERTEX
  8
0
 10
13.10848729
 20
3.78673393
  0
VERTEX
  8
0
 10
13.10730404
 20
3.76674984
  0
VERTEX
  8
0
 10
13.10715309
 20
3.75622475
  0
VERTEX
  8
0
 10
13.10773741
 20
3.72728137
  0
VERTEX
  8
0
 10
13.10902291
 20
3.69857173
  0
VERTEX
  8
0
 10
13.10974845
 20
3.68820003
  0
VERTEX
  8
0
 10
13.11015686
 20
3.68387970
  0
VERTEX
  8
0
 10
13.11062006
 20
3.67987345
  0
VERTEX
  8
0
 10
13.11115630
 20
3.67598406
  0
VERTEX
  8
0
 10
13.11178383
 20
3.67201433
  0
VERTEX
  8
0
 10
13.12559816
 20
3.59935399
  0
VERTEX
  8
0
 10
13.12609270
 20
3.59618891
  0
VERTEX
  8
0
 10
13.12650142
 20
3.59316992
  0
VERTEX
  8
0
 10
13.12683345
 20
3.59019475
  0
VERTEX
  8
0
 10
13.12709792
 20
3.58716115
  0
VERTEX
  8
0
 10
13.12817161
 20
3.56509572
  0
VERTEX
  8
0
 10
13.12881193
 20
3.55584154
  0
VERTEX
  8
0
 10
13.12983936
 20
3.54549418
  0
VERTEX
  8
0
 10
13.13130503
 20
3.53429956
  0
VERTEX
  8
0
 10
13.13221134
 20
3.52848496
  0
VERTEX
  8
0
 10
13.13323816
 20
3.52257905
  0
VERTEX
  8
0
 10
13.13438915
 20
3.51662202
  0
VERTEX
  8
0
 10
13.13566796
 20
3.51065403
  0
VERTEX
  8
0
 10
13.13707824
 20
3.50471191
  0
VERTEX
  8
0
 10
13.13862365
 20
3.49881909
  0
VERTEX
  8
0
 10
13.14030784
 20
3.49299566
  0
VERTEX
  8
0
 10
13.14213445
 20
3.48726171
  0
VERTEX
  8
0
 10
13.14410714
 20
3.48163731
  0
VERTEX
  8
0
 10
13.14622957
 20
3.47614256
  0
VERTEX
  8
0
 10
13.14734807
 20
3.47345008
  0
VERTEX
  8
0
 10
13.14850538
 20
3.47079754
  0
VERTEX
  8
0
 10
13.14970194
 20
3.46818746
  0
VERTEX
  8
0
 10
13.15093822
 20
3.46562234
  0
VERTEX
  8
0
 10
13.15221395
 20
3.46310455
  0
VERTEX
  8
0
 10
13.15352597
 20
3.46063583
  0
VERTEX
  8
0
 10
13.15487041
 20
3.45821778
  0
VERTEX
  8
0
 10
13.15624337
 20
3.45585201
  0
VERTEX
  8
0
 10
13.15905937
 20
3.45128365
  0
VERTEX
  8
0
 10
13.16194294
 20
3.44694354
  0
VERTEX
  8
0
 10
13.16486302
 20
3.44284447
  0
VERTEX
  8
0
 10
13.16778858
 20
3.43899921
  0
VERTEX
  8
0
 10
13.17068858
 20
3.43542055
  0
VERTEX
  8
0
 10
13.17353197
 20
3.43212126
  0
VERTEX
  8
0
 10
13.17629817
 20
3.42910163
  0
VERTEX
  8
0
 10
13.17900837
 20
3.42631185
  0
VERTEX
  8
0
 10
13.18169422
 20
3.42368965
  0
VERTEX
  8
0
 10
13.20232390
 20
3.40497540
  0
VERTEX
  8
0
 10
13.20880598
 20
3.39880778
  0
VERTEX
  8
0
 10
13.21467453
 20
3.39300265
  0
VERTEX
  8
0
 10
13.21717938
 20
3.39042154
  0
VERTEX
  8
0
 10
13.21929162
 20
3.38815367
  0
VERTEX
  8
0
 10
13.22017844
 20
3.38715744
  0
VERTEX
  8
0
 10
13.22095426
 20
3.38624961
  0
VERTEX
  8
0
 10
13.22162615
 20
3.38542175
  0
VERTEX
  8
0
 10
13.22192534
 20
3.38503517
  0
VERTEX
  8
0
 10
13.22220120
 20
3.38466540
  0
VERTEX
  8
0
 10
13.22245462
 20
3.38431141
  0
VERTEX
  8
0
 10
13.22268649
 20
3.38397212
  0
VERTEX
  8
0
 10
13.22289768
 20
3.38364648
  0
VERTEX
  8
0
 10
13.22308909
 20
3.38333344
  0
VERTEX
  8
0
 10
13.22326160
 20
3.38303195
  0
VERTEX
  8
0
 10
13.22341610
 20
3.38274093
  0
VERTEX
  8
0
 10
13.22348687
 20
3.38259903
  0
VERTEX
  8
0
 10
13.22355346
 20
3.38245935
  0
VERTEX
  8
0
 10
13.22361600
 20
3.38232176
  0
VERTEX
  8
0
 10
13.22367459
 20
3.38218613
  0
VERTEX
  8
0
 10
13.22372933
 20
3.38205233
  0
VERTEX
  8
0
 10
13.22378035
 20
3.38192023
  0
VERTEX
  8
0
 10
13.22382774
 20
3.38178970
  0
VERTEX
  8
0
 10
13.22387163
 20
3.38166060
  0
VERTEX
  8
0
 10
13.22391212
 20
3.38153279
  0
VERTEX
  8
0
 10
13.22394933
 20
3.38140616
  0
VERTEX
  8
0
 10
13.22398336
 20
3.38128056
  0
VERTEX
  8
0
 10
13.22401432
 20
3.38115587
  0
VERTEX
  8
0
 10
13.22404233
 20
3.38103195
  0
VERTEX
  8
0
 10
13.22406749
 20
3.38090867
  0
VERTEX
  8
0
 10
13.22408993
 20
3.38078590
  0
VERTEX
  8
0
 10
13.22410973
 20
3.38066351
  0
VERTEX
  8
0
 10
13.22412703
 20
3.38054136
  0
VERTEX
  8
0
 10
13.22414192
 20
3.38041932
  0
VERTEX
  8
0
 10
13.22415453
 20
3.38029727
  0
VERTEX
  8
0
 10
13.22416495
 20
3.38017506
  0
VERTEX
  8
0
 10
13.22417970
 20
3.37992966
  0
VERTEX
  8
0
 10
13.22418705
 20
3.37968207
  0
VERTEX
  8
0
 10
13.22418789
 20
3.37943124
  0
VERTEX
  8
0
 10
13.22418312
 20
3.37917610
  0
VERTEX
  8
0
 10
13.22416023
 20
3.37864869
  0
VERTEX
  8
0
 10
13.22141630
 20
3.32926243
  0
VERTEX
  8
0
 10
13.22102653
 20
3.31286843
  0
VERTEX
  8
0
 10
13.22105848
 20
3.29579395
  0
VERTEX
  8
0
 10
13.22128870
 20
3.28728227
  0
VERTEX
  8
0
 10
13.22167348
 20
3.27886164
  0
VERTEX
  8
0
 10
13.22221399
 20
3.27055602
  0
VERTEX
  8
0
 10
13.22291145
 20
3.26238937
  0
VERTEX
  8
0
 10
13.22376705
 20
3.25438566
  0
VERTEX
  8
0
 10
13.22478199
 20
3.24656884
  0
VERTEX
  8
0
 10
13.22595747
 20
3.23896288
  0
VERTEX
  8
0
 10
13.22729468
 20
3.23159173
  0
VERTEX
  8
0
 10
13.22878605
 20
3.22448495
  0
VERTEX
  8
0
 10
13.23038882
 20
3.21769446
  0
VERTEX
  8
0
 10
13.23205151
 20
3.21127775
  0
VERTEX
  8
0
 10
13.23372257
 20
3.20529233
  0
VERTEX
  8
0
 10
13.24040629
 20
3.18379682
  0
VERTEX
  8
0
 10
13.24078026
 20
3.18248106
  0
VERTEX
  8
0
 10
13.24094153
 20
3.18185791
  0
VERTEX
  8
0
 10
13.24108529
 20
3.18125278
  0
VERTEX
  8
0
 10
13.24121126
 20
3.18066183
  0
VERTEX
  8
0
 10
13.24131917
 20
3.18008122
  0
VERTEX
  8
0
 10
13.24140873
 20
3.17950712
  0
VERTEX
  8
0
 10
13.24147968
 20
3.17893566
  0
VERTEX
  8
0
 10
13.24153173
 20
3.17836302
  0
VERTEX
  8
0
 10
13.24156462
 20
3.17778534
  0
VERTEX
  8
0
 10
13.24157805
 20
3.17719880
  0
VERTEX
  8
0
 10
13.24157176
 20
3.17659953
  0
VERTEX
  8
0
 10
13.24154547
 20
3.17598370
  0
VERTEX
  8
0
 10
13.24149890
 20
3.17534748
  0
VERTEX
  8
0
 10
13.24143178
 20
3.17468700
  0
VERTEX
  8
0
 10
13.24134383
 20
3.17399844
  0
VERTEX
  8
0
 10
13.24123476
 20
3.17327794
  0
VERTEX
  8
0
 10
13.24110432
 20
3.17252167
  0
VERTEX
  8
0
 10
13.24077816
 20
3.17088644
  0
VERTEX
  8
0
 10
13.24036315
 20
3.16906199
  0
VERTEX
  8
0
 10
13.23493272
 20
3.14883020
  0
VERTEX
  8
0
 10
13.23048907
 20
3.13107065
  0
VERTEX
  8
0
 10
13.22819649
 20
3.12069667
  0
VERTEX
  8
0
 10
13.22598171
 20
3.10941841
  0
VERTEX
  8
0
 10
13.22393848
 20
3.09730478
  0
VERTEX
  8
0
 10
13.22216050
 20
3.08442466
  0
VERTEX
  8
0
 10
13.22072418
 20
3.07084426
  0
VERTEX
  8
0
 10
13.21963654
 20
3.05661900
  0
VERTEX
  8
0
 10
13.21888725
 20
3.04180164
  0
VERTEX
  8
0
 10
13.21846601
 20
3.02644489
  0
VERTEX
  8
0
 10
13.21836249
 20
3.01060152
  0
VERTEX
  8
0
 10
13.21856638
 20
2.99432425
  0
VERTEX
  8
0
 10
13.21985510
 20
2.96067897
  0
VERTEX
  8
0
 10
13.22220256
 20
2.92617610
  0
VERTEX
  8
0
 10
13.22529085
 20
2.89246309
  0
VERTEX
  8
0
 10
13.22875498
 20
2.86143253
  0
VERTEX
  8
0
 10
13.23222996
 20
2.83497700
  0
VERTEX
  8
0
 10
13.23544414
 20
2.81447122
  0
VERTEX
  8
0
 10
13.23697938
 20
2.80626413
  0
VERTEX
  8
0
 10
13.23849922
 20
2.79921846
  0
VERTEX
  8
0
 10
13.23926098
 20
2.79608372
  0
VERTEX
  8
0
 10
13.24002804
 20
2.79318240
  0
VERTEX
  8
0
 10
13.24080344
 20
2.79049552
  0
VERTEX
  8
0
 10
13.24159022
 20
2.78800411
  0
VERTEX
  8
0
 10
13.24239143
 20
2.78568919
  0
VERTEX
  8
0
 10
13.24321013
 20
2.78353179
  0
VERTEX
  8
0
 10
13.24404936
 20
2.78151291
  0
VERTEX
  8
0
 10
13.24491216
 20
2.77961359
  0
VERTEX
  8
0
 10
13.24580141
 20
2.77781723
  0
VERTEX
  8
0
 10
13.24625666
 20
2.77695533
  0
VERTEX
  8
0
 10
13.24671933
 20
2.77611684
  0
VERTEX
  8
0
 10
13.24718966
 20
2.77530118
  0
VERTEX
  8
0
 10
13.24766793
 20
2.77450777
  0
VERTEX
  8
0
 10
13.24815438
 20
2.77373604
  0
VERTEX
  8
0
 10
13.24864926
 20
2.77298541
  0
VERTEX
  8
0
 10
13.24915283
 20
2.77225531
  0
VERTEX
  8
0
 10
13.24966534
 20
2.77154514
  0
VERTEX
  8
0
 10
13.25018706
 20
2.77085435
  0
VERTEX
  8
0
 10
13.25071822
 20
2.77018234
  0
VERTEX
  8
0
 10
13.25125909
 20
2.76952855
  0
VERTEX
  8
0
 10
13.25180992
 20
2.76889238
  0
VERTEX
  8
0
 10
13.25237097
 20
2.76827328
  0
VERTEX
  8
0
 10
13.25294248
 20
2.76767065
  0
VERTEX
  8
0
 10
13.25352472
 20
2.76708392
  0
VERTEX
  8
0
 10
13.25411794
 20
2.76651251
  0
VERTEX
  8
0
 10
13.25472239
 20
2.76595585
  0
VERTEX
  8
0
 10
13.25533832
 20
2.76541335
  0
VERTEX
  8
0
 10
13.25596599
 20
2.76488444
  0
VERTEX
  8
0
 10
13.25660566
 20
2.76436855
  0
VERTEX
  8
0
 10
13.25725758
 20
2.76386508
  0
VERTEX
  8
0
 10
13.25792200
 20
2.76337348
  0
VERTEX
  8
0
 10
13.25859917
 20
2.76289315
  0
VERTEX
  8
0
 10
13.25928936
 20
2.76242352
  0
VERTEX
  8
0
 10
13.25999281
 20
2.76196401
  0
VERTEX
  8
0
 10
13.26070978
 20
2.76151405
  0
VERTEX
  8
0
 10
13.26218530
 20
2.76064044
  0
VERTEX
  8
0
 10
13.26371795
 20
2.75979809
  0
VERTEX
  8
0
 10
13.26530770
 20
2.75898322
  0
VERTEX
  8
0
 10
13.26694625
 20
2.75819552
  0
VERTEX
  8
0
 10
13.26862326
 20
2.75743556
  0
VERTEX
  8
0
 10
13.27032838
 20
2.75670389
  0
VERTEX
  8
0
 10
13.27378150
 20
2.75532762
  0
VERTEX
  8
0
 10
13.27722278
 20
2.75407116
  0
VERTEX
  8
0
 10
13.28056941
 20
2.75293893
  0
VERTEX
  8
0
 10
13.28373855
 20
2.75193539
  0
VERTEX
  8
0
 10
13.29316511
 20
2.74920405
  0
VERTEX
  8
0
 10
13.29393681
 20
2.74894978
  0
VERTEX
  8
0
 10
13.29429479
 20
2.74882121
  0
VERTEX
  8
0
 10
13.29463530
 20
2.74869032
  0
VERTEX
  8
0
 10
13.29495917
 20
2.74855611
  0
VERTEX
  8
0
 10
13.29526723
 20
2.74841756
  0
VERTEX
  8
0
 10
13.29541559
 20
2.74834634
  0
VERTEX
  8
0
 10
13.29556031
 20
2.74827364
  0
VERTEX
  8
0
 10
13.29570150
 20
2.74819936
  0
VERTEX
  8
0
 10
13.29583926
 20
2.74812335
  0
VERTEX
  8
0
 10
13.29597368
 20
2.74804549
  0
VERTEX
  8
0
 10
13.29610489
 20
2.74796566
  0
VERTEX
  8
0
 10
13.29623297
 20
2.74788372
  0
VERTEX
  8
0
 10
13.29635804
 20
2.74779956
  0
VERTEX
  8
0
 10
13.29648019
 20
2.74771303
  0
VERTEX
  8
0
 10
13.29659954
 20
2.74762403
  0
VERTEX
  8
0
 10
13.29671618
 20
2.74753241
  0
VERTEX
  8
0
 10
13.29683023
 20
2.74743805
  0
VERTEX
  8
0
 10
13.29694178
 20
2.74734083
  0
VERTEX
  8
0
 10
13.29705093
 20
2.74724061
  0
VERTEX
  8
0
 10
13.29715780
 20
2.74713728
  0
VERTEX
  8
0
 10
13.29726248
 20
2.74703069
  0
VERTEX
  8
0
 10
13.29736509
 20
2.74692073
  0
VERTEX
  8
0
 10
13.29746572
 20
2.74680728
  0
VERTEX
  8
0
 10
13.29756447
 20
2.74669019
  0
VERTEX
  8
0
 10
13.29766146
 20
2.74656935
  0
VERTEX
  8
0
 10
13.29775679
 20
2.74644462
  0
VERTEX
  8
0
 10
13.29785055
 20
2.74631589
  0
VERTEX
  8
0
 10
13.29794286
 20
2.74618302
  0
VERTEX
  8
0
 10
13.29803382
 20
2.74604588
  0
VERTEX
  8
0
 10
13.29812352
 20
2.74590436
  0
VERTEX
  8
0
 10
13.29821209
 20
2.74575831
  0
VERTEX
  8
0
 10
13.29829961
 20
2.74560762
  0
VERTEX
  8
0
 10
13.29838620
 20
2.74545216
  0
VERTEX
  8
0
 10
13.29855699
 20
2.74512641
  0
VERTEX
  8
0
 10
13.29872528
 20
2.74478005
  0
VERTEX
  8
0
 10
13.29889190
 20
2.74441206
  0
VERTEX
  8
0
 10
13.29905770
 20
2.74402141
  0
VERTEX
  8
0
 10
13.29922344
 20
2.74360735
  0
VERTEX
  8
0
 10
13.29938972
 20
2.74317003
  0
VERTEX
  8
0
 10
13.29972599
 20
2.74222731
  0
VERTEX
  8
0
 10
13.30307952
 20
2.73179696
  0
VERTEX
  8
0
 10
13.30425808
 20
2.72850900
  0
VERTEX
  8
0
 10
13.30564076
 20
2.72500214
  0
VERTEX
  8
0
 10
13.30641927
 20
2.72317495
  0
VERTEX
  8
0
 10
13.30726157
 20
2.72130301
  0
VERTEX
  8
0
 10
13.30817033
 20
2.71939018
  0
VERTEX
  8
0
 10
13.30914195
 20
2.71744241
  0
VERTEX
  8
0
 10
13.31125306
 20
2.71346792
  0
VERTEX
  8
0
 10
13.31355350
 20
2.70943131
  0
VERTEX
  8
0
 10
13.31600184
 20
2.70538434
  0
VERTEX
  8
0
 10
13.31855668
 20
2.70137880
  0
VERTEX
  8
0
 10
13.32117659
 20
2.69746643
  0
VERTEX
  8
0
 10
13.32382017
 20
2.69369901
  0
VERTEX
  8
0
 10
13.32644600
 20
2.69012830
  0
VERTEX
  8
0
 10
13.32901489
 20
2.68679745
  0
VERTEX
  8
0
 10
13.33149651
 20
2.68371509
  0
VERTEX
  8
0
 10
13.34297995
 20
2.67043902
  0
VERTEX
  8
0
 10
13.34355993
 20
2.66973335
  0
VERTEX
  8
0
 10
13.34382364
 20
2.66939797
  0
VERTEX
  8
0
 10
13.34407002
 20
2.66907113
  0
VERTEX
  8
0
 10
13.34429921
 20
2.66875048
  0
VERTEX
  8
0
 10
13.34451134
 20
2.66843368
  0
VERTEX
  8
0
 10
13.34461105
 20
2.66827600
  0
VERTEX
  8
0
 10
13.34470655
 20
2.66811842
  0
VERTEX
  8
0
 10
13.34479786
 20
2.66796062
  0
VERTEX
  8
0
 10
13.34488499
 20
2.66780234
  0
VERTEX
  8
0
 10
13.34496795
 20
2.66764327
  0
VERTEX
  8
0
 10
13.34504678
 20
2.66748312
  0
VERTEX
  8
0
 10
13.34512148
 20
2.66732160
  0
VERTEX
  8
0
 10
13.34519208
 20
2.66715842
  0
VERTEX
  8
0
 10
13.34525858
 20
2.66699329
  0
VERTEX
  8
0
 10
13.34532101
 20
2.66682591
  0
VERTEX
  8
0
 10
13.34537938
 20
2.66665600
  0
VERTEX
  8
0
 10
13.34543372
 20
2.66648326
  0
VERTEX
  8
0
 10
13.34548403
 20
2.66630740
  0
VERTEX
  8
0
 10
13.34553034
 20
2.66612813
  0
VERTEX
  8
0
 10
13.34557267
 20
2.66594515
  0
VERTEX
  8
0
 10
13.34561102
 20
2.66575818
  0
VERTEX
  8
0
 10
13.34564542
 20
2.66556692
  0
VERTEX
  8
0
 10
13.34567589
 20
2.66537109
  0
VERTEX
  8
0
 10
13.34570244
 20
2.66517038
  0
VERTEX
  8
0
 10
13.34572509
 20
2.66496451
  0
VERTEX
  8
0
 10
13.34574386
 20
2.66475319
  0
VERTEX
  8
0
 10
13.34575877
 20
2.66453612
  0
VERTEX
  8
0
 10
13.34576982
 20
2.66431301
  0
VERTEX
  8
0
 10
13.34577705
 20
2.66408357
  0
VERTEX
  8
0
 10
13.34578007
 20
2.66360455
  0
VERTEX
  8
0
 10
13.34576799
 20
2.66309670
  0
VERTEX
  8
0
 10
13.34574092
 20
2.66255770
  0
VERTEX
  8
0
 10
13.34569903
 20
2.66198522
  0
VERTEX
  8
0
 10
13.34086284
 20
2.65359636
  0
VERTEX
  8
0
 10
13.33684257
 20
2.64432775
  0
VERTEX
  8
0
 10
13.33359176
 20
2.63436754
  0
VERTEX
  8
0
 10
13.33106397
 20
2.62390391
  0
VERTEX
  8
0
 10
13.32799169
 20
2.60221907
  0
VERTEX
  8
0
 10
13.32725415
 20
2.58077860
  0
VERTEX
  8
0
 10
13.32810625
 20
2.56589722
  0
VERTEX
  8
0
 10
13.33014616
 20
2.55075055
  0
VERTEX
  8
0
 10
13.33324641
 20
2.53556489
  0
VERTEX
  8
0
 10
13.33727952
 20
2.52056653
  0
VERTEX
  8
0
 10
13.34211799
 20
2.50598177
  0
VERTEX
  8
0
 10
13.34763435
 20
2.49203690
  0
VERTEX
  8
0
 10
13.35370112
 20
2.47895822
  0
VERTEX
  8
0
 10
13.36019080
 20
2.46697203
  0
SEQEND
  0
POLYLINE
  8
Construction
 62
256
 66
   1
 39
0.000000
 70
    1
  0
VERTEX
  8
0
 10
16.60418104
 20
0.14597685
  0
VERTEX
  8
0
 10
16.60418104
 20
0.33347685
  0
VERTEX
  8
0
 10
16.57424374
 20
0.32901204
  0
VERTEX
  8
0
 10
16.54416989
 20
0.32558560
  0
VERTEX
  8
0
 10
16.51399550
 20
0.32320163
  0
VERTEX
  8
0
 10
16.48375670
 20
0.32186299
  0
VERTEX
  8
0
 10
16.45348970
 20
0.32157128
  0
VERTEX
  8
0
 10
16.42323072
 20
0.32232685
  0
VERTEX
  8
0
 10
16.39301599
 20
0.32412879
  0
VERTEX
  8
0
 10
16.36288169
 20
0.32697495
  0
VERTEX
  8
0
 10
16.33286389
 20
0.33086191
  0
VERTEX
  8
0
 10
16.30299853
 20
0.33578504
  0
VERTEX
  8
0
 10
16.27332136
 20
0.34173842
  0
VERTEX
  8
0
 10
16.24386792
 20
0.34871494
  0
VERTEX
  8
0
 10
16.21467347
 20
0.35670624
  0
VERTEX
  8
0
 10
16.18577296
 20
0.36570275
  0
VERTEX
  8
0
 10
16.15720099
 20
0.37569371
  0
VERTEX
  8
0
 10
16.12899176
 20
0.38666715
  0
VERTEX
  8
0
 10
16.10117906
 20
0.39860993
  0
VERTEX
  8
0
 10
16.07379616
 20
0.41150776
  0
VERTEX
  8
0
 10
16.04687587
 20
0.42534520
  0
VERTEX
  8
0
 10
16.02045041
 20
0.44010567
  0
VERTEX
  8
0
 10
15.99455141
 20
0.45577152
  0
VERTEX
  8
0
 10
15.96920988
 20
0.47232397
  0
VERTEX
  8
0
 10
15.94445616
 20
0.48974323
  0
VERTEX
  8
0
 10
15.92031989
 20
0.50800842
  0
VERTEX
  8
0
 10
15.89682997
 20
0.52709769
  0
VERTEX
  8
0
 10
15.87401450
 20
0.54698817
  0
VERTEX
  8
0
 10
15.85190082
 20
0.56765607
  0
VERTEX
  8
0
 10
15.83051539
 20
0.58907662
  0
VERTEX
  8
0
 10
15.80988382
 20
0.61122420
  0
VERTEX
  8
0
 10
15.79003081
 20
0.63407228
  0
VERTEX
  8
0
 10
15.77098012
 20
0.65759350
  0
VERTEX
  8
0
 10
15.75275457
 20
0.68175972
  0
VERTEX
  8
0
 10
15.73537597
 20
0.70654199
  0
VERTEX
  8
0
 10
15.71886512
 20
0.73191065
  0
VERTEX
  8
0
 10
15.70324181
 20
0.75783533
  0
VERTEX
  8
0
 10
15.68852472
 20
0.78428498
  0
VERTEX
  8
0
 10
15.67473149
 20
0.81122795
  0
VERTEX
  8
0
 10
15.66187862
 20
0.83863198
  0
VERTEX
  8
0
 10
15.64998150
 20
0.86646425
  0
VERTEX
  8
0
 10
15.63905437
 20
0.89469145
  0
VERTEX
  8
0
 10
15.62911033
 20
0.92327978
  0
VERTEX
  8
0
 10
15.62016126
 20
0.95219502
  0
VERTEX
  8
0
 10
15.78166131
 20
0.95219502
  0
VERTEX
  8
0
 10
15.78567381
 20
0.95226429
  0
VERTEX
  8
0
 10
15.78968153
 20
0.95247201
  0
VERTEX
  8
0
 10
15.79367969
 20
0.95281794
  0
VERTEX
  8
0
 10
15.79766353
 20
0.95330167
  0
VERTEX
  8
0
 10
15.80162830
 20
0.95392261
  0
VERTEX
  8
0
 10
15.80556927
 20
0.95468003
  0
VERTEX
  8
0
 10
15.80948175
 20
0.95557303
  0
VERTEX
  8
0
 10
15.81336108
 20
0.95660054
  0
VERTEX
  8
0
 10
15.81720263
 20
0.95776134
  0
VERTEX
  8
0
 10
15.82100183
 20
0.95905404
  0
VERTEX
  8
0
 10
15.82475414
 20
0.96047710
  0
VERTEX
  8
0
 10
15.82845510
 20
0.96202884
  0
VERTEX
  8
0
 10
15.83210029
 20
0.96370739
  0
VERTEX
  8
0
 10
15.83568537
 20
0.96551075
  0
VERTEX
  8
0
 10
15.83920608
 20
0.96743679
  0
VERTEX
  8
0
 10
15.84265820
 20
0.96948320
  0
VERTEX
  8
0
 10
15.84603764
 20
0.97164755
  0
VERTEX
  8
0
 10
15.84934035
 20
0.97392725
  0
VERTEX
  8
0
 10
15.85256241
 20
0.97631958
  0
VERTEX
  8
0
 10
15.85569998
 20
0.97882171
  0
VERTEX
  8
0
 10
15.85874931
 20
0.98143064
  0
VERTEX
  8
0
 10
15.86170678
 20
0.98414327
  0
VERTEX
  8
0
 10
15.86456886
 20
0.98695636
  0
VERTEX
  8
0
 10
15.86733213
 20
0.98986657
  0
VERTEX
  8
0
 10
15.86999331
 20
0.99287042
  0
VERTEX
  8
0
 10
15.87254922
 20
0.99596433
  0
VERTEX
  8
0
 10
15.87499681
 20
0.99914462
  0
VERTEX
  8
0
 10
15.87733318
 20
1.00240749
  0
VERTEX
  8
0
 10
15.87955553
 20
1.00574906
  0
VERTEX
  8
0
 10
15.88166122
 20
1.00916535
  0
VERTEX
  8
0
 10
15.88364774
 20
1.01265228
  0
VERTEX
  8
0
 10
15.88551272
 20
1.01620571
  0
VERTEX
  8
0
 10
15.88725394
 20
1.01982138
  0
VERTEX
  8
0
 10
15.88886932
 20
1.02349501
  0
VERTEX
  8
0
 10
15.89035694
 20
1.02722220
  0
VERTEX
  8
0
 10
15.89171503
 20
1.03099852
  0
VERTEX
  8
0
 10
15.89294196
 20
1.03481946
  0
VERTEX
  8
0
 10
15.89403628
 20
1.03868047
  0
VERTEX
  8
0
 10
15.89499668
 20
1.04257696
  0
VERTEX
  8
0
 10
15.89582201
 20
1.04650427
  0
VERTEX
  8
0
 10
15.89651130
 20
1.05045773
  0
VERTEX
  8
0
 10
15.89706371
 20
1.05443263
  0
VERTEX
  8
0
 10
15.89747860
 20
1.05842422
  0
VERTEX
  8
0
 10
15.89775547
 20
1.06242776
  0
VERTEX
  8
0
 10
15.89789399
 20
1.06643847
  0
VERTEX
  8
0
 10
15.89789399
 20
1.07045157
  0
VERTEX
  8
0
 10
15.89775547
 20
1.07446227
  0
VERTEX
  8
0
 10
15.89747860
 20
1.07846581
  0
VERTEX
  8
0
 10
15.89706371
 20
1.08245741
  0
VERTEX
  8
0
 10
15.89651130
 20
1.08643230
  0
VERTEX
  8
0
 10
15.89582201
 20
1.09038576
  0
VERTEX
  8
0
 10
15.89499668
 20
1.09431308
  0
VERTEX
  8
0
 10
15.89403628
 20
1.09820956
  0
VERTEX
  8
0
 10
15.89294196
 20
1.10207058
  0
VERTEX
  8
0
 10
15.89171503
 20
1.10589152
  0
VERTEX
  8
0
 10
15.89035694
 20
1.10966783
  0
VERTEX
  8
0
 10
15.88886932
 20
1.11339503
  0
VERTEX
  8
0
 10
15.88725394
 20
1.11706865
  0
VERTEX
  8
0
 10
15.88551272
 20
1.12068433
  0
VERTEX
  8
0
 10
15.88364774
 20
1.12423775
  0
VERTEX
  8
0
 10
15.88166122
 20
1.12772468
  0
VERTEX
  8
0
 10
15.87955553
 20
1.13114097
  0
VERTEX
  8
0
 10
15.87733318
 20
1.13448254
  0
VERTEX
  8
0
 10
15.87499681
 20
1.13774542
  0
VERTEX
  8
0
 10
15.87254922
 20
1.14092571
  0
VERTEX
  8
0
 10
15.86999331
 20
1.14401962
  0
VERTEX
  8
0
 10
15.86733213
 20
1.14702347
  0
VERTEX
  8
0
 10
15.86456886
 20
1.14993367
  0
VERTEX
  8
0
 10
15.86170678
 20
1.15274676
  0
VERTEX
  8
0
 10
15.85874931
 20
1.15545939
  0
VERTEX
  8
0
 10
15.85569998
 20
1.15806832
  0
VERTEX
  8
0
 10
15.85256241
 20
1.16057045
  0
VERTEX
  8
0
 10
15.84934035
 20
1.16296279
  0
VERTEX
  8
0
 10
15.84603764
 20
1.16524249
  0
VERTEX
  8
0
 10
15.84265820
 20
1.16740683
  0
VERTEX
  8
0
 10
15.83920608
 20
1.16945324
  0
VERTEX
  8
0
 10
15.83568537
 20
1.17137928
  0
VERTEX
  8
0
 10
15.83210029
 20
1.17318265
  0
VERTEX
  8
0
 10
15.82845510
 20
1.17486120
  0
VERTEX
  8
0
 10
15.82475414
 20
1.17641293
  0
VERTEX
  8
0
 10
15.82100183
 20
1.17783599
  0
VERTEX
  8
0
 10
15.81720263
 20
1.17912870
  0
VERTEX
  8
0
 10
15.81336108
 20
1.18028949
  0
VERTEX
  8
0
 10
15.80948175
 20
1.18131700
  0
VERTEX
  8
0
 10
15.80556927
 20
1.18221000
  0
VERTEX
  8
0
 10
15.80162830
 20
1.18296742
  0
VERTEX
  8
0
 10
15.79766353
 20
1.18358837
  0
VERTEX
  8
0
 10
15.79367969
 20
1.18407209
  0
VERTEX
  8
0
 10
15.78968153
 20
1.18441802
  0
VERTEX
  8
0
 10
15.78567381
 20
1.18462575
  0
VERTEX
  8
0
 10
15.78166131
 20
1.18469502
  0
VERTEX
  8
0
 10
15.70886212
 20
1.18469502
  0
VERTEX
  8
0
 10
14.49949996
 20
1.18469502
  0
VERTEX
  8
0
 10
14.42670078
 20
1.18469502
  0
VERTEX
  8
0
 10
14.42268828
 20
1.18462575
  0
VERTEX
  8
0
 10
14.41868056
 20
1.18441802
  0
VERTEX
  8
0
 10
14.41468239
 20
1.18407209
  0
VERTEX
  8
0
 10
14.41069856
 20
1.18358837
  0
VERTEX
  8
0
 10
14.40673379
 20
1.18296742
  0
VERTEX
  8
0
 10
14.40279281
 20
1.18221000
  0
VERTEX
  8
0
 10
14.39888033
 20
1.18131700
  0
VERTEX
  8
0
 10
14.39500100
 20
1.18028949
  0
VERTEX
  8
0
 10
14.39115945
 20
1.17912870
  0
VERTEX
  8
0
 10
14.38736026
 20
1.17783599
  0
VERTEX
  8
0
 10
14.38360794
 20
1.17641293
  0
VERTEX
  8
0
 10
14.37990698
 20
1.17486120
  0
VERTEX
  8
0
 10
14.37626179
 20
1.17318265
  0
VERTEX
  8
0
 10
14.37267671
 20
1.17137928
  0
VERTEX
  8
0
 10
14.36915601
 20
1.16945324
  0
VERTEX
  8
0
 10
14.36570388
 20
1.16740683
  0
VERTEX
  8
0
 10
14.36232445
 20
1.16524249
  0
VERTEX
  8
0
 10
14.35902173
 20
1.16296279
  0
VERTEX
  8
0
 10
14.35579967
 20
1.16057045
  0
VERTEX
  8
0
 10
14.35266210
 20
1.15806832
  0
VERTEX
  8
0
 10
14.34961277
 20
1.15545939
  0
VERTEX
  8
0
 10
14.34665530
 20
1.15274676
  0
VERTEX
  8
0
 10
14.34379323
 20
1.14993367
  0
VERTEX
  8
0
 10
14.34102995
 20
1.14702347
  0
VERTEX
  8
0
 10
14.33836878
 20
1.14401962
  0
VERTEX
  8
0
 10
14.33581287
 20
1.14092571
  0
VERTEX
  8
0
 10
14.33336527
 20
1.13774542
  0
VERTEX
  8
0
 10
14.33102890
 20
1.13448254
  0
VERTEX
  8
0
 10
14.32880655
 20
1.13114097
  0
VERTEX
  8
0
 10
14.32670086
 20
1.12772468
  0
VERTEX
  8
0
 10
14.32471434
 20
1.12423775
  0
VERTEX
  8
0
 10
14.32284936
 20
1.12068433
  0
VERTEX
  8
0
 10
14.32110814
 20
1.11706865
  0
VERTEX
  8
0
 10
14.31949276
 20
1.11339503
  0
VERTEX
  8
0
 10
14.31800514
 20
1.10966783
  0
VERTEX
  8
0
 10
14.31664705
 20
1.10589152
  0
VERTEX
  8
0
 10
14.31542012
 20
1.10207058
  0
VERTEX
  8
0
 10
14.31432580
 20
1.09820956
  0
VERTEX
  8
0
 10
14.31336541
 20
1.09431308
  0
VERTEX
  8
0
 10
14.31254007
 20
1.09038576
  0
VERTEX
  8
0
 10
14.31185079
 20
1.08643230
  0
VERTEX
  8
0
 10
14.31129837
 20
1.08245741
  0
VERTEX
  8
0
 10
14.31088348
 20
1.07846581
  0
VERTEX
  8
0
 10
14.31060661
 20
1.07446227
  0
VERTEX
  8
0
 10
14.31046809
 20
1.07045157
  0
VERTEX
  8
0
 10
14.31046809
 20
1.06643847
  0
VERTEX
  8
0
 10
14.31060661
 20
1.06242776
  0
VERTEX
  8
0
 10
14.31088348
 20
1.05842422
  0
VERTEX
  8
0
 10
14.31129837
 20
1.05443263
  0
VERTEX
  8
0
 10
14.31185079
 20
1.05045773
  0
VERTEX
  8
0
 10
14.31254007
 20
1.04650427
  0
VERTEX
  8
0
 10
14.31336541
 20
1.04257696
  0
VERTEX
  8
0
 10
14.31432580
 20
1.03868047
  0
VERTEX
  8
0
 10
14.31542012
 20
1.03481946
  0
VERTEX
  8
0
 10
14.31664705
 20
1.03099852
  0
VERTEX
  8
0
 10
14.31800514
 20
1.02722220
  0
VERTEX
  8
0
 10
14.31949276
 20
1.02349501
  0
VERTEX
  8
0
 10
14.32110814
 20
1.01982138
  0
VERTEX
  8
0
 10
14.32284936
 20
1.01620571
  0
VERTEX
  8
0
 10
14.32471434
 20
1.01265228
  0
VERTEX
  8
0
 10
14.32670086
 20
1.00916535
  0
VERTEX
  8
0
 10
14.32880655
 20
1.00574906
  0
VERTEX
  8
0
 10
14.33102890
 20
1.00240749
  0
VERTEX
  8
0
 10
14.33336527
 20
0.99914462
  0
VERTEX
  8
0
 10
14.33581287
 20
0.99596433
  0
VERTEX
  8
0
 10
14.33836878
 20
0.99287042
  0
VERTEX
  8
0
 10
14.34102995
 20
0.98986657
  0
VERTEX
  8
0
 10
14.34379323
 20
0.98695636
  0
VERTEX
  8
0
 10
14.34665530
 20
0.98414327
  0
VERTEX
  8
0
 10
14.34961277
 20
0.98143064
  0
VERTEX
  8
0
 10
14.35266210
 20
0.97882171
  0
VERTEX
  8
0
 10
14.35579967
 20
0.97631958
  0
VERTEX
  8
0
 10
14.35902173
 20
0.97392725
  0
VERTEX
  8
0
 10
14.36232445
 20
0.97164755
  0
VERTEX
  8
0
 10
14.36570388
 20
0.96948320
  0
VERTEX
  8
0
 10
14.36915601
 20
0.96743679
  0
VERTEX
  8
0
 10
14.37267671
 20
0.96551075
  0
VERTEX
  8
0
 10
14.37626179
 20
0.96370739
  0
VERTEX
  8
0
 10
14.37990698
 20
0.96202884
  0
VERTEX
  8
0
 10
14.38360794
 20
0.96047710
  0
VERTEX
  8
0
 10
14.38736026
 20
0.95905404
  0
VERTEX
  8
0
 10
14.39115945
 20
0.95776134
  0
VERTEX
  8
0
 10
14.39500100
 20
0.95660054
  0
VERTEX
  8
0
 10
14.39888033
 20
0.95557303
  0
VERTEX
  8
0
 10
14.40279281
 20
0.95468003
  0
VERTEX
  8
0
 10
14.40673379
 20
0.95392261
  0
VERTEX
  8
0
 10
14.41069856
 20
0.95330167
  0
VERTEX
  8
0
 10
14.41468239
 20
0.95281794
  0
VERTEX
  8
0
 10
14.41868056
 20
0.95247201
  0
VERTEX
  8
0
 10
14.42268828
 20
0.95226429
  0
VERTEX
  8
0
 10
14.42670078
 20
0.95219502
  0
VERTEX
  8
0
 10
14.58820082
 20
0.95219502
  0
VERTEX
  8
0
 10
14.57925176
 20
0.92327978
  0
VERTEX
  8
0
 10
14.56930771
 20
0.89469145
  0
VERTEX
  8
0
 10
14.55838058
 20
0.86646425
  0
VERTEX
  8
0
 10
14.54648346
 20
0.83863198
  0
VERTEX
  8
0
 10
14.53363059
 20
0.81122795
  0
VERTEX
  8
0
 10
14.51983736
 20
0.78428498
  0
VERTEX
  8
0
 10
14.50512027
 20
0.75783533
  0
VERTEX
  8
0
 10
14.48949696
 20
0.73191065
  0
VERTEX
  8
0
 10
14.47298612
 20
0.70654199
  0
VERTEX
  8
0
 10
14.45560752
 20
0.68175972
  0
VERTEX
  8
0
 10
14.43738196
 20
0.65759350
  0
VERTEX
  8
0
 10
14.41833127
 20
0.63407228
  0
VERTEX
  8
0
 10
14.39847826
 20
0.61122420
  0
VERTEX
  8
0
 10
14.37784669
 20
0.58907662
  0
VERTEX
  8
0
 10
14.35646126
 20
0.56765607
  0
VERTEX
  8
0
 10
14.33434758
 20
0.54698817
  0
VERTEX
  8
0
 10
14.31153212
 20
0.52709769
  0
VERTEX
  8
0
 10
14.28804219
 20
0.50800842
  0
VERTEX
  8
0
 10
14.26390592
 20
0.48974323
  0
VERTEX
  8
0
 10
14.23915220
 20
0.47232397
  0
VERTEX
  8
0
 10
14.21381067
 20
0.45577152
  0
VERTEX
  8
0
 10
14.18791167
 20
0.44010567
  0
VERTEX
  8
0
 10
14.16148621
 20
0.42534520
  0
VERTEX
  8
0
 10
14.13456592
 20
0.41150776
  0
VERTEX
  8
0
 10
14.10718303
 20
0.39860993
  0
VERTEX
  8
0
 10
14.07937032
 20
0.38666715
  0
VERTEX
  8
0
 10
14.05116109
 20
0.37569371
  0
VERTEX
  8
0
 10
14.02258912
 20
0.36570275
  0
VERTEX
  8
0
 10
13.99368861
 20
0.35670624
  0
VERTEX
  8
0
 10
13.96449416
 20
0.34871494
  0
VERTEX
  8
0
 10
13.93504072
 20
0.34173842
  0
VERTEX
  8
0
 10
13.90536356
 20
0.33578504
  0
VERTEX
  8
0
 10
13.87549820
 20
0.33086191
  0
VERTEX
  8
0
 10
13.84548040
 20
0.32697495
  0
VERTEX
  8
0
 10
13.81534609
 20
0.32412879
  0
VERTEX
  8
0
 10
13.78513137
 20
0.32232685
  0
VERTEX
  8
0
 10
13.75487238
 20
0.32157128
  0
VERTEX
  8
0
 10
13.72460538
 20
0.32186299
  0
VERTEX
  8
0
 10
13.69436658
 20
0.32320163
  0
VERTEX
  8
0
 10
13.66419219
 20
0.32558560
  0
VERTEX
  8
0
 10
13.63411835
 20
0.32901204
  0
VERTEX
  8
0
 10
13.60418104
 20
0.33347685
  0
VERTEX
  8
0
 10
13.60418104
 20
0.14597685
  0
VERTEX
  8
0
 10
16.60418104
 20
0.14597685
  0
SEQEND
  0
POLYLINE
  8
Construction
 62
256
 66
   1
 39
0.000000
 70
    0
  0
VERTEX
  8
0
 10
16.77178791
 20
3.70002472
  0
VERTEX
  8
0
 10
16.77635758
 20
3.75838675
  0
VERTEX
  8
0
 10
16.77797321
 20
3.77530361
  0
VERTEX
  8
0
 10
16.77919717
 20
3.79060863
  0
VERTEX
  8
0
 10
16.77953050
 20
3.79925582
  0
VERTEX
  8
0
 10
16.78071580
 20
3.80745724
  0
VERTEX
  8
0
 10
16.78334795
 20
3.81529146
  0
VERTEX
  8
0
 10
16.78694522
 20
3.82043668
  0
VERTEX
  8
0
 10
16.79032085
 20
3.82307999
  0
VERTEX
  8
0
 10
16.79379952
 20
3.82477903
  0
VERTEX
  8
0
 10
16.80071210
 20
3.82775083
  0
VERTEX
  8
0
 10
16.80567069
 20
3.83170751
  0
VERTEX
  8
0
 10
16.80939227
 20
3.83864277
  0
VERTEX
  8
0
 10
16.81187266
 20
3.84652941
  0
VERTEX
  8
0
 10
16.81376605
 20
3.85531027
  0
VERTEX
  8
0
 10
16.81586531
 20
3.87066222
  0
VERTEX
  8
0
 10
16.81704308
 20
3.88657488
  0
VERTEX
  8
0
 10
16.81759754
 20
3.91242347
  0
VERTEX
  8
0
 10
16.81581147
 20
3.95886950
  0
VERTEX
  8
0
 10
16.81428441
 20
3.98811520
  0
VERTEX
  8
0
 10
16.81049737
 20
4.03216888
  0
VERTEX
  8
0
 10
16.80898643
 20
4.05658763
  0
VERTEX
  8
0
 10
16.80864229
 20
4.08126232
  0
VERTEX
  8
0
 10
16.80888164
 20
4.08737412
  0
VERTEX
  8
0
 10
16.80966371
 20
4.09195774
  0
VERTEX
  8
0
 10
16.81097270
 20
4.09622097
  0
VERTEX
  8
0
 10
16.81298114
 20
4.09512803
  0
VERTEX
  8
0
 10
16.81498965
 20
4.09296216
  0
VERTEX
  8
0
 10
16.81671048
 20
4.08965777
  0
VERTEX
  8
0
 10
16.81955969
 20
4.08060574
  0
VERTEX
  8
0
 10
16.82336639
 20
4.06665687
  0
VERTEX
  8
0
 10
16.82677775
 20
4.05163349
  0
VERTEX
  8
0
 10
16.82948623
 20
4.03595672
  0
VERTEX
  8
0
 10
16.83148410
 20
4.01976715
  0
VERTEX
  8
0
 10
16.83276364
 20
4.00320537
  0
VERTEX
  8
0
 10
16.83313681
 20
3.96952750
  0
VERTEX
  8
0
 10
16.83221499
 20
3.95269259
  0
VERTEX
  8
0
 10
16.83054393
 20
3.93604781
  0
VERTEX
  8
0
 10
16.82927030
 20
3.92705127
  0
VERTEX
  8
0
 10
16.82272030
 20
3.86277546
  0
VERTEX
  8
0
 10
16.82208346
 20
3.84972053
  0
VERTEX
  8
0
 10
16.81996374
 20
3.83727759
  0
VERTEX
  8
0
 10
16.81683434
 20
3.82221823
  0
VERTEX
  8
0
 10
16.81543585
 20
3.81008411
  0
VERTEX
  8
0
 10
16.81587501
 20
3.80164341
  0
VERTEX
  8
0
 10
16.82012353
 20
3.77925325
  0
VERTEX
  8
0
 10
16.82309305
 20
3.76973705
  0
VERTEX
  8
0
 10
16.82672794
 20
3.76167183
  0
VERTEX
  8
0
 10
16.83446733
 20
3.74610197
  0
VERTEX
  8
0
 10
16.83774220
 20
3.73667338
  0
VERTEX
  8
0
 10
16.84007208
 20
3.72573512
  0
VERTEX
  8
0
 10
16.84115886
 20
3.70754118
  0
VERTEX
  8
0
 10
16.84303547
 20
3.68497141
  0
VERTEX
  8
0
 10
16.84815740
 20
3.67304363
  0
VERTEX
  8
0
 10
16.85082846
 20
3.66754923
  0
VERTEX
  8
0
 10
16.85386652
 20
3.66361984
  0
VERTEX
  8
0
 10
16.85696184
 20
3.66216179
  0
VERTEX
  8
0
 10
16.86017356
 20
3.66232379
  0
VERTEX
  8
0
 10
16.86666686
 20
3.66361984
  0
VERTEX
  8
0
 10
16.86944715
 20
3.66435435
  0
VERTEX
  8
0
 10
16.87081010
 20
3.66444616
  0
VERTEX
  8
0
 10
16.87208239
 20
3.66361984
  0
VERTEX
  8
0
 10
16.87487138
 20
3.65864088
  0
VERTEX
  8
0
 10
16.87707413
 20
3.65188863
  0
VERTEX
  8
0
 10
16.88045184
 20
3.63633727
  0
VERTEX
  8
0
 10
16.88208457
 20
3.62440390
  0
VERTEX
  8
0
 10
16.88298773
 20
3.61180116
  0
VERTEX
  8
0
 10
16.88397682
 20
3.59930794
  0
VERTEX
  8
0
 10
16.88586736
 20
3.58770313
  0
VERTEX
  8
0
 10
16.89158450
 20
3.56832150
  0
VERTEX
  8
0
 10
16.89803980
 20
3.55019166
  0
VERTEX
  8
0
 10
16.90494435
 20
3.53112086
  0
VERTEX
  8
0
 10
16.91259774
 20
3.51392669
  0
VERTEX
  8
0
 10
16.91743057
 20
3.50673957
  0
VERTEX
  8
0
 10
16.92275376
 20
3.50134735
  0
VERTEX
  8
0
 10
16.93362246
 20
3.49162105
  0
VERTEX
  8
0
 10
16.94159060
 20
3.48141991
  0
VERTEX
  8
0
 10
16.94911597
 20
3.46933863
  0
VERTEX
  8
0
 10
16.95661643
 20
3.45575892
  0
VERTEX
  8
0
 10
16.96368464
 20
3.44090797
  0
SEQEND
  0
POLYLINE
  8
Construction
 62
256
 66
   1
 39
0.000000
 70
    0
  0
VERTEX
  8
0
 10
16.89179441
 20
3.14711923
  0
VERTEX
  8
0
 10
16.88133781
 20
3.13439665
  0
VERTEX
  8
0
 10
16.86938431
 20
3.12381347
  0
VERTEX
  8
0
 10
16.85622315
 20
3.11518564
  0
VERTEX
  8
0
 10
16.84214356
 20
3.10832908
  0
VERTEX
  8
0
 10
16.82743477
 20
3.10305975
  0
VERTEX
  8
0
 10
16.81238602
 20
3.09919356
  0
VERTEX
  8
0
 10
16.79728654
 20
3.09654647
  0
VERTEX
  8
0
 10
16.78242556
 20
3.09493440
  0
VERTEX
  8
0
 10
16.75457605
 20
3.09407909
  0
VERTEX
  8
0
 10
16.73115136
 20
3.09515513
  0
VERTEX
  8
0
 10
16.70683189
 20
3.09721125
  0
VERTEX
  8
0
 10
16.70484974
 20
3.09924364
  0
VERTEX
  8
0
 10
16.70452548
 20
3.10068187
  0
VERTEX
  8
0
 10
16.70441619
 20
3.10267646
  0
VERTEX
  8
0
 10
16.70307893
 20
3.10637798
  0
VERTEX
  8
0
 10
16.69175597
 20
3.14130183
  0
VERTEX
  8
0
 10
16.68265576
 20
3.17742958
  0
VERTEX
  8
0
 10
16.67566017
 20
3.21522409
  0
VERTEX
  8
0
 10
16.67068647
 20
3.25508158
  0
VERTEX
  8
0
 10
16.66876417
 20
3.28797712
  0
VERTEX
  8
0
 10
16.66786502
 20
3.32854781
  0
VERTEX
  8
0
 10
16.66694103
 20
3.34550513
  0
VERTEX
  8
0
 10
16.66747767
 20
3.36228767
  0
VERTEX
  8
0
 10
16.66908692
 20
3.37884700
  0
VERTEX
  8
0
 10
16.67138075
 20
3.39513468
  0
VERTEX
  8
0
 10
16.67569145
 20
3.41806777
  0
VERTEX
  8
0
 10
16.68117097
 20
3.43974476
  0
VERTEX
  8
0
 10
16.68762438
 20
3.46018431
  0
VERTEX
  8
0
 10
16.69485677
 20
3.47940504
  0
VERTEX
  8
0
 10
16.70672398
 20
3.50512669
  0
VERTEX
  8
0
 10
16.71993175
 20
3.52757295
  0
VERTEX
  8
0
 10
16.73421172
 20
3.54676037
  0
VERTEX
  8
0
 10
16.74929552
 20
3.56270548
  0
VERTEX
  8
0
 10
16.76102250
 20
3.57219506
  0
VERTEX
  8
0
 10
16.77315086
 20
3.57898143
  0
VERTEX
  8
0
 10
16.77932262
 20
3.58121453
  0
VERTEX
  8
0
 10
16.78554320
 20
3.58259617
  0
VERTEX
  8
0
 10
16.79179544
 20
3.58306779
  0
VERTEX
  8
0
 10
16.79806215
 20
3.58257084
  0
VERTEX
  8
0
 10
16.81697265
 20
3.57971156
  0
VERTEX
  8
0
 10
16.82728990
 20
3.57717388
  0
VERTEX
  8
0
 10
16.83748781
 20
3.57285553
  0
VERTEX
  8
0
 10
16.84745210
 20
3.56654413
  0
VERTEX
  8
0
 10
16.85706846
 20
3.55802734
  0
VERTEX
  8
0
 10
16.87402602
 20
3.53801222
  0
VERTEX
  8
0
 10
16.88301369
 20
3.52577950
  0
VERTEX
  8
0
 10
16.89155290
 20
3.51253869
  0
VERTEX
  8
0
 10
16.89940202
 20
3.49750024
  0
VERTEX
  8
0
 10
16.90631939
 20
3.47987455
  0
VERTEX
  8
0
 10
16.90963182
 20
3.46815069
  0
VERTEX
  8
0
 10
16.91205652
 20
3.45591541
  0
VERTEX
  8
0
 10
16.91474839
 20
3.43028653
  0
VERTEX
  8
0
 10
16.91540628
 20
3.40373978
  0
VERTEX
  8
0
 10
16.91504151
 20
3.37702705
  0
VERTEX
  8
0
 10
16.91320757
 20
3.35183184
  0
VERTEX
  8
0
 10
16.90906504
 20
3.32656043
  0
VERTEX
  8
0
 10
16.90315159
 20
3.30274882
  0
VERTEX
  8
0
 10
16.89600486
 20
3.28193297
  0
VERTEX
  8
0
 10
16.88862481
 20
3.26123468
  0
VERTEX
  8
0
 10
16.88447105
 20
3.25130288
  0
VERTEX
  8
0
 10
16.87970828
 20
3.24389784
  0
VERTEX
  8
0
 10
16.87543181
 20
3.26246639
  0
VERTEX
  8
0
 10
16.87038070
 20
3.28019708
  0
VERTEX
  8
0
 10
16.86375144
 20
3.29557716
  0
VERTEX
  8
0
 10
16.85641240
 20
3.30863756
  0
VERTEX
  8
0
 10
16.84846246
 20
3.31953661
  0
VERTEX
  8
0
 10
16.84000052
 20
3.32843260
  0
VERTEX
  8
0
 10
16.83112546
 20
3.33548386
  0
VERTEX
  8
0
 10
16.82193617
 20
3.34084869
  0
VERTEX
  8
0
 10
16.81253154
 20
3.34468541
  0
VERTEX
  8
0
 10
16.80301047
 20
3.34715233
  0
VERTEX
  8
0
 10
16.79535304
 20
3.34801528
  0
VERTEX
  8
0
 10
16.78767002
 20
3.34759820
  0
VERTEX
  8
0
 10
16.78004411
 20
3.34578415
  0
VERTEX
  8
0
 10
16.77255797
 20
3.34245616
  0
VERTEX
  8
0
 10
16.76529428
 20
3.33749732
  0
VERTEX
  8
0
 10
16.75833572
 20
3.33079066
  0
VERTEX
  8
0
 10
16.75176497
 20
3.32221926
  0
VERTEX
  8
0
 10
16.74566470
 20
3.31166616
  0
VERTEX
  8
0
 10
16.74092641
 20
3.30060771
  0
VERTEX
  8
0
 10
16.73720684
 20
3.28820217
  0
VERTEX
  8
0
 10
16.73473011
 20
3.27481119
  0
VERTEX
  8
0
 10
16.73372034
 20
3.26079640
  0
VERTEX
  8
0
 10
16.73440163
 20
3.24651947
  0
VERTEX
  8
0
 10
16.73699810
 20
3.23234201
  0
VERTEX
  8
0
 10
16.74173387
 20
3.21862569
  0
VERTEX
  8
0
 10
16.74883304
 20
3.20573214
  0
VERTEX
  8
0
 10
16.76195900
 20
3.18809006
  0
VERTEX
  8
0
 10
16.76958427
 20
3.17949072
  0
VERTEX
  8
0
 10
16.77801222
 20
3.17130877
  0
VERTEX
  8
0
 10
16.78731371
 20
3.16374640
  0
VERTEX
  8
0
 10
16.79755959
 20
3.15700579
  0
VERTEX
  8
0
 10
16.80882072
 20
3.15128913
  0
VERTEX
  8
0
 10
16.82116797
 20
3.14679862
  0
VERTEX
  8
0
 10
16.83467219
 20
3.14373643
  0
VERTEX
  8
0
 10
16.84940424
 20
3.14230475
  0
VERTEX
  8
0
 10
16.86543499
 20
3.14270579
  0
VERTEX
  8
0
 10
16.88283528
 20
3.14514171
  0
VERTEX
  8
0
 10
16.90167599
 20
3.14981472
  0
VERTEX
  8
0
 10
16.92202796
 20
3.15692700
  0
VERTEX
  8
0
 10
16.94396207
 20
3.16668073
  0
VERTEX
  8
0
 10
16.96754916
 20
3.17927811
  0
SEQEND
  0
POLYLINE
  8
Construction
 62
256
 66
   1
 39
0.000000
 70
    0
  0
VERTEX
  8
0
 10
16.70683189
 20
3.09721125
  0
VERTEX
  8
0
 10
16.60244647
 20
3.11850364
  0
VERTEX
  8
0
 10
16.60092529
 20
3.11927691
  0
VERTEX
  8
0
 10
16.59899510
 20
3.11939147
  0
VERTEX
  8
0
 10
16.59443779
 20
3.11825625
  0
VERTEX
  8
0
 10
16.58624638
 20
3.11481066
  0
VERTEX
  8
0
 10
16.58233715
 20
3.11210003
  0
VERTEX
  8
0
 10
16.57901579
 20
3.10687233
  0
VERTEX
  8
0
 10
16.57659077
 20
3.09899209
  0
VERTEX
  8
0
 10
16.57220519
 20
3.07479061
  0
VERTEX
  8
0
 10
16.61161204
 20
3.06264641
  0
VERTEX
  8
0
 10
16.64853390
 20
3.05288930
  0
VERTEX
  8
0
 10
16.68305894
 20
3.04552786
  0
VERTEX
  8
0
 10
16.71527530
 20
3.04057065
  0
VERTEX
  8
0
 10
16.74527113
 20
3.03802624
  0
VERTEX
  8
0
 10
16.77313459
 20
3.03790320
  0
VERTEX
  8
0
 10
16.79895383
 20
3.04021009
  0
VERTEX
  8
0
 10
16.82281701
 20
3.04495549
  0
VERTEX
  8
0
 10
16.84481228
 20
3.05214797
  0
VERTEX
  8
0
 10
16.86502778
 20
3.06179608
  0
VERTEX
  8
0
 10
16.88355168
 20
3.07390841
  0
VERTEX
  8
0
 10
16.90047213
 20
3.08849352
  0
VERTEX
  8
0
 10
16.91587728
 20
3.10555998
  0
VERTEX
  8
0
 10
16.92985529
 20
3.12511635
  0
VERTEX
  8
0
 10
16.94249430
 20
3.14717121
  0
VERTEX
  8
0
 10
16.95388247
 20
3.17173313
  0
SEQEND
  0
POLYLINE
  8
Construction
 62
256
 66
   1
 39
0.000000
 70
    0
  0
VERTEX
  8
0
 10
16.96754916
 20
3.17927811
  0
VERTEX
  8
0
 10
16.97628107
 20
3.15590029
  0
VERTEX
  8
0
 10
16.97865098
 20
3.14436291
  0
VERTEX
  8
0
 10
16.97985562
 20
3.13769329
  0
VERTEX
  8
0
 10
16.98103411
 20
3.13041627
  0
VERTEX
  8
0
 10
16.98215944
 20
3.12252519
  0
VERTEX
  8
0
 10
16.98321424
 20
3.11400707
  0
VERTEX
  8
0
 10
16.98505261
 20
3.09503133
  0
VERTEX
  8
0
 10
16.98642984
 20
3.07337246
  0
VERTEX
  8
0
 10
16.98722652
 20
3.04891384
  0
VERTEX
  8
0
 10
16.98736002
 20
3.02185932
  0
VERTEX
  8
0
 10
16.98689463
 20
2.99369466
  0
VERTEX
  8
0
 10
16.98593138
 20
2.96622611
  0
VERTEX
  8
0
 10
16.98457133
 20
2.94125990
  0
VERTEX
  8
0
 10
16.98290106
 20
2.92020509
  0
VERTEX
  8
0
 10
16.98195949
 20
2.91111316
  0
VERTEX
  8
0
 10
16.98094934
 20
2.90288208
  0
VERTEX
  8
0
 10
16.97987242
 20
2.89543974
  0
VERTEX
  8
0
 10
16.97873049
 20
2.88871406
  0
VERTEX
  8
0
 10
16.97752537
 20
2.88263293
  0
VERTEX
  8
0
 10
16.97625883
 20
2.87712425
  0
VERTEX
  8
0
 10
16.97493578
 20
2.87212453
  0
VERTEX
  8
0
 10
16.97357356
 20
2.86760470
  0
VERTEX
  8
0
 10
16.97288416
 20
2.86551834
  0
VERTEX
  8
0
 10
16.97219263
 20
2.86354428
  0
VERTEX
  8
0
 10
16.97150154
 20
2.86167995
  0
VERTEX
  8
0
 10
16.97081344
 20
2.85992280
  0
VERTEX
  8
0
 10
16.97013089
 20
2.85827026
  0
VERTEX
  8
0
 10
16.96945644
 20
2.85671979
  0
VERTEX
  8
0
 10
16.96879266
 20
2.85526881
  0
VERTEX
  8
0
 10
16.96814210
 20
2.85391478
  0
VERTEX
  8
0
 10
16.96750731
 20
2.85265512
  0
VERTEX
  8
0
 10
16.96689086
 20
2.85148729
  0
VERTEX
  8
0
 10
16.96629529
 20
2.85040873
  0
VERTEX
  8
0
 10
16.96572318
 20
2.84941687
  0
VERTEX
  8
0
 10
16.96517637
 20
2.84850878
  0
VERTEX
  8
0
 10
16.96465393
 20
2.84768008
  0
VERTEX
  8
0
 10
16.96415425
 20
2.84692598
  0
VERTEX
  8
0
 10
16.96367570
 20
2.84624173
  0
VERTEX
  8
0
 10
16.96321666
 20
2.84562255
  0
VERTEX
  8
0
 10
16.96277548
 20
2.84506366
  0
VERTEX
  8
0
 10
16.96235057
 20
2.84456032
  0
VERTEX
  8
0
 10
16.96214369
 20
2.84432798
  0
VERTEX
  8
0
 10
16.96194027
 20
2.84410774
  0
VERTEX
  8
0
 10
16.96174011
 20
2.84389899
  0
VERTEX
  8
0
 10
16.96154298
 20
2.84370115
  0
VERTEX
  8
0
 10
16.96134871
 20
2.84351362
  0
VERTEX
  8
0
 10
16.96115707
 20
2.84333579
  0
VERTEX
  8
0
 10
16.96096787
 20
2.84316708
  0
VERTEX
  8
0
 10
16.96078091
 20
2.84300689
  0
VERTEX
  8
0
 10
16.96059598
 20
2.84285462
  0
VERTEX
  8
0
 10
16.96041287
 20
2.84270968
  0
VERTEX
  8
0
 10
16.96023140
 20
2.84257147
  0
VERTEX
  8
0
 10
16.96005134
 20
2.84243940
  0
VERTEX
  8
0
 10
16.95969468
 20
2.84219126
  0
VERTEX
  8
0
 10
16.95934127
 20
2.84196051
  0
VERTEX
  8
0
 10
16.95898949
 20
2.84174237
  0
VERTEX
  8
0
 10
16.95863709
 20
2.84153255
  0
VERTEX
  8
0
 10
16.95827940
 20
2.84132861
  0
VERTEX
  8
0
 10
16.95791112
 20
2.84112860
  0
VERTEX
  8
0
 10
16.95752694
 20
2.84093055
  0
VERTEX
  8
0
 10
16.95712159
 20
2.84073249
  0
VERTEX
  8
0
 10
16.95668975
 20
2.84053248
  0
VERTEX
  8
0
 10
16.95622613
 20
2.84032854
  0
VERTEX
  8
0
 10
16.95572544
 20
2.84011872
  0
VERTEX
  8
0
 10
16.95459166
 20
2.83967357
  0
VERTEX
  8
0
 10
16.95324602
 20
2.83918135
  0
VERTEX
  8
0
 10
16.93802915
 20
2.83414418
  0
SEQEND
  0
POLYLINE
  8
Construction
 62
256
 66
   1
 39
0.000000
 70
    0
  0
VERTEX
  8
0
 10
16.75982975
 20
3.57135651
  0
VERTEX
  8
0
 10
16.76710047
 20
3.55978907
  0
VERTEX
  8
0
 10
16.77353813
 20
3.54787162
  0
VERTEX
  8
0
 10
16.77914271
 20
3.53560418
  0
VERTEX
  8
0
 10
16.78391422
 20
3.52298674
  0
VERTEX
  8
0
 10
16.78785267
 20
3.51001930
  0
VERTEX
  8
0
 10
16.79095804
 20
3.49670187
  0
VERTEX
  8
0
 10
16.79323035
 20
3.48303443
  0
VERTEX
  8
0
 10
16.79466958
 20
3.46901700
  0
VERTEX
  8
0
 10
16.79527575
 20
3.45464957
  0
VERTEX
  8
0
 10
16.79504885
 20
3.43993214
  0
VERTEX
  8
0
 10
16.79398887
 20
3.42486471
  0
VERTEX
  8
0
 10
16.79209583
 20
3.40944729
  0
VERTEX
  8
0
 10
16.78581054
 20
3.37756245
  0
VERTEX
  8
0
 10
16.77619296
 20
3.34427761
  0
SEQEND
  0
POLYLINE
  8
Construction
 62
256
 66
   1
 39
0.000000
 70
    0
  0
VERTEX
  8
0
 10
16.80301047
 20
3.34715233
  0
VERTEX
  8
0
 10
16.78596646
 20
3.35024054
  0
VERTEX
  8
0
 10
16.76887039
 20
3.35145281
  0
VERTEX
  8
0
 10
16.75176983
 20
3.35095371
  0
VERTEX
  8
0
 10
16.73471237
 20
3.34890781
  0
VERTEX
  8
0
 10
16.71774559
 20
3.34547969
  0
VERTEX
  8
0
 10
16.70091705
 20
3.34083394
  0
VERTEX
  8
0
 10
16.68427433
 20
3.33513512
  0
VERTEX
  8
0
 10
16.66786502
 20
3.32854781
  0
SEQEND
  0
POLYLINE
  8
Construction
 62
256
 66
   1
 39
0.000000
 70
    0
  0
VERTEX
  8
0
 10
16.84115886
 20
3.71131581
  0
VERTEX
  8
0
 10
16.84066547
 20
3.70809067
  0
VERTEX
  8
0
 10
16.83954593
 20
3.70571283
  0
VERTEX
  8
0
 10
16.83743119
 20
3.70428972
  0
VERTEX
  8
0
 10
16.83570291
 20
3.70394844
  0
VERTEX
  8
0
 10
16.83435452
 20
3.70325931
  0
VERTEX
  8
0
 10
16.80699817
 20
3.70230673
  0
VERTEX
  8
0
 10
16.78363036
 20
3.70287817
  0
VERTEX
  8
0
 10
16.77178791
 20
3.70455206
  0
SEQEND
  0
POLYLINE
  8
Construction
 62
256
 66
   1
 39
0.000000
 70
    0
  0
VERTEX
  8
0
 10
16.87970828
 20
3.24389784
  0
VERTEX
  8
0
 10
16.86098563
 20
3.24346842
  0
VERTEX
  8
0
 10
16.84201878
 20
3.24212065
  0
VERTEX
  8
0
 10
16.83267272
 20
3.24196333
  0
VERTEX
  8
0
 10
16.82354033
 20
3.24260956
  0
VERTEX
  8
0
 10
16.81471319
 20
3.24440371
  0
VERTEX
  8
0
 10
16.80628286
 20
3.24769015
  0
VERTEX
  8
0
 10
16.79890883
 20
3.25204319
  0
VERTEX
  8
0
 10
16.79196533
 20
3.25778079
  0
VERTEX
  8
0
 10
16.78920398
 20
3.26105724
  0
VERTEX
  8
0
 10
16.78720898
 20
3.26454594
  0
VERTEX
  8
0
 10
16.78619993
 20
3.26820229
  0
VERTEX
  8
0
 10
16.78639638
 20
3.27198163
  0
VERTEX
  8
0
 10
16.78814536
 20
3.27626931
  0
VERTEX
  8
0
 10
16.79116435
 20
3.28013467
  0
VERTEX
  8
0
 10
16.79516036
 20
3.28345239
  0
VERTEX
  8
0
 10
16.79984037
 20
3.28609714
  0
VERTEX
  8
0
 10
16.80491139
 20
3.28794358
  0
VERTEX
  8
0
 10
16.81008042
 20
3.28886640
  0
VERTEX
  8
0
 10
16.81505446
 20
3.28874027
  0
VERTEX
  8
0
 10
16.81954051
 20
3.28743985
  0
VERTEX
  8
0
 10
16.82354831
 20
3.28452336
  0
VERTEX
  8
0
 10
16.82616179
 20
3.28043471
  0
VERTEX
  8
0
 10
16.82770270
 20
3.27544438
  0
VERTEX
  8
0
 10
16.82849283
 20
3.26982288
  0
VERTEX
  8
0
 10
16.82910777
 20
3.25776837
  0
VERTEX
  8
0
 10
16.83058077
 20
3.24643520
  0
SEQEND
  0
POLYLINE
  8
Construction
 62
256
 66
   1
 39
0.000000
 70
    0
  0
VERTEX
  8
0
 10
16.23148632
 20
5.31223408
  0
VERTEX
  8
0
 10
16.29709704
 20
5.33785299
  0
VERTEX
  8
0
 10
16.30920884
 20
5.34213718
  0
VERTEX
  8
0
 10
16.31389462
 20
5.34367547
  0
VERTEX
  8
0
 10
16.31780318
 20
5.34486872
  0
VERTEX
  8
0
 10
16.32103665
 20
5.34576006
  0
VERTEX
  8
0
 10
16.32243213
 20
5.34610600
  0
VERTEX
  8
0
 10
16.32369715
 20
5.34639263
  0
VERTEX
  8
0
 10
16.32484445
 20
5.34662535
  0
VERTEX
  8
0
 10
16.32588682
 20
5.34680954
  0
VERTEX
  8
0
 10
16.32683701
 20
5.34695061
  0
VERTEX
  8
0
 10
16.32770779
 20
5.34705395
  0
VERTEX
  8
0
 10
16.32851193
 20
5.34712493
  0
VERTEX
  8
0
 10
16.32926220
 20
5.34716896
  0
VERTEX
  8
0
 10
16.32997136
 20
5.34719142
  0
VERTEX
  8
0
 10
16.33065217
 20
5.34719771
  0
VERTEX
  8
0
 10
16.33196517
 20
5.34717634
  0
VERTEX
  8
0
 10
16.33322987
 20
5.34711303
  0
VERTEX
  8
0
 10
16.33446029
 20
5.34700895
  0
VERTEX
  8
0
 10
16.33567043
 20
5.34686529
  0
VERTEX
  8
0
 10
16.33687431
 20
5.34668323
  0
VERTEX
  8
0
 10
16.33808593
 20
5.34646395
  0
VERTEX
  8
0
 10
16.33931930
 20
5.34620864
  0
VERTEX
  8
0
 10
16.35370968
 20
5.34248437
  0
VERTEX
  8
0
 10
16.38032631
 20
5.33585490
  0
VERTEX
  8
0
 10
16.38608395
 20
5.33422168
  0
VERTEX
  8
0
 10
16.39166655
 20
5.33248245
  0
VERTEX
  8
0
 10
16.39434939
 20
5.33157261
  0
VERTEX
  8
0
 10
16.39693707
 20
5.33063569
  0
VERTEX
  8
0
 10
16.39941752
 20
5.32967091
  0
VERTEX
  8
0
 10
16.40179886
 20
5.32867510
  0
VERTEX
  8
0
 10
16.40409428
 20
5.32764446
  0
VERTEX
  8
0
 10
16.40631695
 20
5.32657524
  0
VERTEX
  8
0
 10
16.40848005
 20
5.32546366
  0
VERTEX
  8
0
 10
16.41059678
 20
5.32430595
  0
VERTEX
  8
0
 10
16.41268030
 20
5.32309832
  0
VERTEX
  8
0
 10
16.41474380
 20
5.32183701
  0
VERTEX
  8
0
 10
16.41680045
 20
5.32051825
  0
VERTEX
  8
0
 10
16.41886345
 20
5.31913825
  0
VERTEX
  8
0
 10
16.42306119
 20
5.31617947
  0
VERTEX
  8
0
 10
16.47582538
 20
5.27543364
  0
VERTEX
  8
0
 10
16.47893141
 20
5.27321839
  0
VERTEX
  8
0
 10
16.48188406
 20
5.27121861
  0
VERTEX
  8
0
 10
16.48493531
 20
5.26925718
  0
VERTEX
  8
0
 10
16.53847124
 20
5.23624752
  0
VERTEX
  8
0
 10
16.56057272
 20
5.22141154
  0
VERTEX
  8
0
 10
16.57208778
 20
5.21325394
  0
VERTEX
  8
0
 10
16.58366557
 20
5.20468661
  0
VERTEX
  8
0
 10
16.59513796
 20
5.19577386
  0
VERTEX
  8
0
 10
16.60640487
 20
5.18658722
  0
VERTEX
  8
0
 10
16.61738322
 20
5.17720006
  0
VERTEX
  8
0
 10
16.62798991
 20
5.16768571
  0
VERTEX
  8
0
 10
16.63814186
 20
5.15811753
  0
VERTEX
  8
0
 10
16.64775598
 20
5.14856887
  0
VERTEX
  8
0
 10
16.65674918
 20
5.13911307
  0
VERTEX
  8
0
 10
16.66503837
 20
5.12982348
  0
VERTEX
  8
0
 10
16.66889688
 20
5.12526226
  0
VERTEX
  8
0
 10
16.67257148
 20
5.12076000
  0
VERTEX
  8
0
 10
16.67942039
 20
5.11192868
  0
VERTEX
  8
0
 10
16.68568799
 20
5.10332211
  0
VERTEX
  8
0
 10
16.69147719
 20
5.09493290
  0
VERTEX
  8
0
 10
16.74339212
 20
5.01723639
  0
VERTEX
  8
0
 10
16.74672665
 20
5.01203904
  0
VERTEX
  8
0
 10
16.74960016
 20
5.00726551
  0
VERTEX
  8
0
 10
16.75088250
 20
5.00500766
  0
VERTEX
  8
0
 10
16.75207691
 20
5.00281434
  0
VERTEX
  8
0
 10
16.75319468
 20
5.00066949
  0
VERTEX
  8
0
 10
16.75424708
 20
4.99855705
  0
VERTEX
  8
0
 10
16.75620083
 20
4.99436513
  0
VERTEX
  8
0
 10
16.75802833
 20
4.99011009
  0
VERTEX
  8
0
 10
16.76365513
 20
4.97568128
  0
VERTEX
  8
0
 10
16.77324954
 20
4.95007214
  0
VERTEX
  8
0
 10
16.77823611
 20
4.93556330
  0
VERTEX
  8
0
 10
16.78056370
 20
4.92819053
  0
VERTEX
  8
0
 10
16.78269967
 20
4.92085608
  0
VERTEX
  8
0
 10
16.78460007
 20
4.91363999
  0
VERTEX
  8
0
 10
16.78628856
 20
4.90659071
  0
VERTEX
  8
0
 10
16.79297263
 20
4.87526686
  0
VERTEX
  8
0
 10
16.79424182
 20
4.87007064
  0
VERTEX
  8
0
 10
16.79490154
 20
4.86763485
  0
VERTEX
  8
0
 10
16.79558804
 20
4.86529158
  0
VERTEX
  8
0
 10
16.79631008
 20
4.86302063
  0
VERTEX
  8
0
 10
16.79707639
 20
4.86080179
  0
VERTEX
  8
0
 10
16.79789574
 20
4.85861487
  0
VERTEX
  8
0
 10
16.79877685
 20
4.85643966
  0
VERTEX
  8
0
 10
16.79972850
 20
4.85425597
  0
VERTEX
  8
0
 10
16.80075941
 20
4.85204359
  0
VERTEX
  8
0
 10
16.80187835
 20
4.84978232
  0
VERTEX
  8
0
 10
16.80309406
 20
4.84745196
  0
VERTEX
  8
0
 10
16.80585077
 20
4.84250319
  0
VERTEX
  8
0
 10
16.80909954
 20
4.83703566
  0
VERTEX
  8
0
 10
16.83318981
 20
4.79882899
  0
VERTEX
  8
0
 10
16.84480151
 20
4.77933149
  0
VERTEX
  8
0
 10
16.85056932
 20
4.76899285
  0
VERTEX
  8
0
 10
16.85615708
 20
4.75836652
  0
VERTEX
  8
0
 10
16.86146873
 20
4.74753027
  0
VERTEX
  8
0
 10
16.86648794
 20
4.73655610
  0
VERTEX
  8
0
 10
16.87121832
 20
4.72551463
  0
VERTEX
  8
0
 10
16.87566347
 20
4.71447643
  0
VERTEX
  8
0
 10
16.87982701
 20
4.70351209
  0
VERTEX
  8
0
 10
16.88371253
 20
4.69269222
  0
VERTEX
  8
0
 10
16.89066401
 20
4.67176824
  0
VERTEX
  8
0
 10
16.90739611
 20
4.61576077
  0
VERTEX
  8
0
 10
16.91022052
 20
4.60703987
  0
VERTEX
  8
0
 10
16.91322582
 20
4.59838298
  0
VERTEX
  8
0
 10
16.91645934
 20
4.58975625
  0
VERTEX
  8
0
 10
16.91990159
 20
4.58115734
  0
VERTEX
  8
0
 10
16.92726758
 20
4.56406528
  0
VERTEX
  8
0
 10
16.95060124
 20
4.51402482
  0
VERTEX
  8
0
 10
16.95775571
 20
4.49783450
  0
VERTEX
  8
0
 10
16.96102123
 20
4.48982422
  0
VERTEX
  8
0
 10
16.96401958
 20
4.48186682
  0
VERTEX
  8
0
 10
16.96540464
 20
4.47790708
  0
VERTEX
  8
0
 10
16.96670621
 20
4.47395952
  0
VERTEX
  8
0
 10
16.96791873
 20
4.47002378
  0
VERTEX
  8
0
 10
16.96903661
 20
4.46609953
  0
VERTEX
  8
0
 10
16.97005622
 20
4.46218786
  0
VERTEX
  8
0
 10
16.97098155
 20
4.45829567
  0
VERTEX
  8
0
 10
16.97181851
 20
4.45443131
  0
VERTEX
  8
0
 10
16.97257303
 20
4.45060313
  0
VERTEX
  8
0
 10
16.97385836
 20
4.44308871
  0
VERTEX
  8
0
 10
16.97488487
 20
4.43581921
  0
VERTEX
  8
0
 10
16.97569986
 20
4.42886141
  0
VERTEX
  8
0
 10
16.97822461
 20
4.40091519
  0
VERTEX
  8
0
 10
16.97868475
 20
4.39682494
  0
VERTEX
  8
0
 10
16.97918943
 20
4.39312989
  0
VERTEX
  8
0
 10
16.97946542
 20
4.39141143
  0
VERTEX
  8
0
 10
16.97976089
 20
4.38976881
  0
VERTEX
  8
0
 10
16.98007863
 20
4.38819437
  0
VERTEX
  8
0
 10
16.98042142
 20
4.38668047
  0
VERTEX
  8
0
 10
16.98079204
 20
4.38521945
  0
VERTEX
  8
0
 10
16.98119327
 20
4.38380366
  0
VERTEX
  8
0
 10
16.98162790
 20
4.38242543
  0
VERTEX
  8
0
 10
16.98209871
 20
4.38107713
  0
VERTEX
  8
0
 10
16.98260751
 20
4.37975224
  0
VERTEX
  8
0
 10
16.98315221
 20
4.37844888
  0
VERTEX
  8
0
 10
16.98372973
 20
4.37716631
  0
VERTEX
  8
0
 10
16.98433701
 20
4.37590380
  0
VERTEX
  8
0
 10
16.98497099
 20
4.37466060
  0
VERTEX
  8
0
 10
16.98562858
 20
4.37343597
  0
VERTEX
  8
0
 10
16.98700238
 20
4.37103951
  0
VERTEX
  8
0
 10
16.98843385
 20
4.36870851
  0
VERTEX
  8
0
 10
16.99561021
 20
4.35781591
  0
VERTEX
  8
0
 10
16.99690280
 20
4.35572277
  0
VERTEX
  8
0
 10
16.99751806
 20
4.35467522
  0
VERTEX
  8
0
 10
16.99811013
 20
4.35362439
  0
VERTEX
  8
0
 10
16.99867715
 20
4.35256834
  0
VERTEX
  8
0
 10
16.99921726
 20
4.35150509
  0
VERTEX
  8
0
 10
16.99972859
 20
4.35043268
  0
VERTEX
  8
0
 10
17.00020927
 20
4.34934915
  0
VERTEX
  8
0
 10
17.00065745
 20
4.34825253
  0
VERTEX
  8
0
 10
17.00107125
 20
4.34714087
  0
VERTEX
  8
0
 10
17.00144881
 20
4.34601220
  0
VERTEX
  8
0
 10
17.00162342
 20
4.34544088
  0
VERTEX
  8
0
 10
17.00178826
 20
4.34486457
  0
VERTEX
  8
0
 10
17.00194321
 20
4.34428315
  0
VERTEX
  8
0
 10
17.00208847
 20
4.34369700
  0
VERTEX
  8
0
 10
17.00235120
 20
4.34251259
  0
VERTEX
  8
0
 10
17.00257896
 20
4.34131540
  0
VERTEX
  8
0
 10
17.00277424
 20
4.34010953
  0
VERTEX
  8
0
 10
17.00293954
 20
4.33889905
  0
VERTEX
  8
0
 10
17.00307736
 20
4.33768805
  0
VERTEX
  8
0
 10
17.00319020
 20
4.33648060
  0
VERTEX
  8
0
 10
17.00328056
 20
4.33528079
  0
VERTEX
  8
0
 10
17.00340380
 20
4.33292041
  0
VERTEX
  8
0
 10
17.00346709
 20
4.33063956
  0
VERTEX
  8
0
 10
17.00356245
 20
4.31975127
  0
VERTEX
  8
0
 10
17.00362794
 20
4.31827243
  0
VERTEX
  8
0
 10
17.00372565
 20
4.31680535
  0
VERTEX
  8
0
 10
17.00386200
 20
4.31531687
  0
VERTEX
  8
0
 10
17.00404344
 20
4.31377385
  0
VERTEX
  8
0
 10
17.00427899
 20
4.31214533
  0
VERTEX
  8
0
 10
17.00442292
 20
4.31129196
  0
VERTEX
  8
0
 10
17.00458794
 20
4.31040918
  0
VERTEX
  8
0
 10
17.00477676
 20
4.30949451
  0
VERTEX
  8
0
 10
17.00499213
 20
4.30854544
  0
VERTEX
  8
0
 10
17.00523678
 20
4.30755949
  0
VERTEX
  8
0
 10
17.00551344
 20
4.30653416
  0
VERTEX
  8
0
 10
17.00582485
 20
4.30546695
  0
VERTEX
  8
0
 10
17.00617373
 20
4.30435538
  0
VERTEX
  8
0
 10
17.00656281
 20
4.30319696
  0
VERTEX
  8
0
 10
17.00699484
 20
4.30198917
  0
VERTEX
  8
0
 10
17.00747254
 20
4.30072954
  0
VERTEX
  8
0
 10
17.00799865
 20
4.29941557
  0
VERTEX
  8
0
 10
17.00920701
 20
4.29661464
  0
VERTEX
  8
0
 10
17.01063701
 20
4.29356990
  0
VERTEX
  8
0
 10
17.01228669
 20
4.29027883
  0
VERTEX
  8
0
 10
17.01621812
 20
4.28296155
  0
VERTEX
  8
0
 10
17.03902086
 20
4.24402108
  0
VERTEX
  8
0
 10
17.04229670
 20
4.23807401
  0
VERTEX
  8
0
 10
17.04554140
 20
4.23188732
  0
VERTEX
  8
0
 10
17.04871421
 20
4.22546103
  0
VERTEX
  8
0
 10
17.05177441
 20
4.21879513
  0
VERTEX
  8
0
 10
17.05468645
 20
4.21190131
  0
VERTEX
  8
0
 10
17.05743556
 20
4.20483802
  0
VERTEX
  8
0
 10
17.06001218
 20
4.19767539
  0
VERTEX
  8
0
 10
17.06240673
 20
4.19048355
  0
VERTEX
  8
0
 10
17.06460963
 20
4.18333265
  0
VERTEX
  8
0
 10
17.06661130
 20
4.17629281
  0
VERTEX
  8
0
 10
17.06840219
 20
4.16943417
  0
VERTEX
  8
0
 10
17.06997270
 20
4.16282687
  0
VERTEX
  8
0
 10
17.07131626
 20
4.15652254
  0
VERTEX
  8
0
 10
17.07243823
 20
4.15049886
  0
VERTEX
  8
0
 10
17.07334700
 20
4.14471497
  0
VERTEX
  8
0
 10
17.07405093
 20
4.13913006
  0
VERTEX
  8
0
 10
17.07455837
 20
4.13370330
  0
VERTEX
  8
0
 10
17.07487770
 20
4.12839384
  0
VERTEX
  8
0
 10
17.07501729
 20
4.12316086
  0
VERTEX
  8
0
 10
17.07498549
 20
4.11796352
  0
VERTEX
  8
0
 10
17.07479509
 20
4.11277949
  0
VERTEX
  8
0
 10
17.07447642
 20
4.10766041
  0
VERTEX
  8
0
 10
17.07167904
 20
4.08080556
  0
VERTEX
  8
0
 10
17.07157504
 20
4.07947589
  0
VERTEX
  8
0
 10
17.07151047
 20
4.07821152
  0
VERTEX
  8
0
 10
17.07149464
 20
4.07759232
  0
VERTEX
  8
0
 10
17.07149066
 20
4.07697563
  0
VERTEX
  8
0
 10
17.07149921
 20
4.07635685
  0
VERTEX
  8
0
 10
17.07152094
 20
4.07573137
  0
VERTEX
  8
0
 10
17.07155654
 20
4.07509460
  0
VERTEX
  8
0
 10
17.07160666
 20
4.07444192
  0
VERTEX
  8
0
 10
17.07167197
 20
4.07376873
  0
VERTEX
  8
0
 10
17.07175314
 20
4.07307043
  0
VERTEX
  8
0
 10
17.07196571
 20
4.07158008
  0
VERTEX
  8
0
 10
17.07224973
 20
4.06993404
  0
VERTEX
  8
0
 10
17.07261052
 20
4.06809545
  0
VERTEX
  8
0
 10
17.07358375
 20
4.06369335
  0
VERTEX
  8
0
 10
17.08710137
 20
4.00697481
  0
VERTEX
  8
0
 10
17.09288448
 20
3.97852301
  0
VERTEX
  8
0
 10
17.09554134
 20
3.96344311
  0
VERTEX
  8
0
 10
17.09789751
 20
3.94808377
  0
VERTEX
  8
0
 10
17.09986859
 20
3.93265394
  0
VERTEX
  8
0
 10
17.10146523
 20
3.91732851
  0
VERTEX
  8
0
 10
17.10272182
 20
3.90227386
  0
VERTEX
  8
0
 10
17.10367279
 20
3.88765638
  0
VERTEX
  8
0
 10
17.10479547
 20
3.86039849
  0
VERTEX
  8
0
 10
17.10510853
 20
3.83688590
  0
VERTEX
  8
0
 10
17.10487474
 20
3.81799039
  0
VERTEX
  8
0
 10
17.10107115
 20
3.71885201
  0
VERTEX
  8
0
 10
17.09845873
 20
3.67963602
  0
VERTEX
  8
0
 10
17.09659590
 20
3.65983878
  0
VERTEX
  8
0
 10
17.09442135
 20
3.64166687
  0
VERTEX
  8
0
 10
17.09323528
 20
3.63356290
  0
VERTEX
  8
0
 10
17.09201303
 20
3.62612965
  0
VERTEX
  8
0
 10
17.08643056
 20
3.59678399
  0
VERTEX
  8
0
 10
17.08563412
 20
3.59203089
  0
VERTEX
  8
0
 10
17.08500328
 20
3.58749302
  0
VERTEX
  8
0
 10
17.08450603
 20
3.58306925
  0
VERTEX
  8
0
 10
17.08296233
 20
3.56434443
  0
VERTEX
  8
0
 10
17.08183424
 20
3.55284459
  0
VERTEX
  8
0
 10
17.08005675
 20
3.53907372
  0
VERTEX
  8
0
 10
17.07758906
 20
3.52372204
  0
VERTEX
  8
0
 10
17.07610333
 20
3.51576650
  0
VERTEX
  8
0
 10
17.07445341
 20
3.50779147
  0
VERTEX
  8
0
 10
17.07264206
 20
3.49992221
  0
VERTEX
  8
0
 10
17.07067208
 20
3.49228394
  0
VERTEX
  8
0
 10
17.06854346
 20
3.48497826
  0
VERTEX
  8
0
 10
17.06741635
 20
3.48145378
  0
VERTEX
  8
0
 10
17.06624507
 20
3.47801211
  0
VERTEX
  8
0
 10
17.06502786
 20
3.47465115
  0
VERTEX
  8
0
 10
17.06376299
 20
3.47136881
  0
VERTEX
  8
0
 10
17.06244872
 20
3.46816300
  0
VERTEX
  8
0
 10
17.06108331
 20
3.46503165
  0
VERTEX
  8
0
 10
17.05966502
 20
3.46197265
  0
VERTEX
  8
0
 10
17.05819211
 20
3.45898393
  0
VERTEX
  8
0
 10
17.05666285
 20
3.45606340
  0
VERTEX
  8
0
 10
17.05507549
 20
3.45320896
  0
VERTEX
  8
0
 10
17.05342829
 20
3.45041854
  0
VERTEX
  8
0
 10
17.05171951
 20
3.44769004
  0
VERTEX
  8
0
 10
17.04994742
 20
3.44502138
  0
VERTEX
  8
0
 10
17.04811027
 20
3.44241047
  0
VERTEX
  8
0
 10
17.04620778
 20
3.43985527
  0
VERTEX
  8
0
 10
17.04424545
 20
3.43735400
  0
VERTEX
  8
0
 10
17.04223024
 20
3.43490492
  0
VERTEX
  8
0
 10
17.04016911
 20
3.43250628
  0
VERTEX
  8
0
 10
17.03806901
 20
3.43015634
  0
VERTEX
  8
0
 10
17.03593691
 20
3.42785337
  0
VERTEX
  8
0
 10
17.03160452
 20
3.42338136
  0
VERTEX
  8
0
 10
17.02286182
 20
3.41492439
  0
VERTEX
  8
0
 10
17.00659687
 20
3.39962390
  0
VERTEX
  8
0
 10
16.99980690
 20
3.39288712
  0
VERTEX
  8
0
 10
16.99687639
 20
3.38983563
  0
VERTEX
  8
0
 10
16.99430337
 20
3.38703176
  0
VERTEX
  8
0
 10
16.99316213
 20
3.38573120
  0
VERTEX
  8
0
 10
16.99212370
 20
3.38450277
  0
VERTEX
  8
0
 10
16.99119259
 20
3.38334986
  0
VERTEX
  8
0
 10
16.99037327
 20
3.38227590
  0
VERTEX
  8
0
 10
16.99000668
 20
3.38176920
  0
VERTEX
  8
0
 10
16.98966827
 20
3.38128118
  0
VERTEX
  8
0
 10
16.98935714
 20
3.38080995
  0
VERTEX
  8
0
 10
16.98907238
 20
3.38035360
  0
VERTEX
  8
0
 10
16.98881311
 20
3.37991022
  0
VERTEX
  8
0
 10
16.98857841
 20
3.37947793
  0
VERTEX
  8
0
 10
16.98847001
 20
3.37926534
  0
VERTEX
  8
0
 10
16.98836741
 20
3.37905481
  0
VERTEX
  8
0
 10
16.98827051
 20
3.37884610
  0
VERTEX
  8
0
 10
16.98817919
 20
3.37863896
  0
VERTEX
  8
0
 10
16.98809335
 20
3.37843317
  0
VERTEX
  8
0
 10
16.98801287
 20
3.37822849
  0
VERTEX
  8
0
 10
16.98793764
 20
3.37802467
  0
VERTEX
  8
0
 10
16.98786755
 20
3.37782149
  0
VERTEX
  8
0
 10
16.98780248
 20
3.37761869
  0
VERTEX
  8
0
 10
16.98774232
 20
3.37741605
  0
VERTEX
  8
0
 10
16.98768696
 20
3.37721333
  0
VERTEX
  8
0
 10
16.98763629
 20
3.37701029
  0
VERTEX
  8
0
 10
16.98759020
 20
3.37680668
  0
VERTEX
  8
0
 10
16.98754858
 20
3.37660228
  0
VERTEX
  8
0
 10
16.98751130
 20
3.37639685
  0
VERTEX
  8
0
 10
16.98747826
 20
3.37619014
  0
VERTEX
  8
0
 10
16.98744936
 20
3.37598193
  0
VERTEX
  8
0
 10
16.98742446
 20
3.37577197
  0
VERTEX
  8
0
 10
16.98740348
 20
3.37556002
  0
VERTEX
  8
0
 10
16.98738628
 20
3.37534585
  0
VERTEX
  8
0
 10
16.98736281
 20
3.37490989
  0
VERTEX
  8
0
 10
16.98735316
 20
3.37446218
  0
VERTEX
  8
0
 10
16.98735644
 20
3.37400083
  0
VERTEX
  8
0
 10
16.98737174
 20
3.37352393
  0
VERTEX
  8
0
 10
16.98739817
 20
3.37302958
  0
VERTEX
  8
0
 10
16.98743484
 20
3.37251588
  0
VERTEX
  8
0
 10
16.98852630
 20
3.36224325
  0
VERTEX
  8
0
 10
16.98887042
 20
3.35792114
  0
VERTEX
  8
0
 10
16.98917820
 20
3.35290492
  0
VERTEX
  8
0
 10
16.98942854
 20
3.34716970
  0
VERTEX
  8
0
 10
16.98967250
 20
3.33344271
  0
VERTEX
  8
0
 10
16.98943352
 20
3.31654111
  0
VERTEX
  8
0
 10
16.98857412
 20
3.29659613
  0
VERTEX
  8
0
 10
16.98708216
 20
3.27506014
  0
VERTEX
  8
0
 10
16.98497680
 20
3.25371584
  0
VERTEX
  8
0
 10
16.98370009
 20
3.24367266
  0
VERTEX
  8
0
 10
16.98227722
 20
3.23434591
  0
VERTEX
  8
0
 10
16.98071837
 20
3.22591330
  0
VERTEX
  8
0
 10
16.97906487
 20
3.21837203
  0
VERTEX
  8
0
 10
16.97736585
 20
3.21167418
  0
VERTEX
  8
0
 10
16.97567042
 20
3.20577184
  0
VERTEX
  8
0
 10
16.97402771
 20
3.20061706
  0
VERTEX
  8
0
 10
16.96895764
 20
3.18649699
  0
VERTEX
  8
0
 10
16.96857535
 20
3.18532511
  0
VERTEX
  8
0
 10
16.96825411
 20
3.18423299
  0
VERTEX
  8
0
 10
16.96811626
 20
3.18371068
  0
VERTEX
  8
0
 10
16.96799351
 20
3.18320090
  0
VERTEX
  8
0
 10
16.96788582
 20
3.18270120
  0
VERTEX
  8
0
 10
16.96779313
 20
3.18220911
  0
VERTEX
  8
0
 10
16.96771539
 20
3.18172215
  0
VERTEX
  8
0
 10
16.96765255
 20
3.18123786
  0
VERTEX
  8
0
 10
16.96760456
 20
3.18075378
  0
VERTEX
  8
0
 10
16.96757137
 20
3.18026744
  0
VERTEX
  8
0
 10
16.96755292
 20
3.17977637
  0
VERTEX
  8
0
 10
16.96754916
 20
3.17927811
  0
SEQEND
  0
POLYLINE
  8
Construction
 62
256
 66
   1
 39
0.000000
 70
    0
  0
VERTEX
  8
0
 10
16.74596846
 20
3.03509092
  0
VERTEX
  8
0
 10
16.75083640
 20
3.02647949
  0
VERTEX
  8
0
 10
16.75885098
 20
3.01480942
  0
VERTEX
  8
0
 10
16.76155172
 20
3.01128292
  0
VERTEX
  8
0
 10
16.76981077
 20
3.00140419
  0
VERTEX
  8
0
 10
16.77924349
 20
2.99256221
  0
VERTEX
  8
0
 10
16.79333374
 20
2.98295576
  0
VERTEX
  8
0
 10
16.80167292
 20
2.97854888
  0
VERTEX
  8
0
 10
16.81071914
 20
2.97492865
  0
VERTEX
  8
0
 10
16.82323519
 20
2.97200225
  0
VERTEX
  8
0
 10
16.83023640
 20
2.97170352
  0
VERTEX
  8
0
 10
16.83711282
 20
2.97240249
  0
VERTEX
  8
0
 10
16.84366012
 20
2.97406324
  0
VERTEX
  8
0
 10
16.84967398
 20
2.97664985
  0
VERTEX
  8
0
 10
16.85428010
 20
2.97936212
  0
VERTEX
  8
0
 10
16.86315832
 20
2.98470854
  0
VERTEX
  8
0
 10
16.87266736
 20
2.99019774
  0
VERTEX
  8
0
 10
16.87714213
 20
2.99263385
  0
VERTEX
  8
0
 10
16.88098546
 20
2.99557201
  0
VERTEX
  8
0
 10
16.88675926
 20
3.00147487
  0
VERTEX
  8
0
 10
16.88694094
 20
3.00168690
  0
VERTEX
  8
0
 10
16.89684465
 20
3.00849819
  0
VERTEX
  8
0
 10
16.91676879
 20
3.02312492
  0
VERTEX
  8
0
 10
16.92806109
 20
3.03307134
  0
VERTEX
  8
0
 10
16.93894558
 20
3.04461432
  0
VERTEX
  8
0
 10
16.94845128
 20
3.05763476
  0
VERTEX
  8
0
 10
16.95238366
 20
3.06466181
  0
VERTEX
  8
0
 10
16.95560722
 20
3.07201356
  0
SEQEND
  0
POLYLINE
  8
Construction
 62
256
 66
   1
 39
0.000000
 70
    0
  0
VERTEX
  8
0
 10
16.86993572
 20
4.60167678
  0
VERTEX
  8
0
 10
16.86584606
 20
4.60566976
  0
VERTEX
  8
0
 10
16.86190841
 20
4.61225247
  0
VERTEX
  8
0
 10
16.85830898
 20
4.61987683
  0
VERTEX
  8
0
 10
16.85073563
 20
4.63771148
  0
VERTEX
  8
0
 10
16.84864207
 20
4.64149706
  0
VERTEX
  8
0
 10
16.83541023
 20
4.67599021
  0
VERTEX
  8
0
 10
16.82845738
 20
4.70278016
  0
VERTEX
  8
0
 10
16.82082558
 20
4.72843636
  0
VERTEX
  8
0
 10
16.81253858
 20
4.75288408
  0
VERTEX
  8
0
 10
16.80362010
 20
4.77604861
  0
VERTEX
  8
0
 10
16.79385336
 20
4.79884934
  0
VERTEX
  8
0
 10
16.78356951
 20
4.82028955
  0
VERTEX
  8
0
 10
16.77805749
 20
4.82994356
  0
VERTEX
  8
0
 10
16.77217356
 20
4.83822582
  0
VERTEX
  8
0
 10
16.76643160
 20
4.84402299
  0
VERTEX
  8
0
 10
16.76034385
 20
4.84716306
  0
VERTEX
  8
0
 10
16.75624783
 20
4.84714186
  0
VERTEX
  8
0
 10
16.75229302
 20
4.84503712
  0
VERTEX
  8
0
 10
16.74861377
 20
4.84095765
  0
VERTEX
  8
0
 10
16.74534443
 20
4.83501230
  0
VERTEX
  8
0
 10
16.74188712
 20
4.82581098
  0
VERTEX
  8
0
 10
16.73903470
 20
4.81547555
  0
VERTEX
  8
0
 10
16.73797110
 20
4.81013087
  0
VERTEX
  8
0
 10
16.73558317
 20
4.79449780
  0
VERTEX
  8
0
 10
16.72484674
 20
4.80537944
  0
VERTEX
  8
0
 10
16.71916778
 20
4.80926392
  0
VERTEX
  8
0
 10
16.71332144
 20
4.81123616
  0
VERTEX
  8
0
 10
16.70944161
 20
4.81108657
  0
VERTEX
  8
0
 10
16.70562273
 20
4.80942938
  0
VERTEX
  8
0
 10
16.70191663
 20
4.80600801
  0
VERTEX
  8
0
 10
16.69856418
 20
4.80088969
  0
VERTEX
  8
0
 10
16.69301066
 20
4.78930365
  0
VERTEX
  8
0
 10
16.68796788
 20
4.77649139
  0
VERTEX
  8
0
 10
16.68347051
 20
4.76255010
  0
VERTEX
  8
0
 10
16.67955319
 20
4.74757695
  0
VERTEX
  8
0
 10
16.67494410
 20
4.72624159
  0
VERTEX
  8
0
 10
16.66779417
 20
4.68490861
  0
VERTEX
  8
0
 10
16.66524852
 20
4.67063034
  0
VERTEX
  8
0
 10
16.66165750
 20
4.65772193
  0
VERTEX
  8
0
 10
16.65639773
 20
4.64430412
  0
VERTEX
  8
0
 10
16.65044262
 20
4.63269521
  0
VERTEX
  8
0
 10
16.63993402
 20
4.61625924
  0
VERTEX
  8
0
 10
16.60314211
 20
4.56937127
  0
VERTEX
  8
0
 10
16.59649675
 20
4.56034878
  0
VERTEX
  8
0
 10
16.59066294
 20
4.54850832
  0
VERTEX
  8
0
 10
16.58706853
 20
4.53591249
  0
VERTEX
  8
0
 10
16.58613724
 20
4.52737781
  0
VERTEX
  8
0
 10
16.58647650
 20
4.51884247
  0
VERTEX
  8
0
 10
16.58799685
 20
4.51108995
  0
VERTEX
  8
0
 10
16.59060885
 20
4.50490373
  0
VERTEX
  8
0
 10
16.59571210
 20
4.49859474
  0
VERTEX
  8
0
 10
16.60073250
 20
4.49516563
  0
VERTEX
  8
0
 10
16.60587359
 20
4.49301172
  0
VERTEX
  8
0
 10
16.61754236
 20
4.48993076
  0
VERTEX
  8
0
 10
16.62846141
 20
4.48638611
  0
VERTEX
  8
0
 10
16.63460998
 20
4.48418841
  0
VERTEX
  8
0
 10
16.64067807
 20
4.48094232
  0
VERTEX
  8
0
 10
16.64402881
 20
4.47825686
  0
VERTEX
  8
0
 10
16.64718673
 20
4.47444938
  0
VERTEX
  8
0
 10
16.64915858
 20
4.47065882
  0
VERTEX
  8
0
 10
16.65059791
 20
4.46566744
  0
VERTEX
  8
0
 10
16.65114460
 20
4.45960631
  0
VERTEX
  8
0
 10
16.65062290
 20
4.45312349
  0
VERTEX
  8
0
 10
16.64998738
 20
4.44986352
  0
VERTEX
  8
0
 10
16.64786328
 20
4.44277202
  0
VERTEX
  8
0
 10
16.62681407
 20
4.41040027
  0
VERTEX
  8
0
 10
16.61941374
 20
4.39599800
  0
VERTEX
  8
0
 10
16.61433557
 20
4.38049162
  0
VERTEX
  8
0
 10
16.61119884
 20
4.36224242
  0
VERTEX
  8
0
 10
16.61032136
 20
4.34459199
  0
VERTEX
  8
0
 10
16.61100754
 20
4.32689243
  0
VERTEX
  8
0
 10
16.61193827
 20
4.31646228
  0
VERTEX
  8
0
 10
16.61209884
 20
4.30884724
  0
VERTEX
  8
0
 10
16.61149517
 20
4.30136239
  0
VERTEX
  8
0
 10
16.60853682
 20
4.28710021
  0
VERTEX
  8
0
 10
16.60524080
 20
4.27446237
  0
VERTEX
  8
0
 10
16.60341547
 20
4.26187119
  0
VERTEX
  8
0
 10
16.60292390
 20
4.24406757
  0
VERTEX
  8
0
 10
16.60320775
 20
4.22628643
  0
VERTEX
  8
0
 10
16.60426148
 20
4.20867418
  0
VERTEX
  8
0
 10
16.60607955
 20
4.19137727
  0
VERTEX
  8
0
 10
16.61343543
 20
4.13883521
  0
VERTEX
  8
0
 10
16.61587536
 20
4.11576375
  0
VERTEX
  8
0
 10
16.61919210
 20
4.09333630
  0
VERTEX
  8
0
 10
16.62715267
 20
4.05003399
  0
VERTEX
  8
0
 10
16.63354218
 20
4.01490058
  0
VERTEX
  8
0
 10
16.63761680
 20
3.98784917
  0
VERTEX
  8
0
 10
16.64024691
 20
3.97359214
  0
VERTEX
  8
0
 10
16.64372874
 20
3.96043758
  0
VERTEX
  8
0
 10
16.64681436
 20
3.95235188
  0
VERTEX
  8
0
 10
16.65042435
 20
3.94564397
  0
VERTEX
  8
0
 10
16.65491796
 20
3.93990212
  0
VERTEX
  8
0
 10
16.65587055
 20
3.89009889
  0
VERTEX
  8
0
 10
16.65613615
 20
3.88223653
  0
VERTEX
  8
0
 10
16.65670467
 20
3.85807035
  0
VERTEX
  8
0
 10
16.65745642
 20
3.84700587
  0
VERTEX
  8
0
 10
16.65899747
 20
3.83642681
  0
VERTEX
  8
0
 10
16.66066252
 20
3.82979744
  0
VERTEX
  8
0
 10
16.67473477
 20
3.76731851
  0
VERTEX
  8
0
 10
16.68514434
 20
3.72250087
  0
VERTEX
  8
0
 10
16.69631396
 20
3.68091364
  0
VERTEX
  8
0
 10
16.70931395
 20
3.63723583
  0
SEQEND
  0
POLYLINE
  8
Construction
 62
256
 66
   1
 39
0.000000
 70
    0
  0
VERTEX
  8
0
 10
13.87319880
 20
5.35146951
  0
VERTEX
  8
0
 10
13.81668245
 20
5.29259115
  0
VERTEX
  8
0
 10
13.83877854
 20
5.26609135
  0
VERTEX
  8
0
 10
13.82315303
 20
5.24855618
  0
VERTEX
  8
0
 10
13.80779028
 20
5.23074052
  0
VERTEX
  8
0
 10
13.79190200
 20
5.21348582
  0
VERTEX
  8
0
 10
13.77469989
 20
5.19763354
  0
VERTEX
  8
0
 10
13.76209289
 20
5.18804165
  0
VERTEX
  8
0
 10
13.74870057
 20
5.17915230
  0
VERTEX
  8
0
 10
13.72007981
 20
5.16294995
  0
VERTEX
  8
0
 10
13.68987735
 20
5.14796401
  0
VERTEX
  8
0
 10
13.65913288
 20
5.13313198
  0
VERTEX
  8
0
 10
13.62888614
 20
5.11739136
  0
VERTEX
  8
0
 10
13.61427433
 20
5.10884830
  0
VERTEX
  8
0
 10
13.60017684
 20
5.09967965
  0
VERTEX
  8
0
 10
13.58672364
 20
5.08975261
  0
VERTEX
  8
0
 10
13.57404470
 20
5.07893435
  0
VERTEX
  8
0
 10
13.56226997
 20
5.06709208
  0
VERTEX
  8
0
 10
13.55152942
 20
5.05409298
  0
VERTEX
  8
0
 10
13.54395368
 20
5.04202051
  0
VERTEX
  8
0
 10
13.53819938
 20
5.02903035
  0
VERTEX
  8
0
 10
13.53384620
 20
5.01533426
  0
VERTEX
  8
0
 10
13.53047380
 20
5.00114402
  0
VERTEX
  8
0
 10
13.52498999
 20
4.97212822
  0
VERTEX
  8
0
 10
13.52203792
 20
4.95772621
  0
VERTEX
  8
0
 10
13.51838529
 20
4.94367716
  0
VERTEX
  8
0
 10
13.53247155
 20
4.95201010
  0
VERTEX
  8
0
 10
13.54600540
 20
4.95906636
  0
VERTEX
  8
0
 10
13.55898685
 20
4.96484594
  0
VERTEX
  8
0
 10
13.57141590
 20
4.96934884
  0
VERTEX
  8
0
 10
13.58329255
 20
4.97257505
  0
VERTEX
  8
0
 10
13.59461679
 20
4.97452458
  0
VERTEX
  8
0
 10
13.60538863
 20
4.97519742
  0
VERTEX
  8
0
 10
13.61560807
 20
4.97459359
  0
VERTEX
  8
0
 10
13.60676964
 20
4.91055241
  0
VERTEX
  8
0
 10
13.59230219
 20
4.89512880
  0
VERTEX
  8
0
 10
13.57721233
 20
4.88009632
  0
VERTEX
  8
0
 10
13.56336728
 20
4.86428159
  0
VERTEX
  8
0
 10
13.55749505
 20
4.85571420
  0
VERTEX
  8
0
 10
13.55263423
 20
4.84651123
  0
VERTEX
  8
0
 10
13.54920330
 20
4.83773738
  0
VERTEX
  8
0
 10
13.54657088
 20
4.82873955
  0
VERTEX
  8
0
 10
13.54325928
 20
4.81019409
  0
VERTEX
  8
0
 10
13.54181492
 20
4.79111902
  0
VERTEX
  8
0
 10
13.54135325
 20
4.77175853
  0
VERTEX
  8
0
 10
13.54098975
 20
4.75235678
  0
VERTEX
  8
0
 10
13.53983988
 20
4.73315794
  0
VERTEX
  8
0
 10
13.53701913
 20
4.71440620
  0
VERTEX
  8
0
 10
13.53470575
 20
4.70527429
  0
VERTEX
  8
0
 10
13.53164295
 20
4.69634572
  0
VERTEX
  8
0
 10
13.52677351
 20
4.68546189
  0
VERTEX
  8
0
 10
13.52171059
 20
4.67675823
  0
VERTEX
  8
0
 10
13.51649256
 20
4.66991966
  0
VERTEX
  8
0
 10
13.51115780
 20
4.66463109
  0
VERTEX
  8
0
 10
13.50574469
 20
4.66057742
  0
VERTEX
  8
0
 10
13.50029160
 20
4.65744356
  0
VERTEX
  8
0
 10
13.48941904
 20
4.65267495
  0
VERTEX
  8
0
 10
13.47884714
 20
4.64780454
  0
VERTEX
  8
0
 10
13.47376989
 20
4.64454344
  0
VERTEX
  8
0
 10
13.46888295
 20
4.64031163
  0
VERTEX
  8
0
 10
13.46422469
 20
4.63479400
  0
VERTEX
  8
0
 10
13.45983350
 20
4.62767549
  0
VERTEX
  8
0
 10
13.45574774
 20
4.61864099
  0
VERTEX
  8
0
 10
13.45200582
 20
4.60737541
  0
VERTEX
  8
0
 10
13.44915729
 20
4.59560829
  0
VERTEX
  8
0
 10
13.44720495
 20
4.58366026
  0
VERTEX
  8
0
 10
13.44554990
 20
4.55894379
  0
VERTEX
  8
0
 10
13.44616278
 20
4.53267062
  0
VERTEX
  8
0
 10
13.44816571
 20
4.50428534
  0
VERTEX
  8
0
 10
13.45068080
 20
4.47323259
  0
VERTEX
  8
0
 10
13.45283015
 20
4.43895696
  0
VERTEX
  8
0
 10
13.45373589
 20
4.40090306
  0
VERTEX
  8
0
 10
13.45252013
 20
4.35851552
  0
VERTEX
  8
0
 10
13.44732362
 20
4.35645649
  0
VERTEX
  8
0
 10
13.44222704
 20
4.35566997
  0
VERTEX
  8
0
 10
13.43722630
 20
4.35596060
  0
VERTEX
  8
0
 10
13.43231735
 20
4.35713304
  0
VERTEX
  8
0
 10
13.42275853
 20
4.36134196
  0
VERTEX
  8
0
 10
13.41351804
 20
4.36673396
  0
VERTEX
  8
0
 10
13.40456336
 20
4.37174627
  0
VERTEX
  8
0
 10
13.39586193
 20
4.37481610
  0
VERTEX
  8
0
 10
13.39159603
 20
4.37513422
  0
VERTEX
  8
0
 10
13.38738124
 20
4.37438068
  0
VERTEX
  8
0
 10
13.38321350
 20
4.37236014
  0
VERTEX
  8
0
 10
13.37908873
 20
4.36887724
  0
VERTEX
  8
0
 10
13.37569462
 20
4.36420686
  0
VERTEX
  8
0
 10
13.37330082
 20
4.35877280
  0
VERTEX
  8
0
 10
13.37003257
 20
4.34681277
  0
VERTEX
  8
0
 10
13.36632078
 20
4.33539547
  0
VERTEX
  8
0
 10
13.36337256
 20
4.33063983
  0
VERTEX
  8
0
 10
13.35920226
 20
4.32691923
  0
VERTEX
  8
0
 10
13.35457692
 20
4.32477106
  0
VERTEX
  8
0
 10
13.34962128
 20
4.32376274
  0
VERTEX
  8
0
 10
13.33902401
 20
4.32411346
  0
VERTEX
  8
0
 10
13.32802022
 20
4.32586707
  0
VERTEX
  8
0
 10
13.31721969
 20
4.32691923
  0
VERTEX
  8
0
 10
13.33489656
 20
4.42408515
  0
VERTEX
  8
0
 10
13.32663340
 20
4.40404871
  0
VERTEX
  8
0
 10
13.31845141
 20
4.38673938
  0
VERTEX
  8
0
 10
13.31040373
 20
4.37176387
  0
VERTEX
  8
0
 10
13.30254350
 20
4.35872890
  0
VERTEX
  8
0
 10
13.28759794
 20
4.33690745
  0
VERTEX
  8
0
 10
13.27403984
 20
4.31812875
  0
VERTEX
  8
0
 10
13.26229430
 20
4.29924653
  0
VERTEX
  8
0
 10
13.25723409
 20
4.28878340
  0
VERTEX
  8
0
 10
13.25278645
 20
4.27711453
  0
VERTEX
  8
0
 10
13.24900450
 20
4.26384665
  0
VERTEX
  8
0
 10
13.24594138
 20
4.24858648
  0
VERTEX
  8
0
 10
13.24365025
 20
4.23094073
  0
VERTEX
  8
0
 10
13.24218422
 20
4.21051611
  0
VERTEX
  8
0
 10
13.24891290
 20
4.18625707
  0
VERTEX
  8
0
 10
13.25725708
 20
4.16265401
  0
VERTEX
  8
0
 10
13.26690769
 20
4.13957149
  0
VERTEX
  8
0
 10
13.27755565
 20
4.11687403
  0
VERTEX
  8
0
 10
13.30060738
 20
4.07209253
  0
VERTEX
  8
0
 10
13.32393974
 20
4.02722585
  0
VERTEX
  8
0
 10
13.31510130
 20
3.99189278
  0
VERTEX
  8
0
 10
13.30694671
 20
3.99587356
  0
VERTEX
  8
0
 10
13.29814320
 20
4.00103597
  0
VERTEX
  8
0
 10
13.29410646
 20
4.00295250
  0
VERTEX
  8
0
 10
13.29063751
 20
4.00383510
  0
VERTEX
  8
0
 10
13.28797971
 20
4.00324066
  0
VERTEX
  8
0
 10
13.28637639
 20
4.00072605
  0
VERTEX
  8
0
 10
13.28160069
 20
3.98165266
  0
VERTEX
  8
0
 10
13.27872740
 20
3.96614917
  0
VERTEX
  8
0
 10
13.27753662
 20
3.95343954
  0
VERTEX
  8
0
 10
13.27780842
 20
3.94274772
  0
VERTEX
  8
0
 10
13.27932288
 20
3.93329766
  0
VERTEX
  8
0
 10
13.28186010
 20
3.92431331
  0
VERTEX
  8
0
 10
13.28912309
 20
3.90463756
  0
VERTEX
  8
0
 10
13.29340904
 20
3.89239406
  0
VERTEX
  8
0
 10
13.29783806
 20
3.87751208
  0
VERTEX
  8
0
 10
13.30219023
 20
3.85921558
  0
VERTEX
  8
0
 10
13.30624565
 20
3.83672849
  0
VERTEX
  8
0
 10
13.30978438
 20
3.80927479
  0
VERTEX
  8
0
 10
13.31258651
 20
3.77607841
  0
VERTEX
  8
0
 10
13.31443213
 20
3.73636330
  0
VERTEX
  8
0
 10
13.31510130
 20
3.68935344
  0
VERTEX
  8
0
 10
13.32260349
 20
3.62749339
  0
VERTEX
  8
0
 10
13.33056856
 20
3.56568772
  0
VERTEX
  8
0
 10
13.31805815
 20
3.55828009
  0
VERTEX
  8
0
 10
13.30430698
 20
3.54907413
  0
VERTEX
  8
0
 10
13.29018379
 20
3.53772032
  0
VERTEX
  8
0
 10
13.27655733
 20
3.52386918
  0
VERTEX
  8
0
 10
13.27020186
 20
3.51589788
  0
VERTEX
  8
0
 10
13.26429636
 20
3.50717119
  0
VERTEX
  8
0
 10
13.25894941
 20
3.49764541
  0
VERTEX
  8
0
 10
13.25426962
 20
3.48727687
  0
VERTEX
  8
0
 10
13.25036557
 20
3.47602186
  0
VERTEX
  8
0
 10
13.24734586
 20
3.46383670
  0
VERTEX
  8
0
 10
13.24531908
 20
3.45067772
  0
VERTEX
  8
0
 10
13.24439383
 20
3.43650121
  0
VERTEX
  8
0
 10
13.24306367
 20
3.42703938
  0
VERTEX
  8
0
 10
13.24004827
 20
3.42082905
  0
VERTEX
  8
0
 10
13.23601581
 20
3.41661007
  0
VERTEX
  8
0
 10
13.23163446
 20
3.41312230
  0
VERTEX
  8
0
 10
13.22757237
 20
3.40910560
  0
VERTEX
  8
0
 10
13.22449771
 20
3.40329984
  0
VERTEX
  8
0
 10
13.22307865
 20
3.39444487
  0
VERTEX
  8
0
 10
13.22398336
 20
3.38128056
  0
SEQEND
  0
POLYLINE
  8
Construction
 62
256
 66
   1
 39
0.000000
 70
    0
  0
VERTEX
  8
0
 10
13.45252013
 20
4.35851552
  0
VERTEX
  8
0
 10
13.50512764
 20
4.33749430
  0
SEQEND
  0
POLYLINE
  8
Construction
 62
256
 66
   1
 39
0.000000
 70
    0
  0
VERTEX
  8
0
 10
13.82024063
 20
5.10277670
  0
VERTEX
  8
0
 10
13.82710259
 20
5.11284882
  0
VERTEX
  8
0
 10
13.86066631
 20
5.15936355
  0
VERTEX
  8
0
 10
13.89579015
 20
5.20535001
  0
VERTEX
  8
0
 10
13.93258078
 20
5.25088085
  0
VERTEX
  8
0
 10
13.97116698
 20
5.29604159
  0
VERTEX
  8
0
 10
14.01170291
 20
5.34093149
  0
VERTEX
  8
0
 10
14.05437198
 20
5.38566486
  0
VERTEX
  8
0
 10
14.09872486
 20
5.42966393
  0
VERTEX
  8
0
 10
14.14587481
 20
5.47365818
  0
VERTEX
  8
0
 10
14.17064577
 20
5.49563694
  0
VERTEX
  8
0
 10
14.19628286
 20
5.51758241
  0
VERTEX
  8
0
 10
14.22283050
 20
5.53947088
  0
VERTEX
  8
0
 10
14.25032640
 20
5.56127217
  0
VERTEX
  8
0
 10
14.27880072
 20
5.58294948
  0
VERTEX
  8
0
 10
14.30827507
 20
5.60445942
  0
VERTEX
  8
0
 10
14.33876160
 20
5.62575202
  0
VERTEX
  8
0
 10
14.37026203
 20
5.64677089
  0
VERTEX
  8
0
 10
14.40276663
 20
5.66745349
  0
VERTEX
  8
0
 10
14.43625340
 20
5.68773151
  0
VERTEX
  8
0
 10
14.47068723
 20
5.70753143
  0
VERTEX
  8
0
 10
14.50601928
 20
5.72677520
  0
VERTEX
  8
0
 10
14.54218645
 20
5.74538110
  0
VERTEX
  8
0
 10
14.57911125
 20
5.76326479
  0
VERTEX
  8
0
 10
14.61670173
 20
5.78034046
  0
VERTEX
  8
0
 10
14.65485189
 20
5.79652218
  0
VERTEX
  8
0
 10
14.69344236
 20
5.81172533
  0
VERTEX
  8
0
 10
14.73234140
 20
5.82586812
  0
VERTEX
  8
0
 10
14.77140635
 20
5.83887314
  0
VERTEX
  8
0
 10
14.81048530
 20
5.85066900
  0
VERTEX
  8
0
 10
14.84941923
 20
5.86119176
  0
VERTEX
  8
0
 10
14.88804427
 20
5.87038643
  0
VERTEX
  8
0
 10
14.92619425
 20
5.87820817
  0
VERTEX
  8
0
 10
14.96370342
 20
5.88462336
  0
VERTEX
  8
0
 10
14.98216667
 20
5.88729628
  0
VERTEX
  8
0
 10
15.00040912
 20
5.88961045
  0
VERTEX
  8
0
 10
15.01841135
 20
5.89156514
  0
VERTEX
  8
0
 10
15.03615448
 20
5.89316042
  0
VERTEX
  8
0
 10
15.05362025
 20
5.89439716
  0
VERTEX
  8
0
 10
15.07079104
 20
5.89527705
  0
VERTEX
  8
0
 10
15.08764999
 20
5.89580253
  0
VERTEX
  8
0
 10
15.10418104
 20
5.89597685
  0
VERTEX
  8
0
 10
15.12071209
 20
5.89580253
  0
VERTEX
  8
0
 10
15.13757104
 20
5.89527705
  0
VERTEX
  8
0
 10
15.15474183
 20
5.89439716
  0
VERTEX
  8
0
 10
15.17220760
 20
5.89316042
  0
VERTEX
  8
0
 10
15.18995074
 20
5.89156514
  0
VERTEX
  8
0
 10
15.20795297
 20
5.88961045
  0
VERTEX
  8
0
 10
15.22619541
 20
5.88729628
  0
VERTEX
  8
0
 10
15.24465866
 20
5.88462336
  0
VERTEX
  8
0
 10
15.28216783
 20
5.87820817
  0
VERTEX
  8
0
 10
15.32031782
 20
5.87038643
  0
VERTEX
  8
0
 10
15.35894285
 20
5.86119176
  0
VERTEX
  8
0
 10
15.39787678
 20
5.85066900
  0
VERTEX
  8
0
 10
15.43695574
 20
5.83887314
  0
VERTEX
  8
0
 10
15.47602068
 20
5.82586812
  0
VERTEX
  8
0
 10
15.51491972
 20
5.81172533
  0
VERTEX
  8
0
 10
15.55351019
 20
5.79652218
  0
VERTEX
  8
0
 10
15.59166035
 20
5.78034046
  0
VERTEX
  8
0
 10
15.62925083
 20
5.76326479
  0
VERTEX
  8
0
 10
15.66617563
 20
5.74538110
  0
VERTEX
  8
0
 10
15.70234281
 20
5.72677520
  0
VERTEX
  8
0
 10
15.73767485
 20
5.70753143
  0
VERTEX
  8
0
 10
15.77210868
 20
5.68773151
  0
VERTEX
  8
0
 10
15.80559545
 20
5.66745349
  0
VERTEX
  8
0
 10
15.83810005
 20
5.64677089
  0
VERTEX
  8
0
 10
15.86960048
 20
5.62575202
  0
VERTEX
  8
0
 10
15.90008701
 20
5.60445942
  0
VERTEX
  8
0
 10
15.92956136
 20
5.58294948
  0
VERTEX
  8
0
 10
15.95803568
 20
5.56127217
  0
VERTEX
  8
0
 10
15.98553158
 20
5.53947088
  0
VERTEX
  8
0
 10
16.01207922
 20
5.51758241
  0
VERTEX
  8
0
 10
16.03771631
 20
5.49563694
  0
VERTEX
  8
0
 10
16.06248727
 20
5.47365818
  0
VERTEX
  8
0
 10
16.10963722
 20
5.42966393
  0
VERTEX
  8
0
 10
16.15399011
 20
5.38566486
  0
VERTEX
  8
0
 10
16.19665917
 20
5.34093149
  0
VERTEX
  8
0
 10
16.23719510
 20
5.29604159
  0
VERTEX
  8
0
 10
16.27578131
 20
5.25088085
  0
VERTEX
  8
0
 10
16.31257193
 20
5.20535001
  0
VERTEX
  8
0
 10
16.34769577
 20
5.15936355
  0
VERTEX
  8
0
 10
16.38125949
 20
5.11284882
  0
VERTEX
  8
0
 10
16.41335020
 20
5.06574547
  0
VERTEX
  8
0
 10
16.44403771
 20
5.01800517
  0
VERTEX
  8
0
 10
16.47337625
 20
4.96959147
  0
VERTEX
  8
0
 10
16.50140613
 20
4.92047993
  0
VERTEX
  8
0
 10
16.52815499
 20
4.87065834
  0
VERTEX
  8
0
 10
16.55363901
 20
4.82012709
  0
VERTEX
  8
0
 10
16.57003647
 20
4.78545208
  0
SEQEND
  0
POLYLINE
  8
Construction
 62
256
 66
   1
 39
0.000000
 70
    0
  0
VERTEX
  8
0
 10
13.48477096
 20
3.55903167
  0
VERTEX
  8
0
 10
13.48478809
 20
3.55904870
  0
SEQEND
  0
POLYLINE
  8
Construction
 62
256
 66
   1
 39
0.000000
 70
    0
  0
VERTEX
  8
0
 10
13.52180717
 20
3.60660827
  0
VERTEX
  8
0
 10
13.52113328
 20
3.60714475
  0
SEQEND
  0
POLYLINE
  8
Construction
 62
256
 66
   1
 39
0.000000
 70
    1
  0
VERTEX
  8
0
 10
13.69824106
 20
3.28919944
 42
0.16791102
  0
VERTEX
  8
0
 10
13.59669418
 20
3.33617931
 42
0.23883533
  0
VERTEX
  8
0
 10
13.46277019
 20
3.28229933
 42
0.17254858
  0
VERTEX
  8
0
 10
13.41596442
 20
3.16659069
 42
0.12852407
  0
VERTEX
  8
0
 10
13.43677419
 20
3.07291614
 42
0.11704383
  0
VERTEX
  8
0
 10
13.49987904
 20
2.99674238
 42
0.11219000
  0
VERTEX
  8
0
 10
13.57352510
 20
2.96395984
 42
0.19308736
  0
VERTEX
  8
0
 10
13.68408122
 20
2.98586902
 42
0.16405632
  0
VERTEX
  8
0
 10
13.74766169
 20
3.06858449
 42
0.06191293
  0
VERTEX
  8
0
 10
13.75851791
 20
3.12269178
 42
0.08386577
  0
VERTEX
  8
0
 10
13.75068137
 20
3.20218806
 42
0.12833223
  0
VERTEX
  8
0
 10
13.69824106
 20
3.28919944
  0
SEQEND
  0
POLYLINE
  8
Construction
 62
256
 66
   1
 39
0.000000
 70
    0
  0
VERTEX
  8
0
 10
13.46268477
 20
3.03238949
 42
0.17979505
  0
VERTEX
  8
0
 10
13.36846918
 20
2.98854501
 42
0.12640745
  0
VERTEX
  8
0
 10
13.32728615
 20
2.91439890
 42
0.09747568
  0
VERTEX
  8
0
 10
13.32290725
 20
2.83593180
 42
0.15819853
  0
VERTEX
  8
0
 10
13.37967509
 20
2.71952633
 42
0.09340952
  0
VERTEX
  8
0
 10
13.44517912
 20
2.67193915
 42
0.13087241
  0
VERTEX
  8
0
 10
13.52905358
 20
2.65821180
 42
0.23685003
  0
VERTEX
  8
0
 10
13.63397007
 20
2.72675661
 42
0.09699671
  0
VERTEX
  8
0
 10
13.65707956
 20
2.79020328
 42
0.20328615
  0
VERTEX
  8
0
 10
13.62143205
 20
2.95118647
 42
0.01209007
  0
VERTEX
  8
0
 10
13.61367069
 20
2.96169969
  0
SEQEND
  0
POLYLINE
  8
Construction
 62
256
 66
   1
 39
0.000000
 70
    0
  0
VERTEX
  8
0
 10
14.16474010
 20
3.31690715
 42
0.18922827
  0
VERTEX
  8
0
 10
14.04819391
 20
3.37255212
  0
SEQEND
  0
POLYLINE
  8
Construction
 62
256
 66
   1
 39
0.000000
 70
    0
  0
VERTEX
  8
0
 10
13.92958560
 20
4.47945245
 42
0.11530564
  0
VERTEX
  8
0
 10
13.90585380
 20
4.57767711
 42
0.01573407
  0
VERTEX
  8
0
 10
13.89830388
 20
4.59171608
 42
0.21938246
  0
VERTEX
  8
0
 10
13.80734682
 20
4.64271856
 42
0.11928754
  0
VERTEX
  8
0
 10
13.73409625
 20
4.63212756
 42
0.16817937
  0
VERTEX
  8
0
 10
13.62523893
 20
4.54428618
 42
0.10171369
  0
VERTEX
  8
0
 10
13.59423777
 20
4.45990735
 42
0.06739161
  0
VERTEX
  8
0
 10
13.59344902
 20
4.40947779
  0
VERTEX
  8
0
 10
13.60130295
 20
4.35775917
  0
SEQEND
  0
POLYLINE
  8
Construction
 62
256
 66
   1
 39
0.000000
 70
    0
  0
VERTEX
  8
0
 10
13.90010232
 20
2.96545902
 42
0.13081711
  0
VERTEX
  8
0
 10
13.96321175
 20
3.01892206
 42
0.03967903
  0
VERTEX
  8
0
 10
13.98702542
 20
3.07612025
  0
SEQEND
  0
POLYLINE
  8
Construction
 62
256
 66
   1
 39
0.000000
 70
    0
  0
VERTEX
  8
0
 10
13.64458067
 20
2.74679094
 42
0.16983570
  0
VERTEX
  8
0
 10
13.75379989
 20
2.66520233
 42
0.14096734
  0
VERTEX
  8
0
 10
13.84069470
 20
2.66509459
 42
0.20784960
  0
VERTEX
  8
0
 10
13.92998427
 20
2.74138198
 42
0.26258483
  0
VERTEX
  8
0
 10
13.91891047
 20
2.93996379
 42
0.16350901
  0
VERTEX
  8
0
 10
13.82171926
 20
3.01995831
 42
0.14753112
  0
VERTEX
  8
0
 10
13.72508242
 20
3.02505213
  0
SEQEND
  0
POLYLINE
  8
Construction
 62
256
 66
   1
 39
0.000000
 70
    0
  0
VERTEX
  8
0
 10
13.89660131
 20
3.24362978
 42
0.15024084
  0
VERTEX
  8
0
 10
13.92852528
 20
3.13216244
 42
0.17306544
  0
VERTEX
  8
0
 10
14.03188692
 20
3.05617690
 42
0.17585550
  0
VERTEX
  8
0
 10
14.14027088
 20
3.06361529
 42
0.06443157
  0
VERTEX
  8
0
 10
14.14986090
 20
3.06919188
 42
0.11311200
  0
VERTEX
  8
0
 10
14.18482487
 20
3.11009255
 42
0.06987937
  0
VERTEX
  8
0
 10
14.20963757
 20
3.17323274
 42
0.07477971
  0
VERTEX
  8
0
 10
14.21914527
 20
3.27037773
 42
0.00548101
  0
VERTEX
  8
0
 10
14.21833310
 20
3.28737683
  0
SEQEND
  0
POLYLINE
  8
Construction
 62
256
 66
   1
 39
0.000000
 70
    0
  0
VERTEX
  8
0
 10
13.73549549
 20
3.62813398
 42
0.15035173
  0
VERTEX
  8
0
 10
13.65009315
 20
3.67827559
 42
0.13565143
  0
VERTEX
  8
0
 10
13.56453498
 20
3.67316782
 42
0.16121593
  0
VERTEX
  8
0
 10
13.48305455
 20
3.60379648
 42
0.12808783
  0
VERTEX
  8
0
 10
13.45662814
 20
3.52153403
 42
0.17984619
  0
VERTEX
  8
0
 10
13.49901202
 20
3.39861130
 42
0.17714011
  0
VERTEX
  8
0
 10
13.59746378
 20
3.34015292
 42
0.21242464
  0
VERTEX
  8
0
 10
13.71781962
 20
3.37166570
  0
SEQEND
  0
POLYLINE
  8
Construction
 62
256
 66
   1
 39
0.000000
 70
    0
  0
VERTEX
  8
0
 10
13.71644047
 20
3.48266409
 42
0.20286925
  0
VERTEX
  8
0
 10
13.73702538
 20
3.32832269
 42
0.17804996
  0
VERTEX
  8
0
 10
13.83193167
 20
3.24821985
 42
0.29029331
  0
VERTEX
  8
0
 10
14.00133413
 20
3.28513407
 42
0.14916564
  0
VERTEX
  8
0
 10
14.05167295
 20
3.37608885
 42
0.10014376
  0
VERTEX
  8
0
 10
14.05360494
 20
3.45332366
  0
SEQEND
  0
POLYLINE
  8
Construction
 62
256
 66
   1
 39
0.000000
 70
    0
  0
VERTEX
  8
0
 10
14.08606983
 20
3.44510972
 42
0.19425771
  0
VERTEX
  8
0
 10
14.16080096
 20
3.32259509
 42
0.07559989
  0
VERTEX
  8
0
 10
14.21186244
 20
3.29674647
  0
SEQEND
  0
POLYLINE
  8
Construction
 62
256
 66
   1
 39
0.000000
 70
    1
  0
VERTEX
  8
0
 10
13.56555466
 20
4.35746387
 42
-0.13282199
  0
VERTEX
  8
0
 10
13.64389340
 20
4.34652297
 42
-0.18473420
  0
VERTEX
  8
0
 10
13.71383625
 20
4.27599876
 42
-0.10891897
  0
VERTEX
  8
0
 10
13.72862128
 20
4.20559363
 42
-0.04334489
  0
VERTEX
  8
0
 10
13.72394387
 20
4.15351382
 42
-0.17998307
  0
VERTEX
  8
0
 10
13.64622927
 20
4.02804131
 42
-0.13023038
  0
VERTEX
  8
0
 10
13.55833330
 20
3.99164645
 42
-0.19305115
  0
VERTEX
  8
0
 10
13.44846367
 20
4.02025362
 42
-0.16547804
  0
VERTEX
  8
0
 10
13.39245945
 20
4.10368687
 42
-0.12335042
  0
VERTEX
  8
0
 10
13.38995047
 20
4.19753399
 42
-0.10853860
  0
VERTEX
  8
0
 10
13.44494305
 20
4.29283541
 42
-0.18350733
  0
VERTEX
  8
0
 10
13.56555466
 20
4.35746387
  0
SEQEND
  0
POLYLINE
  8
Construction
 62
256
 66
   1
 39
0.000000
 70
    0
  0
VERTEX
  8
0
 10
13.75009503
 20
4.13532168
 42
-0.16379650
  0
VERTEX
  8
0
 10
13.72840401
 20
4.23765855
 42
-0.23236418
  0
VERTEX
  8
0
 10
13.82921595
 20
4.38007756
 42
-0.05522110
  0
VERTEX
  8
0
 10
13.86790591
 20
4.39444354
  0
SEQEND
  0
POLYLINE
  8
Construction
 62
256
 66
   1
 39
0.000000
 70
    0
  0
VERTEX
  8
0
 10
13.36019080
 20
2.46697203
 42
0.16883743
  0
VERTEX
  8
0
 10
13.47714933
 20
2.41717518
 42
0.22038148
  0
VERTEX
  8
0
 10
13.59229299
 20
2.44357922
 42
0.14809808
  0
VERTEX
  8
0
 10
13.64162331
 20
2.51530578
 42
0.13910708
  0
VERTEX
  8
0
 10
13.64639776
 20
2.61930207
 42
0.09720071
  0
VERTEX
  8
0
 10
13.61220391
 20
2.69829864
  0
SEQEND
  0
POLYLINE
  8
Construction
 62
256
 66
   1
 39
0.000000
 70
    0
  0
VERTEX
  8
0
 10
13.41890899
 20
3.19630405
 42
0.19570499
  0
VERTEX
  8
0
 10
13.33539369
 20
3.09343818
 42
0.03651957
  0
VERTEX
  8
0
 10
13.33045912
 20
3.06900938
 42
0.10517253
  0
VERTEX
  8
0
 10
13.34897499
 20
2.96394953
  0
SEQEND
  0
POLYLINE
  8
Construction
 62
256
 66
   1
 39
0.000000
 70
    0
  0
VERTEX
  8
0
 10
13.46115577
 20
3.55220170
 42
0.05091010
  0
VERTEX
  8
0
 10
13.39861652
 20
3.54083530
 42
0.16580755
  0
VERTEX
  8
0
 10
13.30714619
 20
3.46508052
 42
0.18431182
  0
VERTEX
  8
0
 10
13.29434788
 20
3.34624840
 42
0.15405565
  0
VERTEX
  8
0
 10
13.35688867
 20
3.24099106
 42
0.10194448
  0
VERTEX
  8
0
 10
13.42174188
 20
3.20503727
  0
SEQEND
  0
POLYLINE
  8
Construction
 62
256
 66
   1
 39
0.000000
 70
    0
  0
VERTEX
  8
0
 10
13.36901242
 20
3.75589139
 42
0.06646097
  0
VERTEX
  8
0
 10
13.34986929
 20
3.65359851
 42
0.10567406
  0
VERTEX
  8
0
 10
13.36255744
 20
3.58001182
 42
0.08243904
  0
VERTEX
  8
0
 10
13.39170342
 20
3.53325214
  0
SEQEND
  0
POLYLINE
  8
Construction
 62
256
 66
   1
 39
0.000000
 70
    0
  0
VERTEX
  8
0
 10
13.77539740
 20
4.72696624
 42
0.08747401
  0
VERTEX
  8
0
 10
13.78768357
 20
4.67374869
 42
0.08003866
  0
VERTEX
  8
0
 10
13.81116395
 20
4.63897563
  0
SEQEND
  0
POLYLINE
  8
Construction
 62
256
 66
   1
 39
0.000000
 70
    0
  0
VERTEX
  8
0
 10
14.16461279
 20
4.69193193
 42
0.02013196
  0
VERTEX
  8
0
 10
14.03016344
 20
4.72350701
 42
0.05289804
  0
VERTEX
  8
0
 10
13.83999070
 20
4.73943154
 42
0.05711286
  0
VERTEX
  8
0
 10
13.64210515
 20
4.71053817
  0
VERTEX
  8
0
 10
13.63427973
 20
4.70850747
  0
SEQEND
  0
POLYLINE
  8
Construction
 62
256
 66
   1
 39
0.000000
 70
    0
  0
VERTEX
  8
0
 10
13.59216259
 20
4.42692398
 42
-0.14895148
  0
VERTEX
  8
0
 10
13.53914034
 20
4.47009598
 42
-0.08259603
  0
VERTEX
  8
0
 10
13.52123109
 20
4.51011941
 42
-0.11708362
  0
VERTEX
  8
0
 10
13.51867079
 20
4.58042624
 42
-0.11068909
  0
VERTEX
  8
0
 10
13.56049852
 20
4.65554412
 42
-0.21711321
  0
VERTEX
  8
0
 10
13.66902439
 20
4.70653989
 42
-0.22662761
  0
VERTEX
  8
0
 10
13.75551919
 20
4.66532940
 42
-0.05490804
  0
VERTEX
  8
0
 10
13.77004452
 20
4.64186114
  0
SEQEND
  0
POLYLINE
  8
Construction
 62
256
 66
   1
 39
0.000000
 70
    0
  0
VERTEX
  8
0
 10
14.05568459
 20
4.71853082
 42
-0.35688229
  0
VERTEX
  8
0
 10
13.89164783
 20
4.60018500
  0
SEQEND
  0
POLYLINE
  8
Construction
 62
256
 66
   1
 39
0.000000
 70
    0
  0
VERTEX
  8
0
 10
13.61005084
 20
4.84531251
 42
0.08431117
  0
VERTEX
  8
0
 10
13.58710804
 20
4.80930366
 42
0.24745025
  0
VERTEX
  8
0
 10
13.59244424
 20
4.74864045
 42
0.08941190
  0
VERTEX
  8
0
 10
13.62211057
 20
4.71729919
 42
0.01422515
  0
VERTEX
  8
0
 10
13.63427973
 20
4.70850747
  0
SEQEND
  0
POLYLINE
  8
Construction
 62
256
 66
   1
 39
0.000000
 70
    0
  0
VERTEX
  8
0
 10
14.03769236
 20
5.06740912
 42
0.14401412
  0
VERTEX
  8
0
 10
13.99719252
 20
5.12292240
 42
0.20161652
  0
VERTEX
  8
0
 10
13.91261437
 20
5.14171307
 42
0.08928703
  0
VERTEX
  8
0
 10
13.84526807
 20
5.11843607
 42
0.07260579
  0
VERTEX
  8
0
 10
13.76788191
 20
5.06097031
 42
0.10144668
  0
VERTEX
  8
0
 10
13.66680587
 20
4.91351645
 42
0.04307940
  0
VERTEX
  8
0
 10
13.65438652
 20
4.85977071
  0
SEQEND
  0
POLYLINE
  8
Construction
 62
256
 66
   1
 39
0.000000
 70
    0
  0
VERTEX
  8
0
 10
14.64449837
 20
4.84780452
 42
0.03100175
  0
VERTEX
  8
0
 10
14.65015859
 20
4.90292572
 42
0.12660733
  0
VERTEX
  8
0
 10
14.62654905
 20
5.00268174
 42
0.11621938
  0
VERTEX
  8
0
 10
14.58303043
 20
5.05066448
 42
0.22941602
  0
VERTEX
  8
0
 10
14.47879252
 20
5.06284211
 42
0.10496571
  0
VERTEX
  8
0
 10
14.40667107
 20
5.02150348
 42
0.09889998
  0
VERTEX
  8
0
 10
14.33390249
 20
4.92730027
 42
0.03507542
  0
VERTEX
  8
0
 10
14.31524322
 20
4.88287724
 42
0.04196469
  0
VERTEX
  8
0
 10
14.30655087
 20
4.82874687
  0
SEQEND
  0
POLYLINE
  8
Construction
 62
256
 66
   1
 39
0.000000
 70
    0
  0
VERTEX
  8
0
 10
14.28949203
 20
4.83539944
 42
0.03087330
  0
VERTEX
  8
0
 10
14.32179725
 20
4.89178937
 42
0.15718290
  0
VERTEX
  8
0
 10
14.35469283
 20
5.07511859
 42
0.10306353
  0
VERTEX
  8
0
 10
14.32847072
 20
5.14625222
 42
0.12844936
  0
VERTEX
  8
0
 10
14.28483215
 20
5.18630843
 42
0.18604234
  0
VERTEX
  8
0
 10
14.20041766
 20
5.19361638
 42
0.09564625
  0
VERTEX
  8
0
 10
14.12474189
 20
5.15743355
 42
0.06837625
  0
VERTEX
  8
0
 10
14.05678506
 20
5.09285241
 42
0.10787095
  0
VERTEX
  8
0
 10
13.98128114
 20
4.94560313
 42
0.02574260
  0
VERTEX
  8
0
 10
13.97383151
 20
4.90741479
  0
SEQEND
  0
POLYLINE
  8
Construction
 62
256
 66
   1
 39
0.000000
 70
    0
  0
VERTEX
  8
0
 10
14.33099551
 20
4.81259058
 42
0.06291106
  0
VERTEX
  8
0
 10
14.19441457
 20
4.87273720
 42
0.03903207
  0
VERTEX
  8
0
 10
14.07850866
 20
4.89908672
 42
0.05003802
  0
VERTEX
  8
0
 10
13.90597301
 20
4.90585986
 42
0.05644702
  0
VERTEX
  8
0
 10
13.68040338
 20
4.86732913
 42
0.01757159
  0
VERTEX
  8
0
 10
13.61005084
 20
4.84531251
  0
SEQEND
  0
POLYLINE
  8
Construction
 62
256
 66
   1
 39
0.000000
 70
    0
  0
VERTEX
  8
0
 10
13.61208522
 20
4.97453364
  0
VERTEX
  8
0
 10
13.67756398
 20
4.93718491
  0
SEQEND
  0
POLYLINE
  8
Construction
 62
256
 66
   1
 39
0.000000
 70
    0
  0
VERTEX
  8
0
 10
15.34812606
 20
4.79871406
 42
-0.10644281
  0
VERTEX
  8
0
 10
15.34897995
 20
4.90043548
 42
-0.08535729
  0
VERTEX
  8
0
 10
15.37621572
 20
4.97305591
 42
-0.05559565
  0
VERTEX
  8
0
 10
15.40246390
 20
5.00788260
 42
-0.10543764
  0
VERTEX
  8
0
 10
15.45397707
 20
5.04256459
 42
-0.21344798
  0
VERTEX
  8
0
 10
15.55856239
 20
5.03596684
 42
-0.10866726
  0
VERTEX
  8
0
 10
15.62098072
 20
4.98543192
 42
-0.11976782
  0
VERTEX
  8
0
 10
15.67295477
 20
4.88080417
 42
-0.06012459
  0
VERTEX
  8
0
 10
15.67830052
 20
4.80600984
  0
SEQEND
  0
POLYLINE
  8
Construction
 62
256
 66
   1
 39
0.000000
 70
    0
  0
VERTEX
  8
0
 10
15.98300473
 20
5.02916685
 42
-0.13992368
  0
VERTEX
  8
0
 10
16.03482925
 20
5.08288563
 42
-0.18798968
  0
VERTEX
  8
0
 10
16.12290472
 20
5.09393963
 42
-0.08712272
  0
VERTEX
  8
0
 10
16.18167624
 20
5.06894545
 42
-0.08272164
  0
VERTEX
  8
0
 10
16.25446533
 20
5.00469989
 42
-0.09297439
  0
VERTEX
  8
0
 10
16.32215564
 20
4.88386687
 42
-0.05589380
  0
VERTEX
  8
0
 10
16.33290966
 20
4.80783387
  0
SEQEND
  0
POLYLINE
  8
Construction
 62
256
 66
   1
 39
0.000000
 70
    0
  0
VERTEX
  8
0
 10
15.69615935
 20
4.81201634
 42
-0.07326731
  0
VERTEX
  8
0
 10
15.66545738
 20
4.89268417
 42
-0.14539534
  0
VERTEX
  8
0
 10
15.67041012
 20
5.05717050
 42
-0.09004835
  0
VERTEX
  8
0
 10
15.70738077
 20
5.12200095
 42
-0.10736243
  0
VERTEX
  8
0
 10
15.75488686
 20
5.15708166
 42
-0.19710853
  0
VERTEX
  8
0
 10
15.85049876
 20
5.15744005
 42
-0.09369010
  0
VERTEX
  8
0
 10
15.91229833
 20
5.11958841
 42
-0.08723056
  0
VERTEX
  8
0
 10
15.97827213
 20
5.03781048
 42
-0.10942546
  0
VERTEX
  8
0
 10
16.02158710
 20
4.89903673
 42
-0.04931526
  0
VERTEX
  8
0
 10
16.01940554
 20
4.85557546
  0
SEQEND
  0
POLYLINE
  8
Construction
 62
256
 66
   1
 39
0.000000
 70
    0
  0
VERTEX
  8
0
 10
15.59142750
 20
3.80326685
 42
-0.16109413
  0
VERTEX
  8
0
 10
15.67820111
 20
3.84866416
  0
SEQEND
  0
POLYLINE
  8
Construction
 62
256
 66
   1
 39
0.000000
 70
    0
  0
VERTEX
  8
0
 10
16.70851315
 20
3.64805178
 42
0.04861220
  0
VERTEX
  8
0
 10
16.71547441
 20
3.63420747
 42
-0.07549149
  0
VERTEX
  8
0
 10
16.72020177
 20
3.61719331
 42
0.09845272
  0
VERTEX
  8
0
 10
16.72427589
 20
3.60508100
 42
0.09776292
  0
VERTEX
  8
0
 10
16.72898563
 20
3.59891157
 42
0.53949658
  0
VERTEX
  8
0
 10
16.73252619
 20
3.59979985
 42
0.02036597
  0
VERTEX
  8
0
 10
16.73606425
 20
3.61211163
 42
-0.05215947
  0
VERTEX
  8
0
 10
16.74472333
 20
3.63186239
 42
0.02210421
  0
VERTEX
  8
0
 10
16.75383888
 20
3.64471831
 42
0.04816721
  0
VERTEX
  8
0
 10
16.76361472
 20
3.67287579
 42
0.00383569
  0
VERTEX
  8
0
 10
16.77178791
 20
3.70455206
  0
SEQEND
  0
POLYLINE
  8
Construction
 62
256
 66
   1
 39
0.000000
 70
    0
  0
VERTEX
  8
0
 10
16.76032380
 20
4.84716271
  0
VERTEX
  8
0
 10
16.46541864
 20
4.75173692
  0
SEQEND
  0
POLYLINE
  8
Construction
 62
256
 66
   1
 39
0.000000
 70
    1
  0
VERTEX
  8
0
 10
16.18879348
 20
4.25907522
 42
-0.15742249
  0
VERTEX
  8
0
 10
16.24267291
 20
4.33878359
 42
-0.24807917
  0
VERTEX
  8
0
 10
16.38128907
 20
4.36077783
 42
-0.11224080
  0
VERTEX
  8
0
 10
16.45554905
 20
4.31707976
 42
-0.13357790
  0
VERTEX
  8
0
 10
16.51052286
 20
4.23158747
 42
-0.16366728
  0
VERTEX
  8
0
 10
16.50760981
 20
4.10874166
 42
-0.13531320
  0
VERTEX
  8
0
 10
16.45758438
 20
4.04068668
 42
-0.25090793
  0
VERTEX
  8
0
 10
16.31078607
 20
4.01618650
 42
-0.14918653
  0
VERTEX
  8
0
 10
16.22309924
 20
4.07697785
 42
-0.25036852
  0
VERTEX
  8
0
 10
16.18749315
 20
4.25476219
  0
VERTEX
  8
0
 10
16.18879348
 20
4.25907522
  0
SEQEND
  0
POLYLINE
  8
Construction
 62
256
 66
   1
 39
0.000000
 70
    0
  0
VERTEX
  8
0
 10
16.32520634
 20
4.36878496
  0
VERTEX
  8
0
 10
16.31476695
 20
4.37817649
  0
SEQEND
  0
POLYLINE
  8
Construction
 62
256
 66
   1
 39
0.000000
 70
    0
  0
VERTEX
  8
0
 10
15.96773523
 20
4.69181146
 42
-0.16116559
  0
VERTEX
  8
0
 10
16.02812347
 20
4.57713660
 42
-0.02144802
  0
VERTEX
  8
0
 10
16.02946793
 20
4.56435803
  0
SEQEND
  0
POLYLINE
  8
Construction
 62
256
 66
   1
 39
0.000000
 70
    0
  0
VERTEX
  8
0
 10
15.98597029
 20
4.47361427
 42
-0.14213332
  0
VERTEX
  8
0
 10
16.02410196
 20
4.55852151
 42
-0.14085491
  0
VERTEX
  8
0
 10
16.09260364
 20
4.60285103
 42
-0.15737848
  0
VERTEX
  8
0
 10
16.18505219
 20
4.59950749
 42
-0.14671818
  0
VERTEX
  8
0
 10
16.27054757
 20
4.53809257
 42
-0.17585385
  0
VERTEX
  8
0
 10
16.31703354
 20
4.40318221
 42
-0.04119098
  0
VERTEX
  8
0
 10
16.31267723
 20
4.36772667
  0
SEQEND
  0
POLYLINE
  8
Construction
 62
256
 66
   1
 39
0.000000
 70
    0
  0
VERTEX
  8
0
 10
16.50153581
 20
3.78705190
 42
-0.07155904
  0
VERTEX
  8
0
 10
16.51483241
 20
3.68435501
 42
-0.26437903
  0
VERTEX
  8
0
 10
16.42734791
 20
3.54389461
 42
-0.02731604
  0
VERTEX
  8
0
 10
16.40805127
 20
3.53493191
  0
SEQEND
  0
POLYLINE
  8
Construction
 62
256
 66
   1
 39
0.000000
 70
    0
  0
VERTEX
  8
0
 10
16.50862263
 20
4.11162989
 42
-0.20675807
  0
VERTEX
  8
0
 10
16.60057448
 20
3.97759684
 42
-0.08482828
  0
VERTEX
  8
0
 10
16.60186155
 20
3.91067644
 42
-0.15581808
  0
VERTEX
  8
0
 10
16.54718160
 20
3.81564487
 42
-0.28965040
  0
VERTEX
  8
0
 10
16.37378767
 20
3.78862777
 42
-0.16170928
  0
VERTEX
  8
0
 10
16.28781076
 20
3.86472418
 42
-0.06996486
  0
VERTEX
  8
0
 10
16.26660645
 20
3.91680143
 42
-0.15868402
  0
VERTEX
  8
0
 10
16.27102188
 20
4.03422675
  0
SEQEND
  0
POLYLINE
  8
Construction
 62
256
 66
   1
 39
0.000000
 70
    0
  0
VERTEX
  8
0
 10
16.18814039
 20
4.03318463
 42
-0.10471904
  0
VERTEX
  8
0
 10
16.25635374
 20
3.98260552
  0
SEQEND
  0
POLYLINE
  8
Construction
 62
256
 66
   1
 39
0.000000
 70
    0
  0
VERTEX
  8
0
 10
16.30490333
 20
3.83989797
 42
-0.17049068
  0
VERTEX
  8
0
 10
16.24424450
 20
3.73839397
 42
-0.03752760
  0
VERTEX
  8
0
 10
16.22007825
 20
3.72206703
  0
SEQEND
  0
POLYLINE
  8
Construction
 62
256
 66
   1
 39
0.000000
 70
    0
  0
VERTEX
  8
0
 10
16.22359498
 20
3.66161155
 42
-0.20500181
  0
VERTEX
  8
0
 10
16.34647056
 20
3.62625863
 42
-0.29275161
  0
VERTEX
  8
0
 10
16.40541754
 20
3.45224466
 42
-0.11328297
  0
VERTEX
  8
0
 10
16.37212095
 20
3.38341988
 42
-0.13446493
  0
VERTEX
  8
0
 10
16.30247370
 20
3.33308325
 42
-0.23986373
  0
VERTEX
  8
0
 10
16.16371640
 20
3.34996008
 42
-0.01773642
  0
VERTEX
  8
0
 10
16.15222326
 20
3.35809109
  0
SEQEND
  0
POLYLINE
  8
Construction
 62
256
 66
   1
 39
0.000000
 70
    1
  0
VERTEX
  8
0
 10
16.17360456
 20
3.27666964
 42
-0.40780757
  0
VERTEX
  8
0
 10
16.40291966
 20
3.27309675
 42
-0.25354644
  0
VERTEX
  8
0
 10
16.45468631
 20
3.10663920
 42
-0.15638332
  0
VERTEX
  8
0
 10
16.39716263
 20
2.99938542
 42
-0.13556617
  0
VERTEX
  8
0
 10
16.31542638
 20
2.95640008
 42
-0.25060450
  0
VERTEX
  8
0
 10
16.17147951
 20
2.99904020
 42
-0.15646174
  0
VERTEX
  8
0
 10
16.11873637
 20
3.09759801
 42
-0.13334916
  0
VERTEX
  8
0
 10
16.12760174
 20
3.20582600
 42
-0.11236672
  0
VERTEX
  8
0
 10
16.17360456
 20
3.27666964
  0
SEQEND
  0
POLYLINE
  8
Construction
 62
256
 66
   1
 39
0.000000
 70
    0
  0
VERTEX
  8
0
 10
16.41708796
 20
3.02152192
 42
-0.17295320
  0
VERTEX
  8
0
 10
16.51562976
 20
2.97598928
 42
-0.22142676
  0
VERTEX
  8
0
 10
16.56844284
 20
2.82736103
 42
-0.15739728
  0
VERTEX
  8
0
 10
16.52194573
 20
2.71702827
 42
-0.12435328
  0
VERTEX
  8
0
 10
16.44865733
 20
2.66396634
 42
-0.25099749
  0
VERTEX
  8
0
 10
16.30442505
 20
2.68079056
 42
-0.09006924
  0
VERTEX
  8
0
 10
16.26266276
 20
2.72442450
 42
-0.10390025
  0
VERTEX
  8
0
 10
16.23464628
 20
2.79501896
 42
-0.15117214
  0
VERTEX
  8
0
 10
16.24705898
 20
2.91284857
 42
-0.05293692
  0
VERTEX
  8
0
 10
16.27038653
 20
2.95336880
  0
SEQEND
  0
POLYLINE
  8
Construction
 62
256
 66
   1
 39
0.000000
 70
    0
  0
VERTEX
  8
0
 10
15.86310884
 20
3.69324170
 42
-0.19961904
  0
VERTEX
  8
0
 10
15.83059928
 20
3.55344535
 42
-0.15152505
  0
VERTEX
  8
0
 10
15.74627130
 20
3.49285157
  0
VERTEX
  8
0
 10
15.74175330
 20
3.49132134
  0
SEQEND
  0
POLYLINE
  8
Construction
 62
256
 66
   1
 39
0.000000
 70
    0
  0
VERTEX
  8
0
 10
15.70653128
 20
3.30990692
 42
-0.19241322
  0
VERTEX
  8
0
 10
15.82185590
 20
3.36392107
  0
SEQEND
  0
POLYLINE
  8
Construction
 62
256
 66
   1
 39
0.000000
 70
    0
  0
VERTEX
  8
0
 10
16.45306292
 20
3.53702868
  0
VERTEX
  8
0
 10
16.45304694
 20
3.53704567
  0
SEQEND
  0
POLYLINE
  8
Construction
 62
256
 66
   1
 39
0.000000
 70
    0
  0
VERTEX
  8
0
 10
16.41779919
 20
3.58419509
  0
VERTEX
  8
0
 10
16.41853415
 20
3.58470555
  0
SEQEND
  0
POLYLINE
  8
Construction
 62
256
 66
   1
 39
0.000000
 70
    0
  0
VERTEX
  8
0
 10
15.98371383
 20
2.95948394
 42
-0.12221500
  0
VERTEX
  8
0
 10
15.91736119
 20
3.01293062
 42
-0.03738153
  0
VERTEX
  8
0
 10
15.89007066
 20
3.06978821
  0
SEQEND
  0
POLYLINE
  8
Construction
 62
256
 66
   1
 39
0.000000
 70
    0
  0
VERTEX
  8
0
 10
16.25221897
 20
2.74198298
 42
-0.17684576
  0
VERTEX
  8
0
 10
16.15228619
 20
2.66306398
 42
-0.21206345
  0
VERTEX
  8
0
 10
16.02619937
 20
2.67779083
 42
-0.18629424
  0
VERTEX
  8
0
 10
15.95035376
 20
2.77609876
 42
-0.25066458
  0
VERTEX
  8
0
 10
15.98240270
 20
2.95787367
 42
-0.19225916
  0
VERTEX
  8
0
 10
16.09263139
 20
3.02058728
 42
-0.09435749
  0
VERTEX
  8
0
 10
16.15514351
 20
3.01676608
  0
SEQEND
  0
POLYLINE
  8
Construction
 62
256
 66
   1
 39
0.000000
 70
    0
  0
VERTEX
  8
0
 10
15.97626034
 20
3.23438078
 42
-0.20012351
  0
VERTEX
  8
0
 10
15.92625022
 20
3.09985950
 42
-0.25761372
  0
VERTEX
  8
0
 10
15.77422010
 20
3.04747590
 42
-0.13804420
  0
VERTEX
  8
0
 10
15.69281910
 20
3.08719277
 42
-0.06944714
  0
VERTEX
  8
0
 10
15.66073458
 20
3.12416531
  0
SEQEND
  0
POLYLINE
  8
Construction
 62
256
 66
   1
 39
0.000000
 70
    0
  0
VERTEX
  8
0
 10
16.15115140
 20
3.46730481
 42
-0.23940261
  0
VERTEX
  8
0
 10
16.12144711
 20
3.29654185
 42
-0.18264750
  0
VERTEX
  8
0
 10
16.01975321
 20
3.23233436
 42
-0.19921084
  0
VERTEX
  8
0
 10
15.89530039
 20
3.25709969
 42
-0.14583292
  0
VERTEX
  8
0
 10
15.82879126
 20
3.33632924
 42
-0.24868112
  0
VERTEX
  8
0
 10
15.84102220
 20
3.51447365
 42
-0.15942281
  0
VERTEX
  8
0
 10
15.92639736
 20
3.58439310
 42
-0.05507501
  0
VERTEX
  8
0
 10
15.96350121
 20
3.59385357
  0
SEQEND
  0
POLYLINE
  8
Construction
 62
256
 66
   1
 39
0.000000
 70
    0
  0
VERTEX
  8
0
 10
16.41857007
 20
3.25592820
 42
-0.01001948
  0
VERTEX
  8
0
 10
16.43606242
 20
3.26598581
  0
SEQEND
  0
POLYLINE
  8
Construction
 62
256
 66
   1
 39
0.000000
 70
    0
  0
VERTEX
  8
0
 10
16.57922862
 20
3.28681174
 42
-0.24060127
  0
VERTEX
  8
0
 10
16.67058164
 20
3.15764849
 42
-0.07734393
  0
VERTEX
  8
0
 10
16.66932697
 20
3.09569913
  0
SEQEND
  0
POLYLINE
  8
Construction
 62
256
 66
   1
 39
0.000000
 70
    0
  0
VERTEX
  8
0
 10
16.58747716
 20
3.84266251
 42
-0.14528741
  0
VERTEX
  8
0
 10
16.66620556
 20
3.76208591
 42
-0.21165899
  0
VERTEX
  8
0
 10
16.67390105
 20
3.60762965
 42
-0.15633853
  0
VERTEX
  8
0
 10
16.60954344
 20
3.52811147
 42
-0.01810263
  0
VERTEX
  8
0
 10
16.59824532
 20
3.52135198
  0
SEQEND
  0
POLYLINE
  8
Construction
 62
256
 66
   1
 39
0.000000
 70
    0
  0
VERTEX
  8
0
 10
16.48114929
 20
3.59024204
 42
-0.02883532
  0
VERTEX
  8
0
 10
16.51682151
 20
3.58134978
 42
-0.12644136
  0
VERTEX
  8
0
 10
16.59278993
 20
3.52578869
 42
-0.22933827
  0
VERTEX
  8
0
 10
16.62547359
 20
3.37882569
 42
-0.14922656
  0
VERTEX
  8
0
 10
16.57546936
 20
3.28847340
 42
-0.19856746
  0
VERTEX
  8
0
 10
16.46565199
 20
3.24732365
 42
-0.17266219
  0
VERTEX
  8
0
 10
16.36290610
 20
3.28842350
 42
-0.10763330
  0
VERTEX
  8
0
 10
16.31417696
 20
3.35237381
  0
SEQEND
  0
POLYLINE
  8
Construction
 62
256
 66
   1
 39
0.000000
 70
    0
  0
VERTEX
  8
0
 10
16.54476860
 20
4.57242555
 42
-0.05014653
  0
VERTEX
  8
0
 10
16.56484626
 20
4.53671524
 42
-0.12229714
  0
VERTEX
  8
0
 10
16.58355558
 20
4.42975307
 42
-0.11477004
  0
VERTEX
  8
0
 10
16.56072492
 20
4.36067267
 42
-0.24231976
  0
VERTEX
  8
0
 10
16.46257129
 20
4.30451633
  0
SEQEND
  0
POLYLINE
  8
Construction
 62
256
 66
   1
 39
0.000000
 70
    0
  0
VERTEX
  8
0
 10
16.25428596
 20
4.55641704
 42
-0.06827768
  0
VERTEX
  8
0
 10
16.27376118
 20
4.61288494
 42
-0.13607686
  0
VERTEX
  8
0
 10
16.32289305
 20
4.66378000
  0
SEQEND
  0
POLYLINE
  8
Construction
 62
256
 66
   1
 39
0.000000
 70
    0
  0
VERTEX
  8
0
 10
16.27484040
 20
4.67703742
 42
-0.11177002
  0
VERTEX
  8
0
 10
16.25315816
 20
4.61024668
 42
-0.07350438
  0
VERTEX
  8
0
 10
16.22669987
 20
4.57929743
  0
SEQEND
  0
POLYLINE
  8
Construction
 62
256
 66
   1
 39
0.000000
 70
    0
  0
VERTEX
  8
0
 10
16.56815251
 20
2.70522660
 42
-0.18988306
  0
VERTEX
  8
0
 10
16.58809719
 20
2.56602685
 42
-0.17001933
  0
VERTEX
  8
0
 10
16.51557550
 20
2.45056505
 42
-0.15260272
  0
VERTEX
  8
0
 10
16.42118816
 20
2.41422413
 42
-0.22573896
  0
VERTEX
  8
0
 10
16.30336055
 20
2.46379491
 42
-0.14742663
  0
VERTEX
  8
0
 10
16.26028889
 20
2.55440895
 42
-0.18235468
  0
VERTEX
  8
0
 10
16.28813810
 20
2.69399068
  0
SEQEND
  0
POLYLINE
  8
Construction
 62
256
 66
   1
 39
0.000000
 70
    1
  0
VERTEX
  8
0
 10
15.20803797
 20
2.40857628
 42
0.05256478
  0
VERTEX
  8
0
 10
15.19625602
 20
2.41773913
 42
0.25791310
  0
VERTEX
  8
0
 10
15.18815484
 20
2.41720070
 42
-0.04188435
  0
VERTEX
  8
0
 10
15.17891683
 20
2.41243363
 42
-0.30980055
  0
VERTEX
  8
0
 10
15.17384568
 20
2.41469624
 42
0.00539367
  0
VERTEX
  8
0
 10
15.13619093
 20
2.46633109
 42
-0.01142269
  0
VERTEX
  8
0
 10
15.12994010
 20
2.47575230
 42
0.31705415
  0
VERTEX
  8
0
 10
15.12302862
 20
2.48231883
 42
0.05945451
  0
VERTEX
  8
0
 10
15.08824374
 20
2.48774399
 42
0.00266282
  0
VERTEX
  8
0
 10
15.03087491
 20
2.49161090
 42
-0.01008617
  0
VERTEX
  8
0
 10
15.00133539
 20
2.49488477
 42
-0.20074714
  0
VERTEX
  8
0
 10
14.99277805
 20
2.50091653
 42
-0.03741053
  0
VERTEX
  8
0
 10
14.96240272
 20
2.54503546
 42
-0.04330235
  0
VERTEX
  8
0
 10
14.89411844
 20
2.68012745
 42
0.01053549
  0
VERTEX
  8
0
 10
14.88059846
 20
2.70947865
 42
0.05665133
  0
VERTEX
  8
0
 10
14.86944184
 20
2.72442984
 42
-0.10733321
  0
VERTEX
  8
0
 10
14.86464391
 20
2.73537578
 42
0.10522661
  0
VERTEX
  8
0
 10
14.82535900
 20
2.77789837
 42
0.08245438
  0
VERTEX
  8
0
 10
14.82258607
 20
2.77875320
 42
0.10816702
  0
VERTEX
  8
0
 10
14.80516974
 20
2.76965707
 42
-0.02212587
  0
VERTEX
  8
0
 10
14.78960511
 20
2.75863554
 42
-0.03248798
  0
VERTEX
  8
0
 10
14.78378124
 20
2.75604949
 42
-0.19145174
  0
VERTEX
  8
0
 10
14.76871132
 20
2.75936361
 42
0.00517839
  0
VERTEX
  8
0
 10
14.75189036
 20
2.76928625
 42
0.03830869
  0
VERTEX
  8
0
 10
14.74384871
 20
2.77225215
 42
0.27422183
  0
VERTEX
  8
0
 10
14.73322791
 20
2.76713797
 42
-0.01904788
  0
VERTEX
  8
0
 10
14.72014188
 20
2.75227734
 42
-0.24166148
  0
VERTEX
  8
0
 10
14.70912618
 20
2.74812916
 42
-0.07342697
  0
VERTEX
  8
0
 10
14.69697376
 20
2.75276021
 42
-0.06289522
  0
VERTEX
  8
0
 10
14.67741569
 20
2.76633262
 42
-0.10304248
  0
VERTEX
  8
0
 10
14.60713659
 20
2.85259479
 42
-0.02811919
  0
VERTEX
  8
0
 10
14.51547156
 20
3.04127268
 42
-0.00318794
  0
VERTEX
  8
0
 10
14.45734236
 20
3.17840054
 42
0.01113946
  0
VERTEX
  8
0
 10
14.44953483
 20
3.19381127
 42
0.19278612
  0
VERTEX
  8
0
 10
14.44618163
 20
3.19705756
 42
0.17335694
  0
VERTEX
  8
0
 10
14.44468723
 20
3.19685016
 42
0.04538744
  0
VERTEX
  8
0
 10
14.40621740
 20
3.17062892
 42
0.00533339
  0
VERTEX
  8
0
 10
14.38528944
 20
3.15392504
 42
-0.12571745
  0
VERTEX
  8
0
 10
14.37892580
 20
3.15107899
 42
-0.24585922
  0
VERTEX
  8
0
 10
14.37292388
 20
3.15454003
 42
-0.09081312
  0
VERTEX
  8
0
 10
14.36173565
 20
3.18156801
 42
-0.06700213
  0
VERTEX
  8
0
 10
14.34741794
 20
3.28868949
  0
VERTEX
  8
0
 10
14.34710853
 20
3.30547226
 42
-0.00685012
  0
VERTEX
  8
0
 10
14.32606677
 20
3.31929820
 42
-0.26911953
  0
VERTEX
  8
0
 10
14.32101362
 20
3.33434006
 42
-0.02489320
  0
VERTEX
  8
0
 10
14.32977640
 20
3.39455507
 42
-0.00538130
  0
VERTEX
  8
0
 10
14.35223322
 20
3.51587501
 42
-0.17081564
  0
VERTEX
  8
0
 10
14.38489757
 20
3.55976420
 42
-0.02189905
  0
VERTEX
  8
0
 10
14.43072995
 20
3.59054205
 42
0.05693860
  0
VERTEX
  8
0
 10
14.52048393
 20
3.66339338
 42
0.07972208
  0
VERTEX
  8
0
 10
14.57618867
 20
3.74364787
 42
0.06384477
  0
VERTEX
  8
0
 10
14.59027989
 20
3.78718203
 42
0.12329760
  0
VERTEX
  8
0
 10
14.58581976
 20
3.83408719
 42
0.23548362
  0
VERTEX
  8
0
 10
14.55853682
 20
3.85512118
 42
0.16927834
  0
VERTEX
  8
0
 10
14.51010911
 20
3.85097500
 42
0.03668163
  0
VERTEX
  8
0
 10
14.47534890
 20
3.83457660
 42
-0.09054964
  0
VERTEX
  8
0
 10
14.45530835
 20
3.82894722
 42
0.13707292
  0
VERTEX
  8
0
 10
14.43134412
 20
3.81803815
 42
0.08701019
  0
VERTEX
  8
0
 10
14.38761772
 20
3.77152278
 42
0.02095618
  0
VERTEX
  8
0
 10
14.37242654
 20
3.74793637
 42
0.06252361
  0
VERTEX
  8
0
 10
14.36404541
 20
3.70699677
 42
-0.02362052
  0
VERTEX
  8
0
 10
14.35892975
 20
3.67712321
 42
-0.06529913
  0
VERTEX
  8
0
 10
14.35104107
 20
3.65955660
  0
VERTEX
  8
0
 10
14.34717115
 20
3.62536319
  0
VERTEX
  8
0
 10
14.31179531
 20
3.62671802
 42
0.03072786
  0
VERTEX
  8
0
 10
14.27999728
 20
3.61718424
 42
0.25158235
  0
VERTEX
  8
0
 10
14.26134788
 20
3.58998461
 42
0.05395464
  0
VERTEX
  8
0
 10
14.25804982
 20
3.55086646
 42
-0.01876062
  0
VERTEX
  8
0
 10
14.25740193
 20
3.52665716
 42
-0.07540141
  0
VERTEX
  8
0
 10
14.25210137
 20
3.50871237
 42
-0.16234447
  0
VERTEX
  8
0
 10
14.23462044
 20
3.49961081
  0
VERTEX
  8
0
 10
14.21524068
 20
3.49481743
 42
0.06066163
  0
VERTEX
  8
0
 10
14.19324154
 20
3.48216958
 42
-0.02957082
  0
VERTEX
  8
0
 10
14.14063504
 20
3.45012722
 42
0.03374240
  0
VERTEX
  8
0
 10
14.13150269
 20
3.44546213
 42
-0.01612043
  0
VERTEX
  8
0
 10
14.11260191
 20
3.43352903
  0
VERTEX
  8
0
 10
14.10916712
 20
3.43180569
 42
-0.02372200
  0
VERTEX
  8
0
 10
14.08629678
 20
3.44494009
 42
0.02135007
  0
VERTEX
  8
0
 10
14.07361581
 20
3.45352180
 42
0.14896030
  0
VERTEX
  8
0
 10
14.05625373
 20
3.45351116
 42
0.03559078
  0
VERTEX
  8
0
 10
14.01118677
 20
3.44086670
 42
-0.00409792
  0
VERTEX
  8
0
 10
13.94713958
 20
3.42030156
 42
-0.13955396
  0
VERTEX
  8
0
 10
13.86145557
 20
3.42236690
 42
0.16173200
  0
VERTEX
  8
0
 10
13.84331191
 20
3.41940183
 42
-0.09022344
  0
VERTEX
  8
0
 10
13.77667857
 20
3.40403345
 42
-0.01530186
  0
VERTEX
  8
0
 10
13.76168630
 20
3.40355867
 42
-0.19691556
  0
VERTEX
  8
0
 10
13.73915501
 20
3.41599953
 42
-0.08987385
  0
VERTEX
  8
0
 10
13.72156148
 20
3.44391670
 42
-0.13311340
  0
VERTEX
  8
0
 10
13.71002402
 20
3.51702534
 42
-0.22343685
  0
VERTEX
  8
0
 10
13.72230397
 20
3.54402553
 42
-0.06071694
  0
VERTEX
  8
0
 10
13.73442919
 20
3.55159053
 42
0.07698288
  0
VERTEX
  8
0
 10
13.74228497
 20
3.55859194
 42
0.18038049
  0
VERTEX
  8
0
 10
13.74244557
 20
3.57494157
  0
VERTEX
  8
0
 10
13.73803721
 20
3.58994519
 42
-0.00505443
  0
VERTEX
  8
0
 10
13.73549549
 20
3.62813398
  0
VERTEX
  8
0
 10
13.75130307
 20
3.64847205
 42
-0.06071897
  0
VERTEX
  8
0
 10
13.77058905
 20
3.66377050
 42
0.18662793
  0
VERTEX
  8
0
 10
13.79780565
 20
3.70179700
 42
0.12010410
  0
VERTEX
  8
0
 10
13.79733200
 20
3.73274358
  0
VERTEX
  8
0
 10
13.79520369
 20
3.74771424
 42
0.33857417
  0
VERTEX
  8
0
 10
13.78639303
 20
3.75478779
 42
0.05837772
  0
VERTEX
  8
0
 10
13.76832163
 20
3.75494941
  0
VERTEX
  8
0
 10
13.74768979
 20
3.75384905
 42
-0.19979166
  0
VERTEX
  8
0
 10
13.72250880
 20
3.76762194
 42
-0.04974870
  0
VERTEX
  8
0
 10
13.71082055
 20
3.78249201
 42
-0.15505888
  0
VERTEX
  8
0
 10
13.70817245
 20
3.81158106
 42
-0.09093155
  0
VERTEX
  8
0
 10
13.72497937
 20
3.86178733
 42
0.09899930
  0
VERTEX
  8
0
 10
13.73794453
 20
3.90720530
  0
VERTEX
  8
0
 10
13.73816893
 20
3.91364781
 42
0.13453592
  0
VERTEX
  8
0
 10
13.73029133
 20
3.92886937
 42
-0.03665964
  0
VERTEX
  8
0
 10
13.71297927
 20
3.95392908
 42
-0.11395491
  0
VERTEX
  8
0
 10
13.70949743
 20
3.97165505
 42
-0.03226184
  0
VERTEX
  8
0
 10
13.70965157
 20
3.97860026
 42
-0.19584408
  0
VERTEX
  8
0
 10
13.71625219
 20
3.98572682
 42
0.10227123
  0
VERTEX
  8
0
 10
13.75409970
 20
4.02483065
 42
0.01720899
  0
VERTEX
  8
0
 10
13.75896465
 20
4.03380268
 42
0.15308066
  0
VERTEX
  8
0
 10
13.75904781
 20
4.04572926
 42
0.23190854
  0
VERTEX
  8
0
 10
13.74658428
 20
4.05447223
 42
0.00482495
  0
VERTEX
  8
0
 10
13.72891206
 20
4.05950861
 42
-0.23338567
  0
VERTEX
  8
0
 10
13.71216519
 20
4.07822986
 42
-0.13376018
  0
VERTEX
  8
0
 10
13.71740517
 20
4.09205407
 42
-0.05342460
  0
VERTEX
  8
0
 10
13.74762560
 20
4.13267491
 42
-0.04203343
  0
VERTEX
  8
0
 10
13.77663521
 20
4.16038990
 42
-0.18128461
  0
VERTEX
  8
0
 10
13.83186785
 20
4.17464856
 42
-0.03118718
  0
VERTEX
  8
0
 10
13.87822902
 20
4.16850087
 42
0.06695068
  0
VERTEX
  8
0
 10
13.91392997
 20
4.16744643
 42
0.08709043
  0
VERTEX
  8
0
 10
13.92911834
 20
4.17393894
 42
0.21261120
  0
VERTEX
  8
0
 10
13.93972765
 20
4.20142842
 42
0.04373063
  0
VERTEX
  8
0
 10
13.93881835
 20
4.22055384
 42
-0.12549711
  0
VERTEX
  8
0
 10
13.93981152
 20
4.22512195
 42
-0.17630529
  0
VERTEX
  8
0
 10
13.94814236
 20
4.22894409
 42
-0.00338287
  0
VERTEX
  8
0
 10
13.98402543
 20
4.23361868
 42
0.03752901
  0
VERTEX
  8
0
 10
14.03707558
 20
4.24931547
 42
-0.00312635
  0
VERTEX
  8
0
 10
14.07355807
 20
4.26184431
 42
-0.00639011
  0
VERTEX
  8
0
 10
14.09502030
 20
4.26685907
 42
0.25793840
  0
VERTEX
  8
0
 10
14.09708886
 20
4.27073751
 42
0.16903363
  0
VERTEX
  8
0
 10
14.09056026
 20
4.30562915
 42
0.21936563
  0
VERTEX
  8
0
 10
14.07844840
 20
4.31464719
 42
0.06173453
  0
VERTEX
  8
0
 10
14.02163934
 20
4.32826459
 42
0.02351286
  0
VERTEX
  8
0
 10
13.92887533
 20
4.33116754
 42
-0.00657425
  0
VERTEX
  8
0
 10
13.89045526
 20
4.33181210
 42
-0.04584220
  0
VERTEX
  8
0
 10
13.88188397
 20
4.33383885
 42
-0.27304211
  0
VERTEX
  8
0
 10
13.87800680
 20
4.34376629
 42
-0.02471065
  0
VERTEX
  8
0
 10
13.88013514
 20
4.36665280
 42
0.03980277
  0
VERTEX
  8
0
 10
13.87944101
 20
4.38451204
 42
0.20795934
  0
VERTEX
  8
0
 10
13.87220595
 20
4.39180237
 42
0.04727450
  0
VERTEX
  8
0
 10
13.84349630
 20
4.40432052
 42
-0.04806879
  0
VERTEX
  8
0
 10
13.83419174
 20
4.40968282
 42
-0.38080179
  0
VERTEX
  8
0
 10
13.83310381
 20
4.42346077
 42
-0.12643535
  0
VERTEX
  8
0
 10
13.84286383
 20
4.43229575
 42
-0.03046663
  0
VERTEX
  8
0
 10
13.88777134
 20
4.45692303
 42
0.02191333
  0
VERTEX
  8
0
 10
13.93169711
 20
4.48087625
 42
0.09334572
  0
VERTEX
  8
0
 10
13.98091172
 20
4.52821668
 42
-0.03852031
  0
VERTEX
  8
0
 10
14.00238279
 20
4.55353916
 42
-0.12337862
  0
VERTEX
  8
0
 10
14.03263355
 20
4.57108482
 42
-0.06715158
  0
VERTEX
  8
0
 10
14.05170374
 20
4.57374798
 42
0.13681541
  0
VERTEX
  8
0
 10
14.07081715
 20
4.58443593
 42
0.03870330
  0
VERTEX
  8
0
 10
14.08819469
 20
4.60160838
 42
0.35243752
  0
VERTEX
  8
0
 10
14.08532613
 20
4.62405830
 42
0.06521821
  0
VERTEX
  8
0
 10
14.07618287
 20
4.63276151
 42
-0.41693658
  0
VERTEX
  8
0
 10
14.07559685
 20
4.64754418
 42
-0.10490315
  0
VERTEX
  8
0
 10
14.09912330
 20
4.66753267
 42
-0.11066627
  0
VERTEX
  8
0
 10
14.17490296
 20
4.69336586
 42
-0.02054849
  0
VERTEX
  8
0
 10
14.26828457
 20
4.70312874
 42
-0.15420619
  0
VERTEX
  8
0
 10
14.28220724
 20
4.69847800
 42
0.14713573
  0
VERTEX
  8
0
 10
14.29184133
 20
4.69548703
 42
0.15662420
  0
VERTEX
  8
0
 10
14.35760732
 20
4.70647865
 42
0.03973653
  0
VERTEX
  8
0
 10
14.37245149
 20
4.71634049
 42
0.31384221
  0
VERTEX
  8
0
 10
14.37702480
 20
4.74042046
 42
0.09666734
  0
VERTEX
  8
0
 10
14.35875959
 20
4.77070898
 42
0.03405507
  0
VERTEX
  8
0
 10
14.33680054
 20
4.79403597
 42
-0.03212544
  0
VERTEX
  8
0
 10
14.33105001
 20
4.80171359
 42
-0.37291954
  0
VERTEX
  8
0
 10
14.33951894
 20
4.82229380
 42
-0.10634810
  0
VERTEX
  8
0
 10
14.37795357
 20
4.83552888
 42
-0.02747536
  0
VERTEX
  8
0
 10
14.42996739
 20
4.84139882
 42
-0.01060650
  0
VERTEX
  8
0
 10
14.55517881
 20
4.84993083
 42
-0.01951125
  0
VERTEX
  8
0
 10
14.70724053
 20
4.84771667
 42
-0.01328601
  0
VERTEX
  8
0
 10
14.78259291
 20
4.84264408
 42
-0.04393092
  0
VERTEX
  8
0
 10
14.84567965
 20
4.82836743
 42
-0.05982430
  0
VERTEX
  8
0
 10
14.89038328
 20
4.80939490
 42
-0.04187987
  0
VERTEX
  8
0
 10
14.91154172
 20
4.79422382
 42
-0.19179846
  0
VERTEX
  8
0
 10
14.92347546
 20
4.76512207
 42
-0.03740283
  0
VERTEX
  8
0
 10
14.92589855
 20
4.61917257
 42
0.00474181
  0
VERTEX
  8
0
 10
14.92299092
 20
4.54703535
 42
0.04751801
  0
VERTEX
  8
0
 10
14.93102276
 20
4.47527022
 42
0.01050071
  0
VERTEX
  8
0
 10
14.94040323
 20
4.43116857
 42
0.10925416
  0
VERTEX
  8
0
 10
14.95697850
 20
4.40927381
 42
0.13945872
  0
VERTEX
  8
0
 10
15.02995890
 20
4.36956689
 42
0.21395193
  0
VERTEX
  8
0
 10
15.05544351
 20
4.37557142
 42
0.06918320
  0
VERTEX
  8
0
 10
15.08845642
 20
4.40503869
 42
0.10096556
  0
VERTEX
  8
0
 10
15.09137590
 20
4.41205695
 42
-0.05985637
  0
VERTEX
  8
0
 10
15.09752624
 20
4.42353234
 42
0.05855943
  0
VERTEX
  8
0
 10
15.11086464
 20
4.46043029
 42
0.01924670
  0
VERTEX
  8
0
 10
15.12964860
 20
4.54161005
 42
0.01553501
  0
VERTEX
  8
0
 10
15.13799385
 20
4.58483544
 42
-0.00871825
  0
VERTEX
  8
0
 10
15.14584897
 20
4.63975297
 42
-0.01755877
  0
VERTEX
  8
0
 10
15.15278774
 20
4.67114583
 42
-0.05419711
  0
VERTEX
  8
0
 10
15.20338392
 20
4.76904256
 42
-0.05729465
  0
VERTEX
  8
0
 10
15.21052469
 20
4.77572417
 42
-0.17127038
  0
VERTEX
  8
0
 10
15.23276738
 20
4.77665624
 42
-0.08039809
  0
VERTEX
  8
0
 10
15.29503184
 20
4.75237228
 42
0.02517193
  0
VERTEX
  8
0
 10
15.30758000
 20
4.74476645
  0
VERTEX
  8
0
 10
15.31160049
 20
4.74266369
 42
0.18760971
  0
VERTEX
  8
0
 10
15.31945054
 20
4.74483216
 42
0.12167097
  0
VERTEX
  8
0
 10
15.34638091
 20
4.76971701
 42
0.01861185
  0
VERTEX
  8
0
 10
15.35925690
 20
4.78989330
 42
-0.08548626
  0
VERTEX
  8
0
 10
15.37348876
 20
4.80494981
 42
-0.19659220
  0
VERTEX
  8
0
 10
15.40119637
 20
4.80908750
 42
-0.07947669
  0
VERTEX
  8
0
 10
15.49190360
 20
4.77790726
 42
0.00339077
  0
VERTEX
  8
0
 10
15.57299769
 20
4.73719363
 42
0.05307720
  0
VERTEX
  8
0
 10
15.65401327
 20
4.70873384
 42
0.05204939
  0
VERTEX
  8
0
 10
15.71188074
 20
4.70268215
 42
0.12863076
  0
VERTEX
  8
0
 10
15.74512576
 20
4.71629946
 42
-0.06550016
  0
VERTEX
  8
0
 10
15.75324363
 20
4.72113555
 42
-0.23004818
  0
VERTEX
  8
0
 10
15.76948264
 20
4.71836447
 42
-0.01524895
  0
VERTEX
  8
0
 10
15.78772955
 20
4.70725098
 42
0.15579157
  0
VERTEX
  8
0
 10
15.80249392
 20
4.70435543
 42
0.03354793
  0
VERTEX
  8
0
 10
15.89947502
 20
4.71600470
 42
0.01861747
  0
VERTEX
  8
0
 10
15.91664609
 20
4.72212109
 42
-0.37301040
  0
VERTEX
  8
0
 10
15.93315756
 20
4.71647729
 42
-0.24806208
  0
VERTEX
  8
0
 10
15.93682416
 20
4.68953560
 42
-0.16634742
  0
VERTEX
  8
0
 10
15.90984481
 20
4.64933436
 42
-0.08429977
  0
VERTEX
  8
0
 10
15.88231714
 20
4.63628698
 42
0.05051790
  0
VERTEX
  8
0
 10
15.83349286
 20
4.61484893
 42
0.10211885
  0
VERTEX
  8
0
 10
15.79476329
 20
4.57987796
 42
0.10023460
  0
VERTEX
  8
0
 10
15.78085950
 20
4.54615387
 42
0.29173921
  0
VERTEX
  8
0
 10
15.79322867
 20
4.52262526
 42
0.10878999
  0
VERTEX
  8
0
 10
15.82638585
 20
4.50938880
 42
0.05388421
  0
VERTEX
  8
0
 10
15.88141827
 20
4.50375700
 42
-0.02703838
  0
VERTEX
  8
0
 10
15.93909383
 20
4.49991138
 42
-0.04471291
  0
VERTEX
  8
0
 10
15.97370006
 20
4.49156166
 42
-0.09220404
  0
VERTEX
  8
0
 10
15.99396577
 20
4.47804736
 42
-0.18893920
  0
VERTEX
  8
0
 10
16.00404839
 20
4.44597333
 42
0.28776400
  0
VERTEX
  8
0
 10
16.01973087
 20
4.42194722
 42
0.04377558
  0
VERTEX
  8
0
 10
16.05288188
 20
4.40633807
 42
-0.07447450
  0
VERTEX
  8
0
 10
16.07563867
 20
4.39154587
 42
-0.04161832
  0
VERTEX
  8
0
 10
16.10837868
 20
4.36090847
 42
-0.10904819
  0
VERTEX
  8
0
 10
16.13720313
 20
4.30160065
 42
-0.01889679
  0
VERTEX
  8
0
 10
16.14321120
 20
4.27537226
 42
0.00405338
  0
VERTEX
  8
0
 10
16.15834373
 20
4.23486088
 42
-0.01416906
  0
VERTEX
  8
0
 10
16.16566618
 20
4.21218892
 42
-0.09201667
  0
VERTEX
  8
0
 10
16.16527023
 20
4.15838307
 42
-0.06345816
  0
VERTEX
  8
0
 10
16.15681092
 20
4.13611031
 42
0.12736378
  0
VERTEX
  8
0
 10
16.15147133
 20
4.10426893
 42
0.10234421
  0
VERTEX
  8
0
 10
16.16636150
 20
4.07303182
 42
-0.08049264
  0
VERTEX
  8
0
 10
16.18270981
 20
4.04061072
 42
-0.09545797
  0
VERTEX
  8
0
 10
16.18443502
 20
4.01426370
 42
-0.11637880
  0
VERTEX
  8
0
 10
16.17700578
 20
4.00199292
 42
0.30260087
  0
VERTEX
  8
0
 10
16.17260558
 20
3.94340988
 42
0.08048917
  0
VERTEX
  8
0
 10
16.18746744
 20
3.92422745
 42
-0.09996023
  0
VERTEX
  8
0
 10
16.20948411
 20
3.89148937
 42
-0.04755619
  0
VERTEX
  8
0
 10
16.21421543
 20
3.87384547
 42
-0.13632863
  0
VERTEX
  8
0
 10
16.20794401
 20
3.84830157
  0
VERTEX
  8
0
 10
16.20409642
 20
3.84008026
 42
0.14912117
  0
VERTEX
  8
0
 10
16.20564181
 20
3.82117125
 42
-0.02254679
  0
VERTEX
  8
0
 10
16.21266549
 20
3.79718779
 42
-0.01435290
  0
VERTEX
  8
0
 10
16.22534693
 20
3.75878437
 42
-0.05607123
  0
VERTEX
  8
0
 10
16.23021740
 20
3.70050358
 42
-0.04698378
  0
VERTEX
  8
0
 10
16.22628122
 20
3.67074925
 42
-0.12941600
  0
VERTEX
  8
0
 10
16.19972366
 20
3.62341822
 42
0.07056271
  0
VERTEX
  8
0
 10
16.19324746
 20
3.61244242
 42
0.06039158
  0
VERTEX
  8
0
 10
16.19191979
 20
3.57600953
 42
-0.05574127
  0
VERTEX
  8
0
 10
16.20365341
 20
3.53005134
 42
-0.08184075
  0
VERTEX
  8
0
 10
16.20126029
 20
3.47042798
 42
-0.35154520
  0
VERTEX
  8
0
 10
16.17739925
 20
3.45590203
 42
-0.13500532
  0
VERTEX
  8
0
 10
16.16105542
 20
3.46155039
 42
-0.02785333
  0
VERTEX
  8
0
 10
16.12089835
 20
3.48838013
 42
-0.00649410
  0
VERTEX
  8
0
 10
16.10841836
 20
3.50187698
 42
0.12976958
  0
VERTEX
  8
0
 10
16.10188739
 20
3.50507422
 42
0.15120979
  0
VERTEX
  8
0
 10
16.08031828
 20
3.49753522
 42
-0.23373358
  0
VERTEX
  8
0
 10
16.06184704
 20
3.49523165
 42
-0.11703169
  0
VERTEX
  8
0
 10
16.03828404
 20
3.50876034
 42
-0.05403078
  0
VERTEX
  8
0
 10
16.00971286
 20
3.53837635
 42
-0.00282469
  0
VERTEX
  8
0
 10
15.92662132
 20
3.63931929
  0
VERTEX
  8
0
 10
15.89488125
 20
3.67765862
 42
0.01144500
  0
VERTEX
  8
0
 10
15.88628051
 20
3.68707133
 42
0.14625817
  0
VERTEX
  8
0
 10
15.85986135
 20
3.69577090
 42
0.05647143
  0
VERTEX
  8
0
 10
15.83551649
 20
3.69458421
 42
-0.07770774
  0
VERTEX
  8
0
 10
15.80010863
 20
3.69558453
 42
-0.12064010
  0
VERTEX
  8
0
 10
15.76472705
 20
3.71325924
 42
-0.12864716
  0
VERTEX
  8
0
 10
15.67781452
 20
3.82300400
 42
0.02407277
  0
VERTEX
  8
0
 10
15.65944466
 20
3.85788821
 42
-0.06057875
  0
VERTEX
  8
0
 10
15.64193637
 20
3.90546422
 42
0.06124001
  0
VERTEX
  8
0
 10
15.63428185
 20
3.92100030
 42
0.05804258
  0
VERTEX
  8
0
 10
15.60748457
 20
3.95446229
 42
0.33677164
  0
VERTEX
  8
0
 10
15.57328342
 20
3.95151898
 42
0.17726689
  0
VERTEX
  8
0
 10
15.55418564
 20
3.92123701
 42
0.05243918
  0
VERTEX
  8
0
 10
15.55071723
 20
3.89573462
 42
0.03264807
  0
VERTEX
  8
0
 10
15.55088355
 20
3.87642814
 42
0.02585215
  0
VERTEX
  8
0
 10
15.56526526
 20
3.82641120
 42
0.00742424
  0
VERTEX
  8
0
 10
15.57680833
 20
3.79243858
 42
0.09959327
  0
VERTEX
  8
0
 10
15.62019072
 20
3.73267282
 42
-0.01317320
  0
VERTEX
  8
0
 10
15.71446020
 20
3.63466203
 42
-0.05435017
  0
VERTEX
  8
0
 10
15.74402164
 20
3.59292113
 42
-0.05830088
  0
VERTEX
  8
0
 10
15.75445322
 20
3.56554221
 42
-0.13903143
  0
VERTEX
  8
0
 10
15.74993248
 20
3.54926051
 42
-0.07508721
  0
VERTEX
  8
0
 10
15.73720913
 20
3.53126422
 42
0.33380511
  0
VERTEX
  8
0
 10
15.73575373
 20
3.51985777
 42
0.01061291
  0
VERTEX
  8
0
 10
15.74339992
 20
3.50157899
 42
-0.07585712
  0
VERTEX
  8
0
 10
15.75351823
 20
3.44636383
 42
-0.09134872
  0
VERTEX
  8
0
 10
15.74780499
 20
3.41117348
 42
-0.02592110
  0
VERTEX
  8
0
 10
15.74468923
 20
3.40428105
 42
-0.18357451
  0
VERTEX
  8
0
 10
15.73023132
 20
3.39762028
 42
0.01797083
  0
VERTEX
  8
0
 10
15.70864444
 20
3.39392448
 42
0.31294838
  0
VERTEX
  8
0
 10
15.68670446
 20
3.36780942
 42
0.11468592
  0
VERTEX
  8
0
 10
15.69160053
 20
3.35185703
 42
-0.03736182
  0
VERTEX
  8
0
 10
15.71120274
 20
3.30122393
 42
-0.08044470
  0
VERTEX
  8
0
 10
15.71596867
 20
3.23882050
 42
-0.05318002
  0
VERTEX
  8
0
 10
15.70556356
 20
3.17415124
 42
-0.06735425
  0
VERTEX
  8
0
 10
15.66058226
 20
3.08895829
 42
-0.03291502
  0
VERTEX
  8
0
 10
15.60596409
 20
3.01772581
 42
-0.05914859
  0
VERTEX
  8
0
 10
15.57634489
 20
2.99268325
 42
-0.12080788
  0
VERTEX
  8
0
 10
15.55299071
 20
2.98572845
 42
0.15746325
  0
VERTEX
  8
0
 10
15.54008253
 20
2.97838571
 42
0.04541271
  0
VERTEX
  8
0
 10
15.52361893
 20
2.95987219
 42
-0.02884389
  0
VERTEX
  8
0
 10
15.50027517
 20
2.93332616
 42
-0.00584842
  0
VERTEX
  8
0
 10
15.46227085
 20
2.89588873
 42
0.05738661
  0
VERTEX
  8
0
 10
15.38220488
 20
2.79480865
 42
0.03176210
  0
VERTEX
  8
0
 10
15.35266035
 20
2.73332781
 42
-0.00198387
  0
VERTEX
  8
0
 10
15.27879277
 20
2.56559537
 42
0.01649904
  0
VERTEX
  8
0
 10
15.25042706
 20
2.49508061
 42
0.03366914
  0
VERTEX
  8
0
 10
15.23938635
 20
2.45529997
 42
0.00794432
  0
VERTEX
  8
0
 10
15.23329540
 20
2.41387098
 42
-0.02151806
  0
VERTEX
  8
0
 10
15.23045234
 20
2.40077352
 42
-0.13273138
  0
VERTEX
  8
0
 10
15.22710169
 20
2.39652168
 42
-0.26742429
  0
VERTEX
  8
0
 10
15.22181918
 20
2.39754065
 42
-0.04513909
  0
VERTEX
  8
0
 10
15.20803797
 20
2.40857628
  0
SEQEND
  0
POLYLINE
  8
Construction
 62
256
 66
   1
 39
0.000000
 70
    0
  0
VERTEX
  8
0
 10
14.20939070
 20
3.29735138
 42
0.17530701
  0
VERTEX
  8
0
 10
14.27885257
 20
3.30371969
 42
0.05609000
  0
VERTEX
  8
0
 10
14.31607057
 20
3.32483681
  0
SEQEND
  0
POLYLINE
  8
Construction
 62
256
 66
   1
 39
0.000000
 70
    0
  0
VERTEX
  8
0
 10
14.38493318
 20
3.55982783
 42
0.10226864
  0
VERTEX
  8
0
 10
14.34201996
 20
3.62556043
  0
SEQEND
  0
POLYLINE
  8
Construction
 62
256
 66
   1
 39
0.000000
 70
    0
  0
VERTEX
  8
0
 10
13.56453498
 20
3.67316782
 42
-0.19358566
  0
VERTEX
  8
0
 10
13.44339117
 20
3.68544432
 42
-0.16261863
  0
VERTEX
  8
0
 10
13.37741753
 20
3.75389551
 42
-0.15825234
  0
VERTEX
  8
0
 10
13.36641749
 20
3.87143930
 42
-0.07254196
  0
VERTEX
  8
0
 10
13.39826736
 20
3.93718231
 42
-0.03255759
  0
VERTEX
  8
0
 10
13.41848122
 20
3.96317059
 42
-0.09571645
  0
VERTEX
  8
0
 10
13.46876074
 20
4.00759554
  0
SEQEND
  0
POLYLINE
  8
Construction
 62
256
 66
   1
 39
0.000000
 70
    0
  0
VERTEX
  8
0
 10
13.31510130
 20
3.99189278
  0
VERTEX
  8
0
 10
13.39826736
 20
3.93718231
  0
SEQEND
  0
POLYLINE
  8
Construction
 62
256
 66
   1
 39
0.000000
 70
    0
  0
VERTEX
  8
0
 10
13.31721969
 20
4.32691923
  0
VERTEX
  8
0
 10
13.43733040
 20
4.28410313
  0
SEQEND
  0
POLYLINE
  8
Construction
 62
256
 66
   1
 39
0.000000
 70
    0
  0
VERTEX
  8
0
 10
13.21911900
 20
3.38833901
  0
VERTEX
  8
0
 10
13.22324035
 20
3.38801025
  0
VERTEX
  8
0
 10
13.28887563
 20
3.38277446
  0
SEQEND
  0
POLYLINE
  8
Construction
 62
256
 66
   1
 39
0.000000
 70
    0
  0
VERTEX
  8
0
 10
16.54476860
 20
4.57242555
  0
VERTEX
  8
0
 10
16.55868474
 20
4.57722037
  0
VERTEX
  8
0
 10
16.57143085
 20
4.58381916
  0
VERTEX
  8
0
 10
16.58300691
 20
4.59222193
  0
VERTEX
  8
0
 10
16.59341292
 20
4.60242866
  0
VERTEX
  8
0
 10
16.60264889
 20
4.61443936
  0
VERTEX
  8
0
 10
16.61071482
 20
4.62825404
  0
VERTEX
  8
0
 10
16.61761070
 20
4.64387269
  0
VERTEX
  8
0
 10
16.62333654
 20
4.66129531
  0
SEQEND
  0
POLYLINE
  8
Construction
 62
256
 66
   1
 39
0.000000
 70
    0
  0
VERTEX
  8
0
 10
15.55633133
 20
4.72922486
 42
-0.10485061
  0
VERTEX
  8
0
 10
15.79913071
 20
4.84647820
 42
-0.06990032
  0
VERTEX
  8
0
 10
16.01605668
 20
4.86941245
 42
-0.06418894
  0
VERTEX
  8
0
 10
16.26088435
 20
4.83065472
 42
-0.05676107
  0
VERTEX
  8
0
 10
16.51918251
 20
4.72367868
 42
-0.01992384
  0
VERTEX
  8
0
 10
16.62333654
 20
4.66129531
  0
SEQEND
  0
POLYLINE
  8
Construction
 62
256
 66
   1
 39
0.000000
 70
    0
  0
VERTEX
  8
0
 10
15.87450005
 20
4.68490610
 42
-0.02209679
  0
VERTEX
  8
0
 10
15.93853712
 20
4.69765495
 42
-0.05340274
  0
VERTEX
  8
0
 10
16.09580111
 20
4.70483519
 42
-0.05463916
  0
VERTEX
  8
0
 10
16.29623161
 20
4.67134485
 42
-0.00584088
  0
VERTEX
  8
0
 10
16.32285020
 20
4.66375474
 42
-0.05081416
  0
VERTEX
  8
0
 10
16.54491611
 20
4.57221528
  0
SEQEND
  0
POLYLINE
  8
Construction
 62
256
 66
   1
 39
0.000000
 70
    0
  0
VERTEX
  8
0
 10
16.73231189
 20
2.79525218
  0
VERTEX
  8
0
 10
16.72067309
 20
2.70728634
  0
VERTEX
  8
0
 10
16.73162886
 20
2.70383479
  0
VERTEX
  8
0
 10
16.74203153
 20
2.70021301
  0
VERTEX
  8
0
 10
16.75189558
 20
2.69643088
  0
VERTEX
  8
0
 10
16.76123548
 20
2.69249829
  0
VERTEX
  8
0
 10
16.77006569
 20
2.68842510
  0
VERTEX
  8
0
 10
16.77429419
 20
2.68633887
  0
VERTEX
  8
0
 10
16.77840070
 20
2.68422120
  0
VERTEX
  8
0
 10
16.78238702
 20
2.68207332
  0
VERTEX
  8
0
 10
16.78625496
 20
2.67989647
  0
VERTEX
  8
0
 10
16.79000633
 20
2.67769188
  0
VERTEX
  8
0
 10
16.79364295
 20
2.67546078
  0
VERTEX
  8
0
 10
16.79716661
 20
2.67320442
  0
VERTEX
  8
0
 10
16.80057913
 20
2.67092402
  0
VERTEX
  8
0
 10
16.80388232
 20
2.66862083
  0
VERTEX
  8
0
 10
16.80707798
 20
2.66629607
  0
VERTEX
  8
0
 10
16.81016793
 20
2.66395098
  0
VERTEX
  8
0
 10
16.81315397
 20
2.66158680
  0
VERTEX
  8
0
 10
16.81603792
 20
2.65920476
  0
VERTEX
  8
0
 10
16.81882157
 20
2.65680610
  0
VERTEX
  8
0
 10
16.82150674
 20
2.65439204
  0
VERTEX
  8
0
 10
16.82409524
 20
2.65196383
  0
VERTEX
  8
0
 10
16.82658888
 20
2.64952270
  0
VERTEX
  8
0
 10
16.82898947
 20
2.64706989
  0
VERTEX
  8
0
 10
16.83129881
 20
2.64460663
  0
VERTEX
  8
0
 10
16.83351871
 20
2.64213415
  0
VERTEX
  8
0
 10
16.83565098
 20
2.63965370
  0
VERTEX
  8
0
 10
16.83769743
 20
2.63716649
  0
VERTEX
  8
0
 10
16.83965988
 20
2.63467378
  0
VERTEX
  8
0
 10
16.84154012
 20
2.63217679
  0
VERTEX
  8
0
 10
16.84333997
 20
2.62967677
  0
VERTEX
  8
0
 10
16.84506123
 20
2.62717493
  0
VERTEX
  8
0
 10
16.84670572
 20
2.62467253
  0
VERTEX
  8
0
 10
16.84827524
 20
2.62217079
  0
VERTEX
  8
0
 10
16.84977161
 20
2.61967095
  0
VERTEX
  8
0
 10
16.85119662
 20
2.61717424
  0
VERTEX
  8
0
 10
16.85255209
 20
2.61468190
  0
VERTEX
  8
0
 10
16.85383983
 20
2.61219517
  0
VERTEX
  8
0
 10
16.85506165
 20
2.60971528
  0
VERTEX
  8
0
 10
16.85621936
 20
2.60724346
  0
VERTEX
  8
0
 10
16.85731476
 20
2.60478094
  0
VERTEX
  8
0
 10
16.85834966
 20
2.60232897
  0
VERTEX
  8
0
 10
16.85932587
 20
2.59988878
  0
VERTEX
  8
0
 10
16.86024521
 20
2.59746161
  0
VERTEX
  8
0
 10
16.86110947
 20
2.59504868
  0
VERTEX
  8
0
 10
16.86192047
 20
2.59265123
  0
VERTEX
  8
0
 10
16.86338993
 20
2.58790773
  0
VERTEX
  8
0
 10
16.86466804
 20
2.58324098
  0
VERTEX
  8
0
 10
16.86576928
 20
2.57866086
  0
VERTEX
  8
0
 10
16.86670811
 20
2.57417725
  0
VERTEX
  8
0
 10
16.86749902
 20
2.56980002
  0
VERTEX
  8
0
 10
16.86815646
 20
2.56553907
  0
VERTEX
  8
0
 10
16.86869491
 20
2.56140426
  0
VERTEX
  8
0
 10
16.86912716
 20
2.55740341
  0
VERTEX
  8
0
 10
16.86945924
 20
2.55353600
  0
VERTEX
  8
0
 10
16.86969552
 20
2.54979948
  0
VERTEX
  8
0
 10
16.86984036
 20
2.54619127
  0
VERTEX
  8
0
 10
16.86989813
 20
2.54270879
  0
VERTEX
  8
0
 10
16.86987317
 20
2.53934948
  0
VERTEX
  8
0
 10
16.86976986
 20
2.53611076
  0
VERTEX
  8
0
 10
16.86959255
 20
2.53299006
  0
VERTEX
  8
0
 10
16.86934560
 20
2.52998481
  0
VERTEX
  8
0
 10
16.86903338
 20
2.52709243
  0
VERTEX
  8
0
 10
16.86866025
 20
2.52431036
  0
VERTEX
  8
0
 10
16.86823056
 20
2.52163602
  0
VERTEX
  8
0
 10
16.86774868
 20
2.51906683
  0
VERTEX
  8
0
 10
16.86721897
 20
2.51660023
  0
VERTEX
  8
0
 10
16.86664579
 20
2.51423365
  0
VERTEX
  8
0
 10
16.86603349
 20
2.51196450
  0
VERTEX
  8
0
 10
16.86538645
 20
2.50979023
  0
VERTEX
  8
0
 10
16.86470902
 20
2.50770825
  0
VERTEX
  8
0
 10
16.86400556
 20
2.50571599
  0
VERTEX
  8
0
 10
16.86328043
 20
2.50381089
  0
VERTEX
  8
0
 10
16.86253800
 20
2.50199037
  0
VERTEX
  8
0
 10
16.86178262
 20
2.50025185
  0
VERTEX
  8
0
 10
16.86101865
 20
2.49859277
  0
VERTEX
  8
0
 10
16.86025046
 20
2.49701055
  0
VERTEX
  8
0
 10
16.85948241
 20
2.49550262
  0
VERTEX
  8
0
 10
16.85871886
 20
2.49406641
  0
VERTEX
  8
0
 10
16.85722269
 20
2.49139885
  0
VERTEX
  8
0
 10
16.84913820
 20
2.47778817
  0
VERTEX
  8
0
 10
16.84814658
 20
2.47598228
  0
VERTEX
  8
0
 10
16.84742988
 20
2.47459261
  0
VERTEX
  8
0
 10
16.84715232
 20
2.47401925
  0
VERTEX
  8
0
 10
16.84691673
 20
2.47350840
  0
VERTEX
  8
0
 10
16.84653577
 20
2.47261886
  0
VERTEX
  8
0
 10
16.84617682
 20
2.47171239
  0
VERTEX
  8
0
 10
16.84615822
 20
2.47166088
  0
VERTEX
  8
0
 10
16.84614061
 20
2.47160811
  0
VERTEX
  8
0
 10
16.84612435
 20
2.47155371
  0
VERTEX
  8
0
 10
16.84611683
 20
2.47152578
  0
VERTEX
  8
0
 10
16.84610977
 20
2.47149730
  0
VERTEX
  8
0
 10
16.84610322
 20
2.47146821
  0
VERTEX
  8
0
 10
16.84609722
 20
2.47143848
  0
VERTEX
  8
0
 10
16.84609182
 20
2.47140806
  0
VERTEX
  8
0
 10
16.84608706
 20
2.47137689
  0
VERTEX
  8
0
 10
16.84608297
 20
2.47134493
  0
VERTEX
  8
0
 10
16.84607961
 20
2.47131213
  0
VERTEX
  8
0
 10
16.84607702
 20
2.47127845
  0
VERTEX
  8
0
 10
16.84607524
 20
2.47124383
  0
VERTEX
  8
0
 10
16.84607431
 20
2.47120823
  0
VERTEX
  8
0
 10
16.84607428
 20
2.47117161
  0
VERTEX
  8
0
 10
16.84607519
 20
2.47113390
  0
VERTEX
  8
0
 10
16.84607708
 20
2.47109507
  0
VERTEX
  8
0
 10
16.84608000
 20
2.47105507
  0
VERTEX
  8
0
 10
16.84608399
 20
2.47101385
  0
VERTEX
  8
0
 10
16.84608909
 20
2.47097135
  0
VERTEX
  8
0
 10
16.84609535
 20
2.47092755
  0
VERTEX
  8
0
 10
16.84610281
 20
2.47088237
  0
VERTEX
  8
0
 10
16.84611151
 20
2.47083579
  0
VERTEX
  8
0
 10
16.84612150
 20
2.47078775
  0
VERTEX
  8
0
 10
16.84613281
 20
2.47073820
  0
VERTEX
  8
0
 10
16.84614550
 20
2.47068710
  0
VERTEX
  8
0
 10
16.84615961
 20
2.47063439
  0
VERTEX
  8
0
 10
16.84619223
 20
2.47052398
  0
VERTEX
  8
0
 10
16.84623104
 20
2.47040658
  0
VERTEX
  8
0
 10
16.84627637
 20
2.47028182
  0
VERTEX
  8
0
 10
16.84632858
 20
2.47014931
  0
VERTEX
  8
0
 10
16.84638800
 20
2.47000867
  0
VERTEX
  8
0
 10
16.84645498
 20
2.46985951
  0
VERTEX
  8
0
 10
16.84652988
 20
2.46970147
  0
VERTEX
  8
0
 10
16.84670477
 20
2.46935716
  0
VERTEX
  8
0
 10
16.84691545
 20
2.46897269
  0
VERTEX
  8
0
 10
16.84716467
 20
2.46854500
  0
VERTEX
  8
0
 10
16.84745521
 20
2.46807103
  0
VERTEX
  8
0
 10
16.84817128
 20
2.46697203
  0
VERTEX
  8
0
 10
16.84908578
 20
2.46565123
  0
VERTEX
  8
0
 10
16.85159857
 20
2.46224640
  0
VERTEX
  8
0
 10
16.85997864
 20
2.45169904
  0
VERTEX
  8
0
 10
16.89511191
 20
2.41017505
  0
VERTEX
  8
0
 10
16.96418104
 20
2.33097685
  0
VERTEX
  8
0
 10
16.92774842
 20
2.26083095
  0
VERTEX
  8
0
 10
16.88898688
 20
2.19194462
  0
VERTEX
  8
0
 10
16.84793994
 20
2.12439515
  0
VERTEX
  8
0
 10
16.80465363
 20
2.05825833
  0
VERTEX
  8
0
 10
16.75917653
 20
1.99360837
  0
VERTEX
  8
0
 10
16.71155967
 20
1.93051782
  0
VERTEX
  8
0
 10
16.66185648
 20
1.86905746
  0
VERTEX
  8
0
 10
16.61012273
 20
1.80929625
  0
VERTEX
  8
0
 10
16.55641645
 20
1.75130126
  0
VERTEX
  8
0
 10
16.50079793
 20
1.69513754
  0
VERTEX
  8
0
 10
16.44332955
 20
1.64086813
  0
VERTEX
  8
0
 10
16.38407581
 20
1.58855392
  0
VERTEX
  8
0
 10
16.32310318
 20
1.53825359
  0
VERTEX
  8
0
 10
16.26048009
 20
1.49002360
  0
VERTEX
  8
0
 10
16.19627681
 20
1.44391806
  0
VERTEX
  8
0
 10
16.13056536
 20
1.39998871
  0
VERTEX
  8
0
 10
16.06341948
 20
1.35828482
  0
VERTEX
  8
0
 10
15.99491451
 20
1.31885320
  0
VERTEX
  8
0
 10
15.92512732
 20
1.28173810
  0
VERTEX
  8
0
 10
15.85413621
 20
1.24698114
  0
VERTEX
  8
0
 10
15.78202084
 20
1.21462135
  0
VERTEX
  8
0
 10
15.70886212
 20
1.18469502
  0
SEQEND
  0
POLYLINE
  8
Construction
 62
256
 66
   1
 39
0.000000
 70
    0
  0
VERTEX
  8
0
 10
16.93802915
 20
2.83414418
  0
VERTEX
  8
0
 10
16.74583146
 20
2.82263040
  0
SEQEND
  0
POLYLINE
  8
Construction
 62
256
 66
   1
 39
0.000000
 70
    0
  0
VERTEX
  8
0
 10
16.75850796
 20
2.92375173
  0
VERTEX
  8
0
 10
16.76793703
 20
2.91841275
  0
VERTEX
  8
0
 10
16.77803525
 20
2.91393760
  0
VERTEX
  8
0
 10
16.78588124
 20
2.91138788
  0
VERTEX
  8
0
 10
16.79407527
 20
2.90970180
  0
VERTEX
  8
0
 10
16.80304771
 20
2.90926940
  0
VERTEX
  8
0
 10
16.81186023
 20
2.91028112
  0
VERTEX
  8
0
 10
16.82025096
 20
2.91268496
  0
VERTEX
  8
0
 10
16.82795806
 20
2.91642894
  0
VERTEX
  8
0
 10
16.83386106
 20
2.92035480
  0
VERTEX
  8
0
 10
16.84523901
 20
2.92809343
  0
VERTEX
  8
0
 10
16.85742538
 20
2.93603874
  0
VERTEX
  8
0
 10
16.86316004
 20
2.93956487
  0
VERTEX
  8
0
 10
16.86808548
 20
2.94381768
  0
VERTEX
  8
0
 10
16.87548493
 20
2.95236173
  0
VERTEX
  8
0
 10
16.87571777
 20
2.95266863
  0
VERTEX
  8
0
 10
16.88840993
 20
2.96252759
  0
VERTEX
  8
0
 10
16.90019385
 20
2.97178542
  0
VERTEX
  8
0
 10
16.91394384
 20
2.98369896
  0
VERTEX
  8
0
 10
16.92841556
 20
2.99809582
  0
VERTEX
  8
0
 10
16.94236464
 20
3.01480362
  0
VERTEX
  8
0
 10
16.94875433
 20
3.02397025
  0
VERTEX
  8
0
 10
16.95454673
 20
3.03364997
  0
VERTEX
  8
0
 10
16.95958629
 20
3.04382122
  0
VERTEX
  8
0
 10
16.96371747
 20
3.05446247
  0
SEQEND
  0
POLYLINE
  8
Construction
 62
256
 66
   1
 39
0.000000
 70
    0
  0
VERTEX
  8
0
 10
16.46548217
 20
3.00968130
 42
-0.19980787
  0
VERTEX
  8
0
 10
16.58517195
 20
3.07062994
  0
SEQEND
  0
POLYLINE
  8
Construction
 62
256
 66
   1
 39
0.000000
 70
    0
  0
VERTEX
  8
0
 10
16.68286818
 20
3.04556449
 42
-0.09152223
  0
VERTEX
  8
0
 10
16.72529574
 20
3.00571040
 42
-0.11436285
  0
VERTEX
  8
0
 10
16.75699169
 20
2.93283171
 42
-0.01189131
  0
VERTEX
  8
0
 10
16.75850796
 20
2.92375173
 42
-0.13398856
  0
VERTEX
  8
0
 10
16.74583146
 20
2.82263040
  0
VERTEX
  8
0
 10
16.74578904
 20
2.82252760
 42
-0.04045915
  0
VERTEX
  8
0
 10
16.73231189
 20
2.79525218
 42
-0.14956869
  0
VERTEX
  8
0
 10
16.65050175
 20
2.72143865
 42
-0.07304620
  0
VERTEX
  8
0
 10
16.60602531
 20
2.70728634
 42
-0.08129541
  0
VERTEX
  8
0
 10
16.55414631
 20
2.70728634
 42
-0.03876987
  0
VERTEX
  8
0
 10
16.52999020
 20
2.71319096
  0
VERTEX
  8
0
 10
16.52141914
 20
2.71633774
  0
SEQEND
  0
POLYLINE
  8
Construction
 62
256
 66
   1
 39
0.000000
 70
    0
  0
VERTEX
  8
0
 10
13.61599536
 20
2.46731988
  0
VERTEX
  8
0
 10
15.13409695
 20
2.46938424
  0
VERTEX
  8
0
 10
15.24267686
 20
2.46953189
  0
VERTEX
  8
0
 10
16.29720589
 20
2.47096588
  0
VERTEX
  8
0
 10
16.53795308
 20
2.47129326
  0
VERTEX
  8
0
 10
16.84617682
 20
2.47171239
  0
SEQEND
  0
POLYLINE
  8
Construction
 62
256
 66
   1
 39
0.000000
 70
    0
  0
VERTEX
  8
0
 10
16.72067309
 20
2.70728634
  0
VERTEX
  8
0
 10
16.60602531
 20
2.70728634
  0
SEQEND
  0
POLYLINE
  8
Construction
 62
256
 66
   1
 39
0.000000
 70
    0
  0
VERTEX
  8
0
 10
15.98983730
 20
2.70728634
  0
VERTEX
  8
0
 10
15.34129605
 20
2.70728634
  0
SEQEND
  0
POLYLINE
  8
Construction
 62
256
 66
   1
 39
0.000000
 70
    0
  0
VERTEX
  8
0
 10
14.88166054
 20
2.70728634
  0
VERTEX
  8
0
 10
13.90695956
 20
2.70728634
  0
SEQEND
  0
POLYLINE
  8
Construction
 62
256
 66
   1
 39
0.000000
 70
    0
  0
VERTEX
  8
0
 10
14.49949996
 20
1.18469502
  0
VERTEX
  8
0
 10
14.42634125
 20
1.21462135
  0
VERTEX
  8
0
 10
14.35422588
 20
1.24698114
  0
VERTEX
  8
0
 10
14.28323477
 20
1.28173810
  0
VERTEX
  8
0
 10
14.21344758
 20
1.31885320
  0
VERTEX
  8
0
 10
14.14494261
 20
1.35828482
  0
VERTEX
  8
0
 10
14.07779673
 20
1.39998871
  0
VERTEX
  8
0
 10
14.01208528
 20
1.44391806
  0
VERTEX
  8
0
 10
13.94788199
 20
1.49002360
  0
VERTEX
  8
0
 10
13.88525890
 20
1.53825359
  0
VERTEX
  8
0
 10
13.82428628
 20
1.58855392
  0
VERTEX
  8
0
 10
13.76503253
 20
1.64086813
  0
VERTEX
  8
0
 10
13.70756416
 20
1.69513754
  0
VERTEX
  8
0
 10
13.65194563
 20
1.75130126
  0
VERTEX
  8
0
 10
13.59823936
 20
1.80929625
  0
VERTEX
  8
0
 10
13.54650560
 20
1.86905746
  0
VERTEX
  8
0
 10
13.49680241
 20
1.93051782
  0
VERTEX
  8
0
 10
13.44918555
 20
1.99360837
  0
VERTEX
  8
0
 10
13.40370845
 20
2.05825833
  0
VERTEX
  8
0
 10
13.36042215
 20
2.12439515
  0
VERTEX
  8
0
 10
13.31937520
 20
2.19194462
  0
VERTEX
  8
0
 10
13.28061367
 20
2.26083095
  0
VERTEX
  8
0
 10
13.24418104
 20
2.33097685
  0
VERTEX
  8
0
 10
13.31325017
 20
2.41017505
  0
VERTEX
  8
0
 10
13.34838345
 20
2.45169904
  0
VERTEX
  8
0
 10
13.35676352
 20
2.46224640
  0
VERTEX
  8
0
 10
13.35927630
 20
2.46565123
  0
VERTEX
  8
0
 10
13.36019080
 20
2.46697203
  0
SEQEND
  0
POLYLINE
  8
Construction
 62
256
 66
   1
 39
0.000000
 70
    0
  0
VERTEX
  8
0
 10
13.38680475
 20
2.71226994
 42
0.11477174
  0
VERTEX
  8
0
 10
13.34567589
 20
2.66537109
  0
SEQEND
  0
POLYLINE
  8
Construction
 62
256
 66
   1
 39
0.000000
 70
    0
  0
VERTEX
  8
0
 10
13.24418104
 20
2.33097685
  0
VERTEX
  8
0
 10
16.96418104
 20
2.33097685
  0
SEQEND
  0
POLYLINE
  8
Construction
 62
256
 66
   1
 39
0.000000
 70
    0
  0
VERTEX
  8
0
 10
14.58820082
 20
0.95219502
  0
VERTEX
  8
0
 10
15.62016126
 20
0.95219502
  0
SEQEND
  0
POLYLINE
  8
Construction
 62
256
 66
   1
 39
0.000000
 70
    1
  0
VERTEX
  8
0
 10
13.96315836
 20
3.61756933
 42
-0.02832355
  0
VERTEX
  8
0
 10
14.07510578
 20
3.81138031
 42
-0.04683763
  0
VERTEX
  8
0
 10
14.23432706
 20
4.01081101
 42
-0.03616163
  0
VERTEX
  8
0
 10
14.36183556
 20
4.12501475
 42
-0.04617300
  0
VERTEX
  8
0
 10
14.45762486
 20
4.18290555
 42
-0.04259543
  0
VERTEX
  8
0
 10
14.60714356
 20
4.24006305
 42
-0.00947282
  0
VERTEX
  8
0
 10
14.65185401
 20
4.25228771
 42
0.07388510
  0
VERTEX
  8
0
 10
14.51837145
 20
4.35353600
 42
0.05802114
  0
VERTEX
  8
0
 10
14.36640681
 20
4.41480238
 42
0.04243177
  0
VERTEX
  8
0
 10
14.20132252
 20
4.44568880
 42
0.02265607
  0
VERTEX
  8
0
 10
14.07634879
 20
4.45299137
 42
-0.02522718
  0
VERTEX
  8
0
 10
14.20959316
 20
4.45955470
 42
-0.04355356
  0
VERTEX
  8
0
 10
14.35782694
 20
4.44665306
 42
-0.05794431
  0
VERTEX
  8
0
 10
14.49636696
 20
4.40498365
 42
-0.05114994
  0
VERTEX
  8
0
 10
14.60911103
 20
4.34100132
 42
-0.02626338
  0
VERTEX
  8
0
 10
14.69172642
 20
4.27519750
  0
VERTEX
  8
0
 10
14.79642594
 20
4.30848540
 42
0.09950820
  0
VERTEX
  8
0
 10
14.70404842
 20
4.55038856
 42
0.05367206
  0
VERTEX
  8
0
 10
14.59578793
 20
4.68674378
 42
-0.03701757
  0
VERTEX
  8
0
 10
14.67753298
 20
4.63457482
 42
-0.06389100
  0
VERTEX
  8
0
 10
14.75288845
 20
4.56205274
 42
-0.08247371
  0
VERTEX
  8
0
 10
14.81071061
 20
4.45722363
 42
-0.03945546
  0
VERTEX
  8
0
 10
14.83548238
 20
4.36413212
 42
-0.00705583
  0
VERTEX
  8
0
 10
14.84327388
 20
4.31928865
 42
-0.07914243
  0
VERTEX
  8
0
 10
14.97558609
 20
4.32697132
 42
-0.02382658
  0
VERTEX
  8
0
 10
15.01236869
 20
4.32125629
 42
-0.07513063
  0
VERTEX
  8
0
 10
15.12928422
 20
4.36729072
 42
-0.05196743
  0
VERTEX
  8
0
 10
15.24403140
 20
4.38106662
 42
-0.08108335
  0
VERTEX
  8
0
 10
15.39280854
 20
4.52829502
 42
-0.07152801
  0
VERTEX
  8
0
 10
15.52489084
 20
4.59656158
 42
-0.11331738
  0
VERTEX
  8
0
 10
15.72244244
 20
4.61791060
 42
0.11004948
  0
VERTEX
  8
0
 10
15.48141828
 20
4.53335843
 42
0.06450141
  0
VERTEX
  8
0
 10
15.38990490
 20
4.45933773
 42
0.06757994
  0
VERTEX
  8
0
 10
15.33733049
 20
4.38673130
 42
-0.02791854
  0
VERTEX
  8
0
 10
15.46547351
 20
4.35416124
 42
-0.05067637
  0
VERTEX
  8
0
 10
15.63661457
 20
4.28060606
 42
-0.10169854
  0
VERTEX
  8
0
 10
15.87048981
 20
4.07941198
 42
-0.06267736
  0
VERTEX
  8
0
 10
15.97547826
 20
3.89915371
 42
0.03725051
  0
VERTEX
  8
0
 10
15.85826807
 20
4.05377876
 42
0.04861471
  0
VERTEX
  8
0
 10
15.72696535
 20
4.17621187
 42
0.06911822
  0
VERTEX
  8
0
 10
15.55975381
 20
4.27085845
 42
0.09627452
  0
VERTEX
  8
0
 10
15.31563674
 20
4.31496468
 42
0.05483971
  0
VERTEX
  8
0
 10
15.13820925
 20
4.29308657
 42
0.01427132
  0
VERTEX
  8
0
 10
15.08075404
 20
4.27806360
 42
0.01319016
  0
VERTEX
  8
0
 10
15.11618575
 20
4.09202847
 42
-0.00106442
  0
VERTEX
  8
0
 10
15.15632407
 20
3.90634805
 42
-0.01400416
  0
VERTEX
  8
0
 10
15.18777370
 20
3.73686509
 42
-0.02794269
  0
VERTEX
  8
0
 10
15.20554400
 20
3.56068475
 42
-0.04573195
  0
VERTEX
  8
0
 10
15.19712296
 20
3.37589129
 42
-0.02209672
  0
VERTEX
  8
0
 10
15.17115600
 20
3.23703797
 42
-0.00720386
  0
VERTEX
  8
0
 10
15.13316139
 20
3.08551708
 42
0.01088634
  0
VERTEX
  8
0
 10
15.09437788
 20
2.92685751
  0
VERTEX
  8
0
 10
15.08956591
 20
2.90374294
 42
-0.00921965
  0
VERTEX
  8
0
 10
15.11055655
 20
3.11223751
 42
0.00421537
  0
VERTEX
  8
0
 10
15.13295023
 20
3.31429045
 42
0.01633288
  0
VERTEX
  8
0
 10
15.14597692
 20
3.50738535
 42
0.02103224
  0
VERTEX
  8
0
 10
15.14354513
 20
3.57592699
 42
-0.00443327
  0
VERTEX
  8
0
 10
15.13730631
 20
3.66487043
 42
-0.01283479
  0
VERTEX
  8
0
 10
15.13616870
 20
3.69880959
 42
0.03790700
  0
VERTEX
  8
0
 10
15.01389016
 20
3.68132829
 42
0.03912424
  0
VERTEX
  8
0
 10
14.82788888
 20
3.62489625
 42
0.01843361
  0
VERTEX
  8
0
 10
14.76060376
 20
3.59663718
 42
0.03478154
  0
VERTEX
  8
0
 10
14.69453439
 20
3.55754359
 42
-0.00173250
  0
VERTEX
  8
0
 10
14.62103375
 20
3.50726637
 42
-0.00432967
  0
VERTEX
  8
0
 10
14.60723221
 20
3.49838849
 42
0.01753687
  0
VERTEX
  8
0
 10
14.66261199
 20
3.55414919
 42
-0.01529224
  0
VERTEX
  8
0
 10
14.71279433
 20
3.60500293
 42
-0.04369010
  0
VERTEX
  8
0
 10
14.76535711
 20
3.64680360
 42
-0.03997083
  0
VERTEX
  8
0
 10
14.84852726
 20
3.68867341
 42
-0.04883336
  0
VERTEX
  8
0
 10
15.01147972
 20
3.73844460
 42
-0.03189694
  0
VERTEX
  8
0
 10
15.12508088
 20
3.75444852
 42
0.02811576
  0
VERTEX
  8
0
 10
15.00331805
 20
4.26797736
 42
0.05383538
  0
VERTEX
  8
0
 10
14.84848879
 20
4.26118985
 42
0.04823752
  0
VERTEX
  8
0
 10
14.67463787
 20
4.21682469
 42
0.03944350
  0
VERTEX
  8
0
 10
14.48690262
 20
4.13210101
 42
0.02201863
  0
VERTEX
  8
0
 10
14.37865878
 20
4.06739983
 42
0.04182209
  0
VERTEX
  8
0
 10
14.28094165
 20
3.98719874
 42
0.02586358
  0
VERTEX
  8
0
 10
14.18686317
 20
3.88580454
 42
0.00682069
  0
VERTEX
  8
0
 10
14.09203135
 20
3.76920191
 42
-0.01215913
  0
VERTEX
  8
0
 10
13.99759251
 20
3.65532817
 42
-0.00819355
  0
VERTEX
  8
0
 10
13.96315836
 20
3.61756933
  0
SEQEND
  0
CIRCLE
  8
Construction
 62
256
 10
20.104884
 20
3.020977
 40
1.500000
  0
POLYLINE
  8
Construction
 62
256
 66
   1
 39
0.000000
 70
    1
  0
VERTEX
  8
0
 10
21.56964277
 20
4.46965765
  0
VERTEX
  8
0
 10
21.56242061
 20
4.47528322
  0
VERTEX
  8
0
 10
21.55268536
 20
4.48305507
  0
VERTEX
  8
0
 10
21.54367280
 20
4.48927209
  0
VERTEX
  8
0
 10
21.53287327
 20
4.49671572
  0
VERTEX
  8
0
 10
21.53079513
 20
4.49807711
  0
VERTEX
  8
0
 10
21.52746723
 20
4.50012977
  0
VERTEX
  8
0
 10
21.51783385
 20
4.50572346
  0
VERTEX
  8
0
 10
21.51562387
 20
4.50687717
  0
VERTEX
  8
0
 10
21.50114070
 20
4.51424043
  0
VERTEX
  8
0
 10
21.49512627
 20
4.51729423
  0
VERTEX
  8
0
 10
21.49080891
 20
4.51941662
  0
VERTEX
  8
0
 10
21.47992015
 20
4.52348591
  0
VERTEX
  8
0
 10
21.47155743
 20
4.52492656
  0
VERTEX
  8
0
 10
21.46879708
 20
4.52599538
  0
VERTEX
  8
0
 10
21.46733037
 20
4.52642854
  0
VERTEX
  8
0
 10
21.46498393
 20
4.52641494
  0
VERTEX
  8
0
 10
21.45976231
 20
4.52870569
  0
VERTEX
  8
0
 10
21.45309632
 20
4.53255230
  0
VERTEX
  8
0
 10
21.45020909
 20
4.53488480
  0
VERTEX
  8
0
 10
21.44830378
 20
4.53645364
  0
VERTEX
  8
0
 10
21.44016601
 20
4.54535024
  0
VERTEX
  8
0
 10
21.43698213
 20
4.54872958
  0
VERTEX
  8
0
 10
21.43587040
 20
4.54950866
  0
VERTEX
  8
0
 10
21.42777017
 20
4.55541428
  0
VERTEX
  8
0
 10
21.41839595
 20
4.56015563
  0
VERTEX
  8
0
 10
21.41226316
 20
4.56289503
  0
VERTEX
  8
0
 10
21.40769172
 20
4.56578507
  0
VERTEX
  8
0
 10
21.40616256
 20
4.56685721
  0
VERTEX
  8
0
 10
21.40261512
 20
4.56957039
  0
VERTEX
  8
0
 10
21.39965172
 20
4.57291902
  0
VERTEX
  8
0
 10
21.39175864
 20
4.58249027
  0
VERTEX
  8
0
 10
21.37788600
 20
4.60078994
  0
VERTEX
  8
0
 10
21.37556676
 20
4.60359708
  0
VERTEX
  8
0
 10
21.35980437
 20
4.62240136
  0
VERTEX
  8
0
 10
21.33535823
 20
4.64939632
  0
VERTEX
  8
0
 10
21.33104410
 20
4.65399244
  0
VERTEX
  8
0
 10
21.32689484
 20
4.65801346
  0
VERTEX
  8
0
 10
21.31366087
 20
4.67061848
  0
VERTEX
  8
0
 10
21.30169532
 20
4.68097291
  0
VERTEX
  8
0
 10
21.29762600
 20
4.68479260
  0
VERTEX
  8
0
 10
21.29372536
 20
4.68805402
  0
VERTEX
  8
0
 10
21.28109535
 20
4.69805457
  0
VERTEX
  8
0
 10
21.27398623
 20
4.70330777
  0
VERTEX
  8
0
 10
21.26453548
 20
4.70983936
  0
VERTEX
  8
0
 10
21.24931790
 20
4.71918372
  0
VERTEX
  8
0
 10
21.24427111
 20
4.72256326
  0
VERTEX
  8
0
 10
21.23302425
 20
4.72860355
  0
VERTEX
  8
0
 10
21.22376304
 20
4.73340490
  0
VERTEX
  8
0
 10
21.20925949
 20
4.73994763
  0
VERTEX
  8
0
 10
21.19867379
 20
4.74420288
  0
VERTEX
  8
0
 10
21.18702338
 20
4.74846030
  0
VERTEX
  8
0
 10
21.17240398
 20
4.75283351
  0
VERTEX
  8
0
 10
21.16149106
 20
4.75604583
  0
VERTEX
  8
0
 10
21.14705294
 20
4.76012556
  0
VERTEX
  8
0
 10
21.13957063
 20
4.76211634
  0
VERTEX
  8
0
 10
21.13767724
 20
4.76278567
  0
VERTEX
  8
0
 10
21.11478176
 20
4.77051466
  0
VERTEX
  8
0
 10
21.09217168
 20
4.77632263
  0
VERTEX
  8
0
 10
21.09171443
 20
4.77644582
  0
VERTEX
  8
0
 10
21.09156296
 20
4.77648079
  0
VERTEX
  8
0
 10
21.09103625
 20
4.77640373
  0
VERTEX
  8
0
 10
21.08524767
 20
4.77523886
  0
VERTEX
  8
0
 10
21.08309618
 20
4.77383060
  0
VERTEX
  8
0
 10
21.07640613
 20
4.76941246
  0
VERTEX
  8
0
 10
21.07554271
 20
4.76844760
  0
VERTEX
  8
0
 10
21.06846716
 20
4.76092261
  0
VERTEX
  8
0
 10
21.06828798
 20
4.76118101
  0
VERTEX
  8
0
 10
21.06708572
 20
4.76261864
  0
VERTEX
  8
0
 10
21.05572851
 20
4.77104446
  0
VERTEX
  8
0
 10
21.05217523
 20
4.77368045
  0
VERTEX
  8
0
 10
21.05135635
 20
4.77429373
  0
VERTEX
  8
0
 10
21.05054057
 20
4.77481768
  0
VERTEX
  8
0
 10
21.04951131
 20
4.77543291
  0
VERTEX
  8
0
 10
21.02452364
 20
4.79031056
  0
VERTEX
  8
0
 10
21.01151318
 20
4.79670000
  0
VERTEX
  8
0
 10
21.00211066
 20
4.80150770
  0
VERTEX
  8
0
 10
20.98454673
 20
4.80915072
  0
VERTEX
  8
0
 10
20.96737065
 20
4.81561838
  0
VERTEX
  8
0
 10
20.96099150
 20
4.81786750
  0
VERTEX
  8
0
 10
20.94722041
 20
4.82216952
  0
VERTEX
  8
0
 10
20.94509067
 20
4.82282174
  0
VERTEX
  8
0
 10
20.94352162
 20
4.82327545
  0
VERTEX
  8
0
 10
20.91620336
 20
4.83014773
  0
VERTEX
  8
0
 10
20.89056228
 20
4.83543152
  0
VERTEX
  8
0
 10
20.88185016
 20
4.83747308
  0
VERTEX
  8
0
 10
20.87393376
 20
4.84002797
  0
VERTEX
  8
0
 10
20.87095703
 20
4.84088340
  0
VERTEX
  8
0
 10
20.86629076
 20
4.84323205
  0
VERTEX
  8
0
 10
20.86507968
 20
4.84380533
  0
VERTEX
  8
0
 10
20.86386389
 20
4.84436788
  0
VERTEX
  8
0
 10
20.85683847
 20
4.84907154
  0
VERTEX
  8
0
 10
20.85288432
 20
4.85160662
  0
VERTEX
  8
0
 10
20.82514204
 20
4.87277962
  0
VERTEX
  8
0
 10
20.81156001
 20
4.88239195
  0
VERTEX
  8
0
 10
20.80892062
 20
4.88431905
  0
VERTEX
  8
0
 10
20.80890387
 20
4.88574084
  0
VERTEX
  8
0
 10
20.80845567
 20
4.88707850
  0
VERTEX
  8
0
 10
20.80565688
 20
4.89091295
  0
VERTEX
  8
0
 10
20.80250820
 20
4.89415774
  0
VERTEX
  8
0
 10
20.79119417
 20
4.90076912
  0
VERTEX
  8
0
 10
20.78344674
 20
4.90552098
  0
VERTEX
  8
0
 10
20.77149002
 20
4.91173753
  0
VERTEX
  8
0
 10
20.76115377
 20
4.91668214
  0
VERTEX
  8
0
 10
20.75255804
 20
4.92187179
  0
VERTEX
  8
0
 10
20.73718605
 20
4.93079969
  0
VERTEX
  8
0
 10
20.72277024
 20
4.93880029
  0
VERTEX
  8
0
 10
20.71712107
 20
4.94169765
  0
VERTEX
  8
0
 10
20.71287369
 20
4.94375915
  0
VERTEX
  8
0
 10
20.68994154
 20
4.95464728
  0
VERTEX
  8
0
 10
20.67800389
 20
4.95979384
  0
VERTEX
  8
0
 10
20.65104235
 20
4.97050394
  0
VERTEX
  8
0
 10
20.64262295
 20
4.97361528
  0
VERTEX
  8
0
 10
20.61027119
 20
4.98415267
  0
VERTEX
  8
0
 10
20.60532493
 20
4.98574258
  0
VERTEX
  8
0
 10
20.58040522
 20
4.99221888
  0
VERTEX
  8
0
 10
20.56781938
 20
4.99521418
  0
VERTEX
  8
0
 10
20.54073971
 20
5.00044571
  0
VERTEX
  8
0
 10
20.52689437
 20
5.00262456
  0
VERTEX
  8
0
 10
20.49835899
 20
5.01045496
  0
VERTEX
  8
0
 10
20.48671068
 20
5.01356092
  0
VERTEX
  8
0
 10
20.47596714
 20
5.01585960
  0
VERTEX
  8
0
 10
20.46311004
 20
5.01849384
  0
VERTEX
  8
0
 10
20.44486120
 20
5.02146766
  0
VERTEX
  8
0
 10
20.44211092
 20
5.02186794
  0
VERTEX
  8
0
 10
20.43658150
 20
5.02246429
  0
VERTEX
  8
0
 10
20.42233637
 20
5.02378429
  0
VERTEX
  8
0
 10
20.41547671
 20
5.02439948
  0
VERTEX
  8
0
 10
20.41456264
 20
5.02447784
  0
VERTEX
  8
0
 10
20.39202181
 20
5.02516665
  0
VERTEX
  8
0
 10
20.39041055
 20
5.02521138
  0
VERTEX
  8
0
 10
20.38752774
 20
5.02517133
  0
VERTEX
  8
0
 10
20.35967413
 20
5.02443790
  0
VERTEX
  8
0
 10
20.34572241
 20
5.02355717
  0
VERTEX
  8
0
 10
20.31437159
 20
5.02022923
  0
VERTEX
  8
0
 10
20.30642891
 20
5.01926632
  0
VERTEX
  8
0
 10
20.28180357
 20
5.01497668
  0
VERTEX
  8
0
 10
20.26913803
 20
5.01261571
  0
VERTEX
  8
0
 10
20.25834922
 20
5.01013168
  0
VERTEX
  8
0
 10
20.24237919
 20
5.00662915
  0
VERTEX
  8
0
 10
20.18212630
 20
4.98909746
  0
VERTEX
  8
0
 10
20.17825499
 20
4.98795551
  0
VERTEX
  8
0
 10
20.17640474
 20
4.98737651
  0
VERTEX
  8
0
 10
20.14780702
 20
4.97873291
  0
VERTEX
  8
0
 10
20.14469367
 20
4.97775067
  0
VERTEX
  8
0
 10
20.13006311
 20
4.97321581
  0
VERTEX
  8
0
 10
20.10704267
 20
4.96650144
  0
VERTEX
  8
0
 10
20.10268912
 20
4.96544483
  0
VERTEX
  8
0
 10
20.09764526
 20
4.96467154
  0
VERTEX
  8
0
 10
20.09593536
 20
4.96452275
  0
VERTEX
  8
0
 10
20.09290597
 20
4.96489850
  0
VERTEX
  8
0
 10
20.09119408
 20
4.96512731
  0
VERTEX
  8
0
 10
20.08776158
 20
4.96637297
  0
VERTEX
  8
0
 10
20.08644016
 20
4.96684577
  0
VERTEX
  8
0
 10
20.07954448
 20
4.97041795
  0
VERTEX
  8
0
 10
20.07655757
 20
4.97191028
  0
VERTEX
  8
0
 10
20.07556097
 20
4.97218933
  0
VERTEX
  8
0
 10
20.06732934
 20
4.97459475
  0
VERTEX
  8
0
 10
20.06428974
 20
4.97450788
  0
VERTEX
  8
0
 10
20.05781747
 20
4.97415217
  0
VERTEX
  8
0
 10
20.04975999
 20
4.97162360
  0
VERTEX
  8
0
 10
20.04347793
 20
4.97036023
  0
VERTEX
  8
0
 10
20.03978107
 20
4.96945307
  0
VERTEX
  8
0
 10
20.03892465
 20
4.96938357
  0
VERTEX
  8
0
 10
20.03110095
 20
4.97019026
  0
VERTEX
  8
0
 10
20.02937399
 20
4.97042654
  0
VERTEX
  8
0
 10
20.02586594
 20
4.97182204
  0
VERTEX
  8
0
 10
20.01527334
 20
4.97592139
  0
VERTEX
  8
0
 10
20.00369050
 20
4.98096606
  0
VERTEX
  8
0
 10
19.99190564
 20
4.98619543
  0
VERTEX
  8
0
 10
19.90973299
 20
5.02052203
  0
VERTEX
  8
0
 10
19.90447700
 20
5.02278492
  0
VERTEX
  8
0
 10
19.90403634
 20
5.02294454
  0
VERTEX
  8
0
 10
19.90040864
 20
5.02419283
  0
VERTEX
  8
0
 10
19.87605751
 20
5.03273548
  0
VERTEX
  8
0
 10
19.86850642
 20
5.03498707
  0
VERTEX
  8
0
 10
19.85349802
 20
5.03940473
  0
VERTEX
  8
0
 10
19.83428222
 20
5.04368205
  0
VERTEX
  8
0
 10
19.82218053
 20
5.04633676
  0
VERTEX
  8
0
 10
19.81090807
 20
5.04807879
  0
VERTEX
  8
0
 10
19.80001683
 20
5.04952557
  0
VERTEX
  8
0
 10
19.78433093
 20
5.05101849
  0
VERTEX
  8
0
 10
19.75054724
 20
5.05179304
  0
VERTEX
  8
0
 10
19.74661936
 20
5.05194366
  0
VERTEX
  8
0
 10
19.74254942
 20
5.05174474
  0
VERTEX
  8
0
 10
19.70565925
 20
5.04972369
  0
VERTEX
  8
0
 10
19.67574111
 20
5.04606465
  0
VERTEX
  8
0
 10
19.66504389
 20
5.04471282
  0
VERTEX
  8
0
 10
19.66347268
 20
5.04445164
  0
VERTEX
  8
0
 10
19.62136117
 20
5.03609626
  0
VERTEX
  8
0
 10
19.62029900
 20
5.03584272
  0
VERTEX
  8
0
 10
19.61902418
 20
5.03552142
  0
VERTEX
  8
0
 10
19.58474700
 20
5.02602296
  0
VERTEX
  8
0
 10
19.55909161
 20
5.01811851
  0
VERTEX
  8
0
 10
19.55216682
 20
5.01581029
  0
VERTEX
  8
0
 10
19.53504663
 20
5.00946270
  0
VERTEX
  8
0
 10
19.52794049
 20
5.00677821
  0
VERTEX
  8
0
 10
19.50663163
 20
4.99740301
  0
VERTEX
  8
0
 10
19.49422344
 20
4.99205140
  0
VERTEX
  8
0
 10
19.48325911
 20
4.98652340
  0
VERTEX
  8
0
 10
19.45292225
 20
4.97080665
  0
VERTEX
  8
0
 10
19.42945909
 20
4.95720704
  0
VERTEX
  8
0
 10
19.41979077
 20
4.95173894
  0
VERTEX
  8
0
 10
19.38609505
 20
4.93150343
  0
VERTEX
  8
0
 10
19.38066084
 20
4.92821026
  0
VERTEX
  8
0
 10
19.36761394
 20
4.92093906
  0
VERTEX
  8
0
 10
19.35439639
 20
4.91463148
  0
VERTEX
  8
0
 10
19.34800386
 20
4.91131688
  0
VERTEX
  8
0
 10
19.34248990
 20
4.90802883
  0
VERTEX
  8
0
 10
19.34101088
 20
4.90691287
  0
VERTEX
  8
0
 10
19.33967673
 20
4.90544608
  0
VERTEX
  8
0
 10
19.33720090
 20
4.90312014
  0
VERTEX
  8
0
 10
19.33509708
 20
4.89990717
  0
VERTEX
  8
0
 10
19.33398731
 20
4.89790675
  0
VERTEX
  8
0
 10
19.33316778
 20
4.89522133
  0
VERTEX
  8
0
 10
19.33156255
 20
4.89082793
  0
VERTEX
  8
0
 10
19.33038473
 20
4.88439717
  0
VERTEX
  8
0
 10
19.32998578
 20
4.88178654
  0
VERTEX
  8
0
 10
19.32982668
 20
4.87863216
  0
VERTEX
  8
0
 10
19.32958563
 20
4.87003584
  0
VERTEX
  8
0
 10
19.32986581
 20
4.86587641
  0
VERTEX
  8
0
 10
19.33062596
 20
4.85500615
  0
VERTEX
  8
0
 10
19.33162384
 20
4.84784862
  0
VERTEX
  8
0
 10
19.33045378
 20
4.84705166
  0
VERTEX
  8
0
 10
19.31414580
 20
4.83581215
  0
VERTEX
  8
0
 10
19.30717154
 20
4.83086494
  0
VERTEX
  8
0
 10
19.30491951
 20
4.82917345
  0
VERTEX
  8
0
 10
19.29946838
 20
4.82508815
  0
VERTEX
  8
0
 10
19.29398977
 20
4.82099466
  0
VERTEX
  8
0
 10
19.29099326
 20
4.81934808
  0
VERTEX
  8
0
 10
19.28508025
 20
4.81462343
  0
VERTEX
  8
0
 10
19.28115897
 20
4.81681291
  0
VERTEX
  8
0
 10
19.27804596
 20
4.81840812
  0
VERTEX
  8
0
 10
19.27362371
 20
4.82056554
  0
VERTEX
  8
0
 10
19.26921047
 20
4.82251269
  0
VERTEX
  8
0
 10
19.25907200
 20
4.82692427
  0
VERTEX
  8
0
 10
19.25786421
 20
4.82737407
  0
VERTEX
  8
0
 10
19.25205293
 20
4.82955026
  0
VERTEX
  8
0
 10
19.25076150
 20
4.82992161
  0
VERTEX
  8
0
 10
19.24089704
 20
4.83285764
  0
VERTEX
  8
0
 10
19.23892372
 20
4.83338946
  0
VERTEX
  8
0
 10
19.23881043
 20
4.83341600
  0
VERTEX
  8
0
 10
19.23869236
 20
4.83343036
  0
VERTEX
  8
0
 10
19.23299008
 20
4.83422107
  0
VERTEX
  8
0
 10
19.22810941
 20
4.83409685
  0
VERTEX
  8
0
 10
19.22760856
 20
4.83408531
  0
VERTEX
  8
0
 10
19.22712920
 20
4.83397794
  0
VERTEX
  8
0
 10
19.22269301
 20
4.83296720
  0
VERTEX
  8
0
 10
19.22219783
 20
4.83272983
  0
VERTEX
  8
0
 10
19.21827424
 20
4.83082130
  0
VERTEX
  8
0
 10
19.21784433
 20
4.83047040
  0
VERTEX
  8
0
 10
19.21435392
 20
4.82767178
  0
VERTEX
  8
0
 10
19.21106979
 20
4.82403000
  0
VERTEX
  8
0
 10
19.21082826
 20
4.82372914
  0
VERTEX
  8
0
 10
19.20400074
 20
4.81571697
  0
VERTEX
  8
0
 10
19.20392726
 20
4.81561331
  0
VERTEX
  8
0
 10
19.20389487
 20
4.81556642
  0
VERTEX
  8
0
 10
19.20205454
 20
4.81382145
  0
VERTEX
  8
0
 10
19.20030220
 20
4.81205649
  0
VERTEX
  8
0
 10
19.20025717
 20
4.81202500
  0
VERTEX
  8
0
 10
19.19643681
 20
4.80901476
  0
VERTEX
  8
0
 10
19.19621629
 20
4.80891584
  0
VERTEX
  8
0
 10
19.19234652
 20
4.80601073
  0
VERTEX
  8
0
 10
19.18491206
 20
4.80037189
  0
VERTEX
  8
0
 10
19.18440017
 20
4.80010315
  0
VERTEX
  8
0
 10
19.18416341
 20
4.79992380
  0
VERTEX
  8
0
 10
19.18064212
 20
4.79675210
  0
VERTEX
  8
0
 10
19.17744842
 20
4.79336562
  0
VERTEX
  8
0
 10
19.17668597
 20
4.79271892
  0
VERTEX
  8
0
 10
19.17337981
 20
4.78959911
  0
VERTEX
  8
0
 10
19.16943427
 20
4.78783508
  0
VERTEX
  8
0
 10
19.16893334
 20
4.78758417
  0
VERTEX
  8
0
 10
19.16356173
 20
4.78806108
  0
VERTEX
  8
0
 10
19.16317624
 20
4.78802665
  0
VERTEX
  8
0
 10
19.16273944
 20
4.78815629
  0
VERTEX
  8
0
 10
19.15769842
 20
4.79078855
  0
VERTEX
  8
0
 10
19.15581834
 20
4.79166386
  0
VERTEX
  8
0
 10
19.15562266
 20
4.79178924
  0
VERTEX
  8
0
 10
19.15534714
 20
4.79198830
  0
VERTEX
  8
0
 10
19.14132489
 20
4.79988033
  0
VERTEX
  8
0
 10
19.13924609
 20
4.80144339
  0
VERTEX
  8
0
 10
19.13657426
 20
4.80332150
  0
VERTEX
  8
0
 10
19.13117851
 20
4.80592551
  0
VERTEX
  8
0
 10
19.12699733
 20
4.80744416
  0
VERTEX
  8
0
 10
19.12330280
 20
4.80997973
  0
VERTEX
  8
0
 10
19.11931878
 20
4.81192638
  0
VERTEX
  8
0
 10
19.11617981
 20
4.81259190
  0
VERTEX
  8
0
 10
19.11361483
 20
4.81269257
  0
VERTEX
  8
0
 10
19.10968958
 20
4.81400888
  0
VERTEX
  8
0
 10
19.10756066
 20
4.81387101
  0
VERTEX
  8
0
 10
19.10361515
 20
4.81463680
  0
VERTEX
  8
0
 10
19.09961526
 20
4.81481937
  0
VERTEX
  8
0
 10
19.09791261
 20
4.81456609
  0
VERTEX
  8
0
 10
19.09004033
 20
4.81363071
  0
VERTEX
  8
0
 10
19.08795147
 20
4.81313871
  0
VERTEX
  8
0
 10
19.08360549
 20
4.81187115
  0
VERTEX
  8
0
 10
19.07429890
 20
4.80927709
  0
VERTEX
  8
0
 10
19.07141428
 20
4.80833507
  0
VERTEX
  8
0
 10
19.05990448
 20
4.80418476
  0
VERTEX
  8
0
 10
19.05785388
 20
4.80358571
  0
VERTEX
  8
0
 10
19.05120807
 20
4.80088495
  0
VERTEX
  8
0
 10
19.03454656
 20
4.79344997
  0
VERTEX
  8
0
 10
19.01240167
 20
4.78222456
  0
VERTEX
  8
0
 10
19.00824687
 20
4.77990066
  0
VERTEX
  8
0
 10
18.98934588
 20
4.76881724
  0
VERTEX
  8
0
 10
18.98405866
 20
4.76531956
  0
VERTEX
  8
0
 10
18.98113739
 20
4.76305781
  0
VERTEX
  8
0
 10
18.96720101
 20
4.75338203
  0
VERTEX
  8
0
 10
18.95478638
 20
4.74352361
  0
VERTEX
  8
0
 10
18.94339705
 20
4.73410210
  0
VERTEX
  8
0
 10
18.93521255
 20
4.72642085
  0
VERTEX
  8
0
 10
18.92675014
 20
4.71824370
  0
VERTEX
  8
0
 10
18.92344769
 20
4.71473848
  0
VERTEX
  8
0
 10
18.91848527
 20
4.70882326
  0
VERTEX
  8
0
 10
18.90997295
 20
4.69895057
  0
VERTEX
  8
0
 10
18.90274673
 20
4.68905128
  0
VERTEX
  8
0
 10
18.89589211
 20
4.67955717
  0
VERTEX
  8
0
 10
18.89274690
 20
4.67606454
  0
VERTEX
  8
0
 10
18.88918655
 20
4.67187618
  0
VERTEX
  8
0
 10
18.88448484
 20
4.66840065
  0
VERTEX
  8
0
 10
18.88224132
 20
4.66644221
  0
VERTEX
  8
0
 10
18.86552469
 20
4.65573167
  0
VERTEX
  8
0
 10
18.84689632
 20
4.64321838
  0
VERTEX
  8
0
 10
18.84230577
 20
4.64011145
  0
VERTEX
  8
0
 10
18.84063878
 20
4.63873468
  0
VERTEX
  8
0
 10
18.83035265
 20
4.62974533
  0
VERTEX
  8
0
 10
18.82565954
 20
4.62524200
  0
VERTEX
  8
0
 10
18.81584554
 20
4.61586053
  0
VERTEX
  8
0
 10
18.81386753
 20
4.61358137
  0
VERTEX
  8
0
 10
18.80935024
 20
4.60800983
  0
VERTEX
  8
0
 10
18.80803757
 20
4.60583941
  0
VERTEX
  8
0
 10
18.80495010
 20
4.59952024
  0
VERTEX
  8
0
 10
18.80441452
 20
4.59829835
  0
VERTEX
  8
0
 10
18.80380906
 20
4.59522485
  0
VERTEX
  8
0
 10
18.80309021
 20
4.59208819
  0
VERTEX
  8
0
 10
18.80281587
 20
4.58788948
  0
VERTEX
  8
0
 10
18.80267407
 20
4.58481651
  0
VERTEX
  8
0
 10
18.80284719
 20
4.58318716
  0
VERTEX
  8
0
 10
18.80319553
 20
4.57646394
  0
VERTEX
  8
0
 10
18.80465986
 20
4.56776000
  0
VERTEX
  8
0
 10
18.80485568
 20
4.56681163
  0
VERTEX
  8
0
 10
18.80821149
 20
4.55330077
  0
VERTEX
  8
0
 10
18.80999460
 20
4.54591389
  0
VERTEX
  8
0
 10
18.81010433
 20
4.54542349
  0
VERTEX
  8
0
 10
18.81095982
 20
4.54226086
  0
VERTEX
  8
0
 10
18.81750366
 20
4.51789491
  0
VERTEX
  8
0
 10
18.81906596
 20
4.51262975
  0
VERTEX
  8
0
 10
18.82302994
 20
4.50304881
  0
VERTEX
  8
0
 10
18.82437336
 20
4.49974608
  0
VERTEX
  8
0
 10
18.81774578
 20
4.49557530
  0
VERTEX
  8
0
 10
18.81123483
 20
4.49144267
  0
VERTEX
  8
0
 10
18.80662708
 20
4.48798415
  0
VERTEX
  8
0
 10
18.79658561
 20
4.48040407
  0
VERTEX
  8
0
 10
18.79121804
 20
4.47593918
  0
VERTEX
  8
0
 10
18.78068507
 20
4.46612442
  0
VERTEX
  8
0
 10
18.77874792
 20
4.46430186
  0
VERTEX
  8
0
 10
18.77608026
 20
4.46131755
  0
VERTEX
  8
0
 10
18.77099987
 20
4.45537806
  0
VERTEX
  8
0
 10
18.76933737
 20
4.45337812
  0
VERTEX
  8
0
 10
18.76717900
 20
4.45065545
  0
VERTEX
  8
0
 10
18.76049901
 20
4.44188600
  0
VERTEX
  8
0
 10
18.75430988
 20
4.43264276
  0
VERTEX
  8
0
 10
18.75239649
 20
4.42967534
  0
VERTEX
  8
0
 10
18.75057710
 20
4.42662833
  0
VERTEX
  8
0
 10
18.74510367
 20
4.41669977
  0
VERTEX
  8
0
 10
18.73985857
 20
4.40660654
  0
VERTEX
  8
0
 10
18.73760608
 20
4.40158919
  0
VERTEX
  8
0
 10
18.73449012
 20
4.39262669
  0
VERTEX
  8
0
 10
18.73320792
 20
4.38894252
  0
VERTEX
  8
0
 10
18.73296586
 20
4.38810009
  0
VERTEX
  8
0
 10
18.73269327
 20
4.38698699
  0
VERTEX
  8
0
 10
18.72954386
 20
4.37207360
  0
VERTEX
  8
0
 10
18.72910571
 20
4.36885314
  0
VERTEX
  8
0
 10
18.72878448
 20
4.36538986
  0
VERTEX
  8
0
 10
18.71671616
 20
4.35341492
  0
VERTEX
  8
0
 10
18.71514068
 20
4.35174316
  0
VERTEX
  8
0
 10
18.70762427
 20
4.34330219
  0
VERTEX
  8
0
 10
18.70351979
 20
4.33815604
  0
VERTEX
  8
0
 10
18.69797673
 20
4.33085040
  0
VERTEX
  8
0
 10
18.69413354
 20
4.32446719
  0
VERTEX
  8
0
 10
18.68458976
 20
4.31445629
  0
VERTEX
  8
0
 10
18.68336600
 20
4.31309618
  0
VERTEX
  8
0
 10
18.68252630
 20
4.31207724
  0
VERTEX
  8
0
 10
18.67106176
 20
4.29683586
  0
VERTEX
  8
0
 10
18.66717354
 20
4.29080189
  0
VERTEX
  8
0
 10
18.65959445
 20
4.27832811
  0
VERTEX
  8
0
 10
18.65890345
 20
4.27690947
  0
VERTEX
  8
0
 10
18.65188941
 20
4.26060636
  0
VERTEX
  8
0
 10
18.65109847
 20
4.25831329
  0
VERTEX
  8
0
 10
18.64798406
 20
4.24743925
  0
VERTEX
  8
0
 10
18.64619296
 20
4.23911656
  0
VERTEX
  8
0
 10
18.63274132
 20
4.22921285
  0
VERTEX
  8
0
 10
18.62512348
 20
4.22305599
  0
VERTEX
  8
0
 10
18.61962228
 20
4.21789258
  0
VERTEX
  8
0
 10
18.61384773
 20
4.21237680
  0
VERTEX
  8
0
 10
18.60547939
 20
4.20244094
  0
VERTEX
  8
0
 10
18.60486973
 20
4.20168717
  0
VERTEX
  8
0
 10
18.60396190
 20
4.20034698
  0
VERTEX
  8
0
 10
18.58550148
 20
4.17269756
  0
VERTEX
  8
0
 10
18.58080383
 20
4.16475563
  0
VERTEX
  8
0
 10
18.57636537
 20
4.15702548
  0
VERTEX
  8
0
 10
18.57184613
 20
4.14776399
  0
VERTEX
  8
0
 10
18.56822112
 20
4.13999168
  0
VERTEX
  8
0
 10
18.56308674
 20
4.12557592
  0
VERTEX
  8
0
 10
18.56251137
 20
4.12398014
  0
VERTEX
  8
0
 10
18.56222935
 20
4.12302503
  0
VERTEX
  8
0
 10
18.56134557
 20
4.11945776
  0
VERTEX
  8
0
 10
18.55852197
 20
4.10784188
  0
VERTEX
  8
0
 10
18.55772044
 20
4.10298267
  0
VERTEX
  8
0
 10
18.55408627
 20
4.10104629
  0
VERTEX
  8
0
 10
18.54616894
 20
4.09610324
  0
VERTEX
  8
0
 10
18.54444806
 20
4.09632678
  0
VERTEX
  8
0
 10
18.54133933
 20
4.09643314
  0
VERTEX
  8
0
 10
18.53539393
 20
4.09693603
  0
VERTEX
  8
0
 10
18.53025321
 20
4.09685828
  0
VERTEX
  8
0
 10
18.52756123
 20
4.09666424
  0
VERTEX
  8
0
 10
18.52308009
 20
4.09611428
  0
VERTEX
  8
0
 10
18.51640350
 20
4.09453177
  0
VERTEX
  8
0
 10
18.51469494
 20
4.09412160
  0
VERTEX
  8
0
 10
18.51092608
 20
4.09258434
  0
VERTEX
  8
0
 10
18.50856218
 20
4.09156061
  0
VERTEX
  8
0
 10
18.50069549
 20
4.08658208
  0
VERTEX
  8
0
 10
18.50014783
 20
4.08616312
  0
VERTEX
  8
0
 10
18.49531014
 20
4.08128263
  0
VERTEX
  8
0
 10
18.49141928
 20
4.07665938
  0
VERTEX
  8
0
 10
18.48853468
 20
4.07209853
  0
VERTEX
  8
0
 10
18.48538272
 20
4.06450464
  0
VERTEX
  8
0
 10
18.48459241
 20
4.06294340
  0
VERTEX
  8
0
 10
18.48349166
 20
4.05858894
  0
VERTEX
  8
0
 10
18.48335937
 20
4.05815791
  0
VERTEX
  8
0
 10
18.48329108
 20
4.05717226
  0
VERTEX
  8
0
 10
18.48284072
 20
4.05108005
  0
VERTEX
  8
0
 10
18.48351600
 20
4.04746993
  0
VERTEX
  8
0
 10
18.48404569
 20
4.04477978
  0
VERTEX
  8
0
 10
18.48588089
 20
4.04045482
  0
VERTEX
  8
0
 10
18.48740428
 20
4.03739828
  0
VERTEX
  8
0
 10
18.48433999
 20
4.03280512
  0
VERTEX
  8
0
 10
18.48078213
 20
4.02733436
  0
VERTEX
  8
0
 10
18.47721967
 20
4.02123523
  0
VERTEX
  8
0
 10
18.47349804
 20
4.02195530
  0
VERTEX
  8
0
 10
18.46932787
 20
4.02325670
  0
VERTEX
  8
0
 10
18.46440374
 20
4.02395699
  0
VERTEX
  8
0
 10
18.45527372
 20
4.02634693
  0
VERTEX
  8
0
 10
18.45482327
 20
4.02634885
  0
VERTEX
  8
0
 10
18.44342449
 20
4.02802486
  0
VERTEX
  8
0
 10
18.44153772
 20
4.02756052
  0
VERTEX
  8
0
 10
18.43553507
 20
4.02725163
  0
VERTEX
  8
0
 10
18.43264683
 20
4.02587691
  0
VERTEX
  8
0
 10
18.42841147
 20
4.02253441
  0
VERTEX
  8
0
 10
18.42696046
 20
4.02130307
  0
VERTEX
  8
0
 10
18.42493007
 20
4.01881061
  0
VERTEX
  8
0
 10
18.41695066
 20
4.00899118
  0
VERTEX
  8
0
 10
18.40877117
 20
3.99625116
  0
VERTEX
  8
0
 10
18.39860308
 20
3.97983984
  0
VERTEX
  8
0
 10
18.38520758
 20
3.95318661
  0
VERTEX
  8
0
 10
18.38475385
 20
3.95223456
  0
VERTEX
  8
0
 10
18.38432139
 20
3.95153150
  0
VERTEX
  8
0
 10
18.37848702
 20
3.94173702
  0
VERTEX
  8
0
 10
18.37289297
 20
3.93369135
  0
VERTEX
  8
0
 10
18.36714851
 20
3.92684640
  0
VERTEX
  8
0
 10
18.36250168
 20
3.92075828
  0
VERTEX
  8
0
 10
18.34934218
 20
3.90717540
  0
VERTEX
  8
0
 10
18.33998064
 20
3.89690372
  0
VERTEX
  8
0
 10
18.33287049
 20
3.88863538
  0
VERTEX
  8
0
 10
18.32008874
 20
3.87180429
  0
VERTEX
  8
0
 10
18.31713284
 20
3.86771081
  0
VERTEX
  8
0
 10
18.31622465
 20
3.86623371
  0
VERTEX
  8
0
 10
18.30291383
 20
3.84448318
  0
VERTEX
  8
0
 10
18.29419472
 20
3.82776678
  0
VERTEX
  8
0
 10
18.29213529
 20
3.82367923
  0
VERTEX
  8
0
 10
18.29101786
 20
3.82101356
  0
VERTEX
  8
0
 10
18.28253426
 20
3.79826356
  0
VERTEX
  8
0
 10
18.28027889
 20
3.79105514
  0
VERTEX
  8
0
 10
18.27509431
 20
3.77094033
  0
VERTEX
  8
0
 10
18.26954090
 20
3.74786925
  0
VERTEX
  8
0
 10
18.26285762
 20
3.71456668
  0
VERTEX
  8
0
 10
18.26171947
 20
3.70907469
  0
VERTEX
  8
0
 10
18.26163560
 20
3.70846381
  0
VERTEX
  8
0
 10
18.26151829
 20
3.70621134
  0
VERTEX
  8
0
 10
18.26116019
 20
3.69906325
  0
VERTEX
  8
0
 10
18.26224290
 20
3.69407632
  0
VERTEX
  8
0
 10
18.26234205
 20
3.69353405
  0
VERTEX
  8
0
 10
18.26257657
 20
3.69307239
  0
VERTEX
  8
0
 10
18.26593129
 20
3.68715088
  0
VERTEX
  8
0
 10
18.27099508
 20
3.68216555
  0
VERTEX
  8
0
 10
18.27434145
 20
3.67906060
  0
VERTEX
  8
0
 10
18.27837382
 20
3.67623244
  0
VERTEX
  8
0
 10
18.28440226
 20
3.67226253
  0
VERTEX
  8
0
 10
18.29017713
 20
3.66837894
  0
VERTEX
  8
0
 10
18.30661281
 20
3.65933835
  0
VERTEX
  8
0
 10
18.31216813
 20
3.65623113
  0
VERTEX
  8
0
 10
18.31529300
 20
3.65450591
  0
VERTEX
  8
0
 10
18.33684012
 20
3.64378098
  0
VERTEX
  8
0
 10
18.34413597
 20
3.64013763
  0
VERTEX
  8
0
 10
18.34412490
 20
3.64010166
  0
VERTEX
  8
0
 10
18.34395031
 20
3.63942993
  0
VERTEX
  8
0
 10
18.34362571
 20
3.63836670
  0
VERTEX
  8
0
 10
18.33994965
 20
3.62461624
  0
VERTEX
  8
0
 10
18.33902300
 20
3.62199301
  0
VERTEX
  8
0
 10
18.33697191
 20
3.61486497
  0
VERTEX
  8
0
 10
18.33460528
 20
3.60691406
  0
VERTEX
  8
0
 10
18.33323092
 20
3.60213907
  0
VERTEX
  8
0
 10
18.33186698
 20
3.59733550
  0
VERTEX
  8
0
 10
18.32982251
 20
3.59009658
  0
VERTEX
  8
0
 10
18.32556630
 20
3.57470554
  0
VERTEX
  8
0
 10
18.32400397
 20
3.56954498
  0
VERTEX
  8
0
 10
18.32246745
 20
3.56438472
  0
VERTEX
  8
0
 10
18.32168986
 20
3.56115961
  0
VERTEX
  8
0
 10
18.31580669
 20
3.56253647
  0
VERTEX
  8
0
 10
18.27747252
 20
3.57038844
  0
VERTEX
  8
0
 10
18.27373291
 20
3.57113985
  0
VERTEX
  8
0
 10
18.26830285
 20
3.57203447
  0
VERTEX
  8
0
 10
18.25997677
 20
3.57303762
  0
VERTEX
  8
0
 10
18.24605163
 20
3.57377505
  0
VERTEX
  8
0
 10
18.24162167
 20
3.57359017
  0
VERTEX
  8
0
 10
18.23476709
 20
3.57217453
  0
VERTEX
  8
0
 10
18.22962152
 20
3.56924287
  0
VERTEX
  8
0
 10
18.22882886
 20
3.56895830
  0
VERTEX
  8
0
 10
18.22816476
 20
3.56833756
  0
VERTEX
  8
0
 10
18.22415127
 20
3.56304726
  0
VERTEX
  8
0
 10
18.22227758
 20
3.56007335
  0
VERTEX
  8
0
 10
18.21992004
 20
3.55498678
  0
VERTEX
  8
0
 10
18.20554568
 20
3.52316435
  0
VERTEX
  8
0
 10
18.19918657
 20
3.50617484
  0
VERTEX
  8
0
 10
18.19214670
 20
3.48694423
  0
VERTEX
  8
0
 10
18.18599413
 20
3.46679178
  0
VERTEX
  8
0
 10
18.18382216
 20
3.45855205
  0
VERTEX
  8
0
 10
18.18020020
 20
3.44324823
  0
VERTEX
  8
0
 10
18.17922235
 20
3.43723774
  0
VERTEX
  8
0
 10
18.17787563
 20
3.42836501
  0
VERTEX
  8
0
 10
18.17718648
 20
3.42352020
  0
VERTEX
  8
0
 10
18.17697777
 20
3.42033002
  0
VERTEX
  8
0
 10
18.17694276
 20
3.41972485
  0
VERTEX
  8
0
 10
18.16584649
 20
3.39698744
  0
VERTEX
  8
0
 10
18.16120130
 20
3.38623533
  0
VERTEX
  8
0
 10
18.14915794
 20
3.35590075
  0
VERTEX
  8
0
 10
18.13875197
 20
3.32610944
  0
VERTEX
  8
0
 10
18.13787301
 20
3.32339314
  0
VERTEX
  8
0
 10
18.12897108
 20
3.29139446
  0
VERTEX
  8
0
 10
18.12860355
 20
3.28995140
  0
VERTEX
  8
0
 10
18.12757846
 20
3.28538253
  0
VERTEX
  8
0
 10
18.12311401
 20
3.26465849
  0
VERTEX
  8
0
 10
18.12191447
 20
3.25902815
  0
VERTEX
  8
0
 10
18.12060460
 20
3.25070368
  0
VERTEX
  8
0
 10
18.11710324
 20
3.22837436
  0
VERTEX
  8
0
 10
18.11595790
 20
3.21705531
  0
VERTEX
  8
0
 10
18.11522084
 20
3.20587152
  0
VERTEX
  8
0
 10
18.11536892
 20
3.19749768
  0
VERTEX
  8
0
 10
18.11569326
 20
3.18677799
  0
VERTEX
  8
0
 10
18.11771920
 20
3.16527995
  0
VERTEX
  8
0
 10
18.11850801
 20
3.15572366
  0
VERTEX
  8
0
 10
18.11846492
 20
3.14621340
  0
VERTEX
  8
0
 10
18.11896437
 20
3.13842052
  0
VERTEX
  8
0
 10
18.11876769
 20
3.13510075
  0
VERTEX
  8
0
 10
18.11837714
 20
3.12578859
  0
VERTEX
  8
0
 10
18.11516538
 20
3.10060327
  0
VERTEX
  8
0
 10
18.11459793
 20
3.09517622
  0
VERTEX
  8
0
 10
18.11343555
 20
3.07635191
  0
VERTEX
  8
0
 10
18.11227386
 20
3.04209498
  0
VERTEX
  8
0
 10
18.11218922
 20
3.03943162
  0
VERTEX
  8
0
 10
18.11221316
 20
3.03743521
  0
VERTEX
  8
0
 10
18.11294288
 20
3.02000161
  0
VERTEX
  8
0
 10
18.11492726
 20
2.99712702
  0
VERTEX
  8
0
 10
18.11518860
 20
2.99477093
  0
VERTEX
  8
0
 10
18.11596805
 20
2.98981979
  0
VERTEX
  8
0
 10
18.12134111
 20
2.95617063
  0
VERTEX
  8
0
 10
18.12258199
 20
2.94994419
  0
VERTEX
  8
0
 10
18.12918281
 20
2.91940755
  0
VERTEX
  8
0
 10
18.13206200
 20
2.90509990
  0
VERTEX
  8
0
 10
18.13229159
 20
2.90351670
  0
VERTEX
  8
0
 10
18.13313437
 20
2.89813741
  0
VERTEX
  8
0
 10
18.13774981
 20
2.87393707
  0
VERTEX
  8
0
 10
18.13895364
 20
2.86866668
  0
VERTEX
  8
0
 10
18.13816996
 20
2.85608424
  0
VERTEX
  8
0
 10
18.13747683
 20
2.84253012
  0
VERTEX
  8
0
 10
18.13741382
 20
2.84064759
  0
VERTEX
  8
0
 10
18.13762729
 20
2.81458122
  0
VERTEX
  8
0
 10
18.13775945
 20
2.80519401
  0
VERTEX
  8
0
 10
18.13970271
 20
2.76856275
  0
VERTEX
  8
0
 10
18.14181171
 20
2.73732190
  0
VERTEX
  8
0
 10
18.14219724
 20
2.72861485
  0
VERTEX
  8
0
 10
18.14277012
 20
2.72025298
  0
VERTEX
  8
0
 10
18.14243589
 20
2.70701373
  0
VERTEX
  8
0
 10
18.14441232
 20
2.67364799
  0
VERTEX
  8
0
 10
18.14529849
 20
2.66260051
  0
VERTEX
  8
0
 10
18.14915280
 20
2.63829981
  0
VERTEX
  8
0
 10
18.14922775
 20
2.63784161
  0
VERTEX
  8
0
 10
18.14971603
 20
2.63570057
  0
VERTEX
  8
0
 10
18.15452417
 20
2.61445955
  0
VERTEX
  8
0
 10
18.15916474
 20
2.59847416
  0
VERTEX
  8
0
 10
18.16250761
 20
2.58950651
  0
VERTEX
  8
0
 10
18.16744831
 20
2.57614072
  0
VERTEX
  8
0
 10
18.17795918
 20
2.55273307
  0
VERTEX
  8
0
 10
18.20360455
 20
2.50039656
  0
VERTEX
  8
0
 10
18.20554462
 20
2.49641876
  0
VERTEX
  8
0
 10
18.20894553
 20
2.48894623
  0
VERTEX
  8
0
 10
18.22107438
 20
2.46327714
  0
VERTEX
  8
0
 10
18.22599201
 20
2.45098040
  0
VERTEX
  8
0
 10
18.23224802
 20
2.43505963
  0
VERTEX
  8
0
 10
18.23637005
 20
2.42217121
  0
VERTEX
  8
0
 10
18.24016175
 20
2.41126190
  0
VERTEX
  8
0
 10
18.24390665
 20
2.39675741
  0
VERTEX
  8
0
 10
18.24553877
 20
2.39112932
  0
VERTEX
  8
0
 10
18.24613838
 20
2.38836684
  0
VERTEX
  8
0
 10
18.24868552
 20
2.37403455
  0
VERTEX
  8
0
 10
18.25069721
 20
2.36584520
  0
VERTEX
  8
0
 10
18.25230462
 20
2.35733857
  0
VERTEX
  8
0
 10
18.25368095
 20
2.35081312
  0
VERTEX
  8
0
 10
18.25458522
 20
2.34768920
  0
VERTEX
  8
0
 10
18.25556987
 20
2.34455183
  0
VERTEX
  8
0
 10
18.25739416
 20
2.33966844
  0
VERTEX
  8
0
 10
18.25898243
 20
2.33651421
  0
VERTEX
  8
0
 10
18.26122291
 20
2.33363512
  0
VERTEX
  8
0
 10
18.26311922
 20
2.33137979
  0
VERTEX
  8
0
 10
18.26508250
 20
2.32996119
  0
VERTEX
  8
0
 10
18.26877952
 20
2.32808747
  0
VERTEX
  8
0
 10
18.27140435
 20
2.32723273
  0
VERTEX
  8
0
 10
18.27470807
 20
2.32702460
  0
VERTEX
  8
0
 10
18.28108620
 20
2.32581034
  0
VERTEX
  8
0
 10
18.29496123
 20
2.32612286
  0
VERTEX
  8
0
 10
18.29522035
 20
2.32614197
  0
VERTEX
  8
0
 10
18.29543802
 20
2.32618019
  0
VERTEX
  8
0
 10
18.29606940
 20
2.32625869
  0
VERTEX
  8
0
 10
18.31151685
 20
2.32851000
  0
VERTEX
  8
0
 10
18.31531303
 20
2.32884733
  0
VERTEX
  8
0
 10
18.32630283
 20
2.33090211
  0
VERTEX
  8
0
 10
18.33699801
 20
2.33307675
  0
VERTEX
  8
0
 10
18.33800214
 20
2.32060846
  0
VERTEX
  8
0
 10
18.34127032
 20
2.30338950
  0
VERTEX
  8
0
 10
18.34173788
 20
2.30079517
  0
VERTEX
  8
0
 10
18.34306491
 20
2.29616024
  0
VERTEX
  8
0
 10
18.34704491
 20
2.28254099
  0
VERTEX
  8
0
 10
18.35265383
 20
2.26574165
  0
VERTEX
  8
0
 10
18.35470875
 20
2.25977468
  0
VERTEX
  8
0
 10
18.35564499
 20
2.25752545
  0
VERTEX
  8
0
 10
18.36357368
 20
2.23927393
  0
VERTEX
  8
0
 10
18.36589751
 20
2.23516450
  0
VERTEX
  8
0
 10
18.36821507
 20
2.23132044
  0
VERTEX
  8
0
 10
18.37070754
 20
2.22756257
  0
VERTEX
  8
0
 10
18.37623961
 20
2.21966657
  0
VERTEX
  8
0
 10
18.37962908
 20
2.21524872
  0
VERTEX
  8
0
 10
18.38863016
 20
2.20427452
  0
VERTEX
  8
0
 10
18.38860355
 20
2.20378402
  0
VERTEX
  8
0
 10
18.38841821
 20
2.19811104
  0
VERTEX
  8
0
 10
18.38841593
 20
2.19559534
  0
VERTEX
  8
0
 10
18.38872499
 20
2.18954635
  0
VERTEX
  8
0
 10
18.38993144
 20
2.17619296
  0
VERTEX
  8
0
 10
18.39025420
 20
2.17314251
  0
VERTEX
  8
0
 10
18.39299553
 20
2.16026834
  0
VERTEX
  8
0
 10
18.39420200
 20
2.15475816
  0
VERTEX
  8
0
 10
18.39464669
 20
2.15331521
  0
VERTEX
  8
0
 10
18.40163122
 20
2.13440726
  0
VERTEX
  8
0
 10
18.40490850
 20
2.12687751
  0
VERTEX
  8
0
 10
18.41113863
 20
2.11469532
  0
VERTEX
  8
0
 10
18.41391952
 20
2.10986702
  0
VERTEX
  8
0
 10
18.41613381
 20
2.10313155
  0
VERTEX
  8
0
 10
18.41690750
 20
2.10118651
  0
VERTEX
  8
0
 10
18.42164194
 20
2.09001373
  0
VERTEX
  8
0
 10
18.42269512
 20
2.08782749
  0
VERTEX
  8
0
 10
18.42489919
 20
2.08259082
  0
VERTEX
  8
0
 10
18.43158047
 20
2.07095741
  0
VERTEX
  8
0
 10
18.43266815
 20
2.06911135
  0
VERTEX
  8
0
 10
18.43346692
 20
2.06774552
  0
VERTEX
  8
0
 10
18.43755673
 20
2.06115878
  0
VERTEX
  8
0
 10
18.43667169
 20
2.05386832
  0
VERTEX
  8
0
 10
18.43602986
 20
2.04537396
  0
VERTEX
  8
0
 10
18.43594751
 20
2.03940894
  0
VERTEX
  8
0
 10
18.43626907
 20
2.03259248
  0
VERTEX
  8
0
 10
18.43691728
 20
2.02593475
  0
VERTEX
  8
0
 10
18.43773188
 20
2.01979120
  0
VERTEX
  8
0
 10
18.43935414
 20
2.01143078
  0
VERTEX
  8
0
 10
18.44011922
 20
2.00778409
  0
VERTEX
  8
0
 10
18.44133053
 20
2.00335522
  0
VERTEX
  8
0
 10
18.44400367
 20
1.99425416
  0
VERTEX
  8
0
 10
18.44466373
 20
1.99231180
  0
VERTEX
  8
0
 10
18.45011698
 20
1.97729340
  0
VERTEX
  8
0
 10
18.45170250
 20
1.97322084
  0
VERTEX
  8
0
 10
18.45674472
 20
1.96212396
  0
VERTEX
  8
0
 10
18.45904452
 20
1.95729102
  0
VERTEX
  8
0
 10
18.45966682
 20
1.95610991
  0
VERTEX
  8
0
 10
18.47038447
 20
1.93855191
  0
VERTEX
  8
0
 10
18.47150148
 20
1.93689932
  0
VERTEX
  8
0
 10
18.47260670
 20
1.93550509
  0
VERTEX
  8
0
 10
18.48341174
 20
1.92188244
  0
VERTEX
  8
0
 10
18.49201298
 20
1.91203196
  0
VERTEX
  8
0
 10
18.49388991
 20
1.91010014
  0
VERTEX
  8
0
 10
18.49989897
 20
1.90427514
  0
VERTEX
  8
0
 10
18.51198373
 20
1.89369055
  0
VERTEX
  8
0
 10
18.51468194
 20
1.89139503
  0
VERTEX
  8
0
 10
18.51894716
 20
1.88815071
  0
VERTEX
  8
0
 10
18.53450747
 20
1.87616141
  0
VERTEX
  8
0
 10
18.54258123
 20
1.87006887
  0
VERTEX
  8
0
 10
18.55141498
 20
1.86060323
  0
VERTEX
  8
0
 10
18.55205366
 20
1.85998571
  0
VERTEX
  8
0
 10
18.55281513
 20
1.85891380
  0
VERTEX
  8
0
 10
18.55415057
 20
1.85662870
  0
VERTEX
  8
0
 10
18.55875237
 20
1.84941346
  0
VERTEX
  8
0
 10
18.55946865
 20
1.84781547
  0
VERTEX
  8
0
 10
18.55317035
 20
1.83871484
  0
VERTEX
  8
0
 10
18.54261884
 20
1.82731033
  0
VERTEX
  8
0
 10
18.52688488
 20
1.81091161
  0
VERTEX
  8
0
 10
18.51404032
 20
1.79659838
  0
VERTEX
  8
0
 10
18.51008319
 20
1.79184094
  0
VERTEX
  8
0
 10
18.50728156
 20
1.78794254
  0
VERTEX
  8
0
 10
18.49854453
 20
1.77669762
  0
VERTEX
  8
0
 10
18.49334183
 20
1.76811707
  0
VERTEX
  8
0
 10
18.49154403
 20
1.76497099
  0
VERTEX
  8
0
 10
18.49085774
 20
1.76267424
  0
VERTEX
  8
0
 10
18.48878360
 20
1.75648453
  0
VERTEX
  8
0
 10
18.48914793
 20
1.75217790
  0
VERTEX
  8
0
 10
18.48938510
 20
1.75059493
  0
VERTEX
  8
0
 10
18.49038484
 20
1.74871870
  0
VERTEX
  8
0
 10
18.49549540
 20
1.73900458
  0
VERTEX
  8
0
 10
18.50015269
 20
1.73167515
  0
VERTEX
  8
0
 10
18.50628460
 20
1.72192630
  0
VERTEX
  8
0
 10
18.50911480
 20
1.71773048
  0
VERTEX
  8
0
 10
18.51794957
 20
1.70558302
  0
VERTEX
  8
0
 10
18.52834200
 20
1.69173400
  0
VERTEX
  8
0
 10
18.53768878
 20
1.68075838
  0
VERTEX
  8
0
 10
18.54609390
 20
1.67103251
  0
VERTEX
  8
0
 10
18.55405729
 20
1.66267836
  0
VERTEX
  8
0
 10
18.56315194
 20
1.65356997
  0
VERTEX
  8
0
 10
18.57082418
 20
1.64584184
  0
VERTEX
  8
0
 10
18.57287601
 20
1.64393081
  0
VERTEX
  8
0
 10
18.57354317
 20
1.64327894
  0
VERTEX
  8
0
 10
18.57518266
 20
1.64131012
  0
VERTEX
  8
0
 10
18.57809118
 20
1.63809165
  0
VERTEX
  8
0
 10
18.58047451
 20
1.63446311
  0
VERTEX
  8
0
 10
18.58159522
 20
1.63285567
  0
VERTEX
  8
0
 10
18.58215621
 20
1.63200718
  0
VERTEX
  8
0
 10
18.58257680
 20
1.63142952
  0
VERTEX
  8
0
 10
18.60090032
 20
1.60843892
  0
VERTEX
  8
0
 10
18.60128993
 20
1.60796840
  0
VERTEX
  8
0
 10
18.60224852
 20
1.60694838
  0
VERTEX
  8
0
 10
18.61643682
 20
1.59219454
  0
VERTEX
  8
0
 10
18.62209834
 20
1.58704403
  0
VERTEX
  8
0
 10
18.62249231
 20
1.58668562
  0
VERTEX
  8
0
 10
18.62266480
 20
1.58652870
  0
VERTEX
  8
0
 10
18.62309785
 20
1.58613474
  0
VERTEX
  8
0
 10
18.62401044
 20
1.58534646
  0
VERTEX
  8
0
 10
18.62581106
 20
1.58379113
  0
VERTEX
  8
0
 10
18.63216224
 20
1.57830512
  0
VERTEX
  8
0
 10
18.64012574
 20
1.57229605
  0
VERTEX
  8
0
 10
18.64734790
 20
1.56667048
  0
VERTEX
  8
0
 10
18.65708315
 20
1.55889863
  0
VERTEX
  8
0
 10
18.66609571
 20
1.55268161
  0
VERTEX
  8
0
 10
18.67689524
 20
1.54523798
  0
VERTEX
  8
0
 10
18.67897338
 20
1.54387659
  0
VERTEX
  8
0
 10
18.68230128
 20
1.54182393
  0
VERTEX
  8
0
 10
18.69193466
 20
1.53623024
  0
VERTEX
  8
0
 10
18.69414464
 20
1.53507653
  0
VERTEX
  8
0
 10
18.70862781
 20
1.52771328
  0
VERTEX
  8
0
 10
18.71464224
 20
1.52465948
  0
VERTEX
  8
0
 10
18.71895960
 20
1.52253708
  0
VERTEX
  8
0
 10
18.72984836
 20
1.51846780
  0
VERTEX
  8
0
 10
18.73821108
 20
1.51702714
  0
VERTEX
  8
0
 10
18.74097143
 20
1.51595832
  0
VERTEX
  8
0
 10
18.74243814
 20
1.51552516
  0
VERTEX
  8
0
 10
18.74478458
 20
1.51553877
  0
VERTEX
  8
0
 10
18.75000620
 20
1.51324801
  0
VERTEX
  8
0
 10
18.75667219
 20
1.50940140
  0
VERTEX
  8
0
 10
18.75955942
 20
1.50706890
  0
VERTEX
  8
0
 10
18.76146473
 20
1.50550006
  0
VERTEX
  8
0
 10
18.76960250
 20
1.49660346
  0
VERTEX
  8
0
 10
18.77278638
 20
1.49322412
  0
VERTEX
  8
0
 10
18.77389811
 20
1.49244504
  0
VERTEX
  8
0
 10
18.78199834
 20
1.48653942
  0
VERTEX
  8
0
 10
18.79137256
 20
1.48179807
  0
VERTEX
  8
0
 10
18.79750534
 20
1.47905867
  0
VERTEX
  8
0
 10
18.80207679
 20
1.47616864
  0
VERTEX
  8
0
 10
18.80360595
 20
1.47509649
  0
VERTEX
  8
0
 10
18.80715339
 20
1.47238331
  0
VERTEX
  8
0
 10
18.81011679
 20
1.46903468
  0
VERTEX
  8
0
 10
18.81800987
 20
1.45946343
  0
VERTEX
  8
0
 10
18.83188251
 20
1.44116376
  0
VERTEX
  8
0
 10
18.83420175
 20
1.43835662
  0
VERTEX
  8
0
 10
18.84996414
 20
1.41955235
  0
VERTEX
  8
0
 10
18.87441028
 20
1.39255738
  0
VERTEX
  8
0
 10
18.87872441
 20
1.38796126
  0
VERTEX
  8
0
 10
18.88287367
 20
1.38394024
  0
VERTEX
  8
0
 10
18.89610764
 20
1.37133522
  0
VERTEX
  8
0
 10
18.90807319
 20
1.36098079
  0
VERTEX
  8
0
 10
18.91214251
 20
1.35716110
  0
VERTEX
  8
0
 10
18.91604315
 20
1.35389968
  0
VERTEX
  8
0
 10
18.92867316
 20
1.34389913
  0
VERTEX
  8
0
 10
18.93578228
 20
1.33864593
  0
VERTEX
  8
0
 10
18.94523303
 20
1.33211434
  0
VERTEX
  8
0
 10
18.96045061
 20
1.32276998
  0
VERTEX
  8
0
 10
18.96549740
 20
1.31939045
  0
VERTEX
  8
0
 10
18.97674426
 20
1.31335015
  0
VERTEX
  8
0
 10
18.98600546
 20
1.30854880
  0
VERTEX
  8
0
 10
19.00050902
 20
1.30200607
  0
VERTEX
  8
0
 10
19.01109472
 20
1.29775082
  0
VERTEX
  8
0
 10
19.02274513
 20
1.29349340
  0
VERTEX
  8
0
 10
19.03736453
 20
1.28912019
  0
VERTEX
  8
0
 10
19.04827745
 20
1.28590787
  0
VERTEX
  8
0
 10
19.06271557
 20
1.28182814
  0
VERTEX
  8
0
 10
19.07019788
 20
1.27983736
  0
VERTEX
  8
0
 10
19.07209127
 20
1.27916803
  0
VERTEX
  8
0
 10
19.09498675
 20
1.27143904
  0
VERTEX
  8
0
 10
19.11759683
 20
1.26563107
  0
VERTEX
  8
0
 10
19.11805408
 20
1.26550788
  0
VERTEX
  8
0
 10
19.11820555
 20
1.26547291
  0
VERTEX
  8
0
 10
19.11873226
 20
1.26554997
  0
VERTEX
  8
0
 10
19.12452084
 20
1.26671484
  0
VERTEX
  8
0
 10
19.12667233
 20
1.26812310
  0
VERTEX
  8
0
 10
19.13336238
 20
1.27254125
  0
VERTEX
  8
0
 10
19.13422580
 20
1.27350610
  0
VERTEX
  8
0
 10
19.14130135
 20
1.28103109
  0
VERTEX
  8
0
 10
19.14148053
 20
1.28077269
  0
VERTEX
  8
0
 10
19.14268279
 20
1.27933506
  0
VERTEX
  8
0
 10
19.15404000
 20
1.27090924
  0
VERTEX
  8
0
 10
19.15759328
 20
1.26827325
  0
VERTEX
  8
0
 10
19.15841216
 20
1.26765997
  0
VERTEX
  8
0
 10
19.15922794
 20
1.26713603
  0
VERTEX
  8
0
 10
19.16025720
 20
1.26652079
  0
VERTEX
  8
0
 10
19.18524487
 20
1.25164314
  0
VERTEX
  8
0
 10
19.19825533
 20
1.24525370
  0
VERTEX
  8
0
 10
19.20765785
 20
1.24044600
  0
VERTEX
  8
0
 10
19.22522178
 20
1.23280299
  0
VERTEX
  8
0
 10
19.24239786
 20
1.22633532
  0
VERTEX
  8
0
 10
19.24877700
 20
1.22408621
  0
VERTEX
  8
0
 10
19.26254810
 20
1.21978418
  0
VERTEX
  8
0
 10
19.26467784
 20
1.21913197
  0
VERTEX
  8
0
 10
19.26624689
 20
1.21867826
  0
VERTEX
  8
0
 10
19.29356515
 20
1.21180597
  0
VERTEX
  8
0
 10
19.31920623
 20
1.20652218
  0
VERTEX
  8
0
 10
19.32791835
 20
1.20448062
  0
VERTEX
  8
0
 10
19.33583475
 20
1.20192573
  0
VERTEX
  8
0
 10
19.33881148
 20
1.20107030
  0
VERTEX
  8
0
 10
19.34347775
 20
1.19872165
  0
VERTEX
  8
0
 10
19.34468883
 20
1.19814838
  0
VERTEX
  8
0
 10
19.34590462
 20
1.19758582
  0
VERTEX
  8
0
 10
19.35293004
 20
1.19288216
  0
VERTEX
  8
0
 10
19.35688419
 20
1.19034708
  0
VERTEX
  8
0
 10
19.38462647
 20
1.16917408
  0
VERTEX
  8
0
 10
19.39820850
 20
1.15956175
  0
VERTEX
  8
0
 10
19.40084789
 20
1.15763465
  0
VERTEX
  8
0
 10
19.40086464
 20
1.15621286
  0
VERTEX
  8
0
 10
19.40131284
 20
1.15487520
  0
VERTEX
  8
0
 10
19.40411163
 20
1.15104075
  0
VERTEX
  8
0
 10
19.40726031
 20
1.14779596
  0
VERTEX
  8
0
 10
19.41857434
 20
1.14118458
  0
VERTEX
  8
0
 10
19.42632177
 20
1.13643272
  0
VERTEX
  8
0
 10
19.43827848
 20
1.13021618
  0
VERTEX
  8
0
 10
19.44861474
 20
1.12527156
  0
VERTEX
  8
0
 10
19.45721047
 20
1.12008191
  0
VERTEX
  8
0
 10
19.47258246
 20
1.11115401
  0
VERTEX
  8
0
 10
19.48699827
 20
1.10315342
  0
VERTEX
  8
0
 10
19.49264744
 20
1.10025605
  0
VERTEX
  8
0
 10
19.49689482
 20
1.09819456
  0
VERTEX
  8
0
 10
19.51982697
 20
1.08730642
  0
VERTEX
  8
0
 10
19.53176462
 20
1.08215986
  0
VERTEX
  8
0
 10
19.55872616
 20
1.07144976
  0
VERTEX
  8
0
 10
19.56714556
 20
1.06833842
  0
VERTEX
  8
0
 10
19.59949732
 20
1.05780103
  0
VERTEX
  8
0
 10
19.60444358
 20
1.05621112
  0
VERTEX
  8
0
 10
19.62936329
 20
1.04973482
  0
VERTEX
  8
0
 10
19.64194913
 20
1.04673952
  0
VERTEX
  8
0
 10
19.66902880
 20
1.04150799
  0
VERTEX
  8
0
 10
19.68287414
 20
1.03932914
  0
VERTEX
  8
0
 10
19.71140952
 20
1.03149874
  0
VERTEX
  8
0
 10
19.72305783
 20
1.02839278
  0
VERTEX
  8
0
 10
19.73380137
 20
1.02609410
  0
VERTEX
  8
0
 10
19.74665847
 20
1.02345986
  0
VERTEX
  8
0
 10
19.76490731
 20
1.02048604
  0
VERTEX
  8
0
 10
19.76765759
 20
1.02008576
  0
VERTEX
  8
0
 10
19.77318701
 20
1.01948941
  0
VERTEX
  8
0
 10
19.78743214
 20
1.01816941
  0
VERTEX
  8
0
 10
19.79429180
 20
1.01755422
  0
VERTEX
  8
0
 10
19.79520587
 20
1.01747586
  0
VERTEX
  8
0
 10
19.81774670
 20
1.01678706
  0
VERTEX
  8
0
 10
19.81935796
 20
1.01674232
  0
VERTEX
  8
0
 10
19.82224077
 20
1.01678237
  0
VERTEX
  8
0
 10
19.85009438
 20
1.01751581
  0
VERTEX
  8
0
 10
19.86404610
 20
1.01839653
  0
VERTEX
  8
0
 10
19.89539692
 20
1.02172447
  0
VERTEX
  8
0
 10
19.90333960
 20
1.02268738
  0
VERTEX
  8
0
 10
19.92796494
 20
1.02697702
  0
VERTEX
  8
0
 10
19.94063048
 20
1.02933799
  0
VERTEX
  8
0
 10
19.95141929
 20
1.03182202
  0
VERTEX
  8
0
 10
19.96738932
 20
1.03532455
  0
VERTEX
  8
0
 10
20.02764221
 20
1.05285625
  0
VERTEX
  8
0
 10
20.03151352
 20
1.05399819
  0
VERTEX
  8
0
 10
20.03336377
 20
1.05457719
  0
VERTEX
  8
0
 10
20.06196149
 20
1.06322079
  0
VERTEX
  8
0
 10
20.06507484
 20
1.06420303
  0
VERTEX
  8
0
 10
20.07970540
 20
1.06873789
  0
VERTEX
  8
0
 10
20.10272584
 20
1.07545226
  0
VERTEX
  8
0
 10
20.10707939
 20
1.07650887
  0
VERTEX
  8
0
 10
20.11212325
 20
1.07728216
  0
VERTEX
  8
0
 10
20.11383315
 20
1.07743095
  0
VERTEX
  8
0
 10
20.11686254
 20
1.07705520
  0
VERTEX
  8
0
 10
20.11857443
 20
1.07682639
  0
VERTEX
  8
0
 10
20.12200693
 20
1.07558074
  0
VERTEX
  8
0
 10
20.12332835
 20
1.07510793
  0
VERTEX
  8
0
 10
20.13022403
 20
1.07153575
  0
VERTEX
  8
0
 10
20.13321094
 20
1.07004342
  0
VERTEX
  8
0
 10
20.13420754
 20
1.06976437
  0
VERTEX
  8
0
 10
20.14243917
 20
1.06735895
  0
VERTEX
  8
0
 10
20.14547877
 20
1.06744582
  0
VERTEX
  8
0
 10
20.15195104
 20
1.06780153
  0
VERTEX
  8
0
 10
20.16000852
 20
1.07033010
  0
VERTEX
  8
0
 10
20.16629058
 20
1.07159348
  0
VERTEX
  8
0
 10
20.16998744
 20
1.07250064
  0
VERTEX
  8
0
 10
20.17084386
 20
1.07257013
  0
VERTEX
  8
0
 10
20.17866756
 20
1.07176345
  0
VERTEX
  8
0
 10
20.18039452
 20
1.07152716
  0
VERTEX
  8
0
 10
20.18390256
 20
1.07013167
  0
VERTEX
  8
0
 10
20.19449517
 20
1.06603232
  0
VERTEX
  8
0
 10
20.20607801
 20
1.06098764
  0
VERTEX
  8
0
 10
20.21786286
 20
1.05575827
  0
VERTEX
  8
0
 10
20.30003552
 20
1.02143167
  0
VERTEX
  8
0
 10
20.30529151
 20
1.01916878
  0
VERTEX
  8
0
 10
20.30573217
 20
1.01900916
  0
VERTEX
  8
0
 10
20.30935987
 20
1.01776087
  0
VERTEX
  8
0
 10
20.33371100
 20
1.00921822
  0
VERTEX
  8
0
 10
20.34126209
 20
1.00696663
  0
VERTEX
  8
0
 10
20.35627049
 20
1.00254897
  0
VERTEX
  8
0
 10
20.37548629
 20
0.99827166
  0
VERTEX
  8
0
 10
20.38758797
 20
0.99561694
  0
VERTEX
  8
0
 10
20.39886044
 20
0.99387492
  0
VERTEX
  8
0
 10
20.40975168
 20
0.99242813
  0
VERTEX
  8
0
 10
20.42543758
 20
0.99093521
  0
VERTEX
  8
0
 10
20.45922127
 20
0.99016066
  0
VERTEX
  8
0
 10
20.46314915
 20
0.99001004
  0
VERTEX
  8
0
 10
20.46721909
 20
0.99020896
  0
VERTEX
  8
0
 10
20.50410926
 20
0.99223001
  0
VERTEX
  8
0
 10
20.53402740
 20
0.99588905
  0
VERTEX
  8
0
 10
20.54472462
 20
0.99724088
  0
VERTEX
  8
0
 10
20.54629583
 20
0.99750207
  0
VERTEX
  8
0
 10
20.58840734
 20
1.00585744
  0
VERTEX
  8
0
 10
20.58946951
 20
1.00611098
  0
VERTEX
  8
0
 10
20.59074433
 20
1.00643229
  0
VERTEX
  8
0
 10
20.62502151
 20
1.01593074
  0
VERTEX
  8
0
 10
20.65067690
 20
1.02383519
  0
VERTEX
  8
0
 10
20.65760169
 20
1.02614341
  0
VERTEX
  8
0
 10
20.67472188
 20
1.03249100
  0
VERTEX
  8
0
 10
20.68182802
 20
1.03517549
  0
VERTEX
  8
0
 10
20.70313688
 20
1.04455069
  0
VERTEX
  8
0
 10
20.71554507
 20
1.04990230
  0
VERTEX
  8
0
 10
20.72650940
 20
1.05543030
  0
VERTEX
  8
0
 10
20.75684626
 20
1.07114706
  0
VERTEX
  8
0
 10
20.78030942
 20
1.08474666
  0
VERTEX
  8
0
 10
20.78997774
 20
1.09021477
  0
VERTEX
  8
0
 10
20.82367346
 20
1.11045027
  0
VERTEX
  8
0
 10
20.82910767
 20
1.11374345
  0
VERTEX
  8
0
 10
20.84215457
 20
1.12101465
  0
VERTEX
  8
0
 10
20.85537212
 20
1.12732222
  0
VERTEX
  8
0
 10
20.86176465
 20
1.13063683
  0
VERTEX
  8
0
 10
20.86727861
 20
1.13392488
  0
VERTEX
  8
0
 10
20.86875763
 20
1.13504083
  0
VERTEX
  8
0
 10
20.87009178
 20
1.13650762
  0
VERTEX
  8
0
 10
20.87256761
 20
1.13883356
  0
VERTEX
  8
0
 10
20.87467143
 20
1.14204654
  0
VERTEX
  8
0
 10
20.87578119
 20
1.14404695
  0
VERTEX
  8
0
 10
20.87660073
 20
1.14673238
  0
VERTEX
  8
0
 10
20.87820596
 20
1.15112577
  0
VERTEX
  8
0
 10
20.87938378
 20
1.15755654
  0
VERTEX
  8
0
 10
20.87978273
 20
1.16016716
  0
VERTEX
  8
0
 10
20.87994183
 20
1.16332154
  0
VERTEX
  8
0
 10
20.88018288
 20
1.17191787
  0
VERTEX
  8
0
 10
20.87990270
 20
1.17607729
  0
VERTEX
  8
0
 10
20.87914255
 20
1.18694755
  0
VERTEX
  8
0
 10
20.87814467
 20
1.19410509
  0
VERTEX
  8
0
 10
20.87931473
 20
1.19490205
  0
VERTEX
  8
0
 10
20.89562271
 20
1.20614155
  0
VERTEX
  8
0
 10
20.90259697
 20
1.21108876
  0
VERTEX
  8
0
 10
20.90484900
 20
1.21278026
  0
VERTEX
  8
0
 10
20.91030013
 20
1.21686555
  0
VERTEX
  8
0
 10
20.91577874
 20
1.22095905
  0
VERTEX
  8
0
 10
20.91877525
 20
1.22260562
  0
VERTEX
  8
0
 10
20.92468826
 20
1.22733027
  0
VERTEX
  8
0
 10
20.92860954
 20
1.22514079
  0
VERTEX
  8
0
 10
20.93172255
 20
1.22354558
  0
VERTEX
  8
0
 10
20.93614480
 20
1.22138816
  0
VERTEX
  8
0
 10
20.94055804
 20
1.21944101
  0
VERTEX
  8
0
 10
20.95069651
 20
1.21502943
  0
VERTEX
  8
0
 10
20.95190429
 20
1.21457963
  0
VERTEX
  8
0
 10
20.95771558
 20
1.21240344
  0
VERTEX
  8
0
 10
20.95900701
 20
1.21203209
  0
VERTEX
  8
0
 10
20.96887147
 20
1.20909607
  0
VERTEX
  8
0
 10
20.97084479
 20
1.20856424
  0
VERTEX
  8
0
 10
20.97095808
 20
1.20853770
  0
VERTEX
  8
0
 10
20.97107615
 20
1.20852334
  0
VERTEX
  8
0
 10
20.97677843
 20
1.20773263
  0
VERTEX
  8
0
 10
20.98165910
 20
1.20785685
  0
VERTEX
  8
0
 10
20.98215995
 20
1.20786839
  0
VERTEX
  8
0
 10
20.98263931
 20
1.20797576
  0
VERTEX
  8
0
 10
20.98707550
 20
1.20898651
  0
VERTEX
  8
0
 10
20.98757068
 20
1.20922387
  0
VERTEX
  8
0
 10
20.99149427
 20
1.21113240
  0
VERTEX
  8
0
 10
20.99192418
 20
1.21148330
  0
VERTEX
  8
0
 10
20.99541459
 20
1.21428193
  0
VERTEX
  8
0
 10
20.99869872
 20
1.21792370
  0
VERTEX
  8
0
 10
20.99894025
 20
1.21822456
  0
VERTEX
  8
0
 10
21.00576777
 20
1.22623673
  0
VERTEX
  8
0
 10
21.00584125
 20
1.22634039
  0
VERTEX
  8
0
 10
21.00587364
 20
1.22638728
  0
VERTEX
  8
0
 10
21.00771397
 20
1.22813225
  0
VERTEX
  8
0
 10
21.00946630
 20
1.22989721
  0
VERTEX
  8
0
 10
21.00951134
 20
1.22992871
  0
VERTEX
  8
0
 10
21.01333170
 20
1.23293895
  0
VERTEX
  8
0
 10
21.01355222
 20
1.23303786
  0
VERTEX
  8
0
 10
21.01742199
 20
1.23594297
  0
VERTEX
  8
0
 10
21.02485645
 20
1.24158181
  0
VERTEX
  8
0
 10
21.02536834
 20
1.24185055
  0
VERTEX
  8
0
 10
21.02560510
 20
1.24202990
  0
VERTEX
  8
0
 10
21.02912639
 20
1.24520160
  0
VERTEX
  8
0
 10
21.03232009
 20
1.24858808
  0
VERTEX
  8
0
 10
21.03308254
 20
1.24923478
  0
VERTEX
  8
0
 10
21.03638870
 20
1.25235459
  0
VERTEX
  8
0
 10
21.04033424
 20
1.25411862
  0
VERTEX
  8
0
 10
21.04083517
 20
1.25436953
  0
VERTEX
  8
0
 10
21.04620678
 20
1.25389262
  0
VERTEX
  8
0
 10
21.04659227
 20
1.25392705
  0
VERTEX
  8
0
 10
21.04702907
 20
1.25379741
  0
VERTEX
  8
0
 10
21.05207009
 20
1.25116515
  0
VERTEX
  8
0
 10
21.05395017
 20
1.25028984
  0
VERTEX
  8
0
 10
21.05414585
 20
1.25016446
  0
VERTEX
  8
0
 10
21.05442137
 20
1.24996540
  0
VERTEX
  8
0
 10
21.06844362
 20
1.24207337
  0
VERTEX
  8
0
 10
21.07052242
 20
1.24051031
  0
VERTEX
  8
0
 10
21.07319424
 20
1.23863220
  0
VERTEX
  8
0
 10
21.07859000
 20
1.23602820
  0
VERTEX
  8
0
 10
21.08277118
 20
1.23450954
  0
VERTEX
  8
0
 10
21.08646571
 20
1.23197397
  0
VERTEX
  8
0
 10
21.09044973
 20
1.23002732
  0
VERTEX
  8
0
 10
21.09358870
 20
1.22936180
  0
VERTEX
  8
0
 10
21.09615368
 20
1.22926113
  0
VERTEX
  8
0
 10
21.10007893
 20
1.22794482
  0
VERTEX
  8
0
 10
21.10220784
 20
1.22808269
  0
VERTEX
  8
0
 10
21.10615336
 20
1.22731690
  0
VERTEX
  8
0
 10
21.11015325
 20
1.22713433
  0
VERTEX
  8
0
 10
21.11185590
 20
1.22738761
  0
VERTEX
  8
0
 10
21.11972818
 20
1.22832299
  0
VERTEX
  8
0
 10
21.12181704
 20
1.22881499
  0
VERTEX
  8
0
 10
21.12616302
 20
1.23008255
  0
VERTEX
  8
0
 10
21.13546961
 20
1.23267662
  0
VERTEX
  8
0
 10
21.13835423
 20
1.23361863
  0
VERTEX
  8
0
 10
21.14986403
 20
1.23776894
  0
VERTEX
  8
0
 10
21.15191463
 20
1.23836800
  0
VERTEX
  8
0
 10
21.15856044
 20
1.24106875
  0
VERTEX
  8
0
 10
21.17522195
 20
1.24850373
  0
VERTEX
  8
0
 10
21.19736684
 20
1.25972915
  0
VERTEX
  8
0
 10
21.20152164
 20
1.26205304
  0
VERTEX
  8
0
 10
21.22042263
 20
1.27313647
  0
VERTEX
  8
0
 10
21.22570985
 20
1.27663415
  0
VERTEX
  8
0
 10
21.22863112
 20
1.27889589
  0
VERTEX
  8
0
 10
21.24256750
 20
1.28857167
  0
VERTEX
  8
0
 10
21.25498213
 20
1.29843009
  0
VERTEX
  8
0
 10
21.26637146
 20
1.30785160
  0
VERTEX
  8
0
 10
21.27455596
 20
1.31553286
  0
VERTEX
  8
0
 10
21.28301837
 20
1.32371000
  0
VERTEX
  8
0
 10
21.28632082
 20
1.32721522
  0
VERTEX
  8
0
 10
21.29128324
 20
1.33313044
  0
VERTEX
  8
0
 10
21.29979556
 20
1.34300313
  0
VERTEX
  8
0
 10
21.30702178
 20
1.35290242
  0
VERTEX
  8
0
 10
21.31387640
 20
1.36239653
  0
VERTEX
  8
0
 10
21.31702161
 20
1.36588917
  0
VERTEX
  8
0
 10
21.32058196
 20
1.37007752
  0
VERTEX
  8
0
 10
21.32528367
 20
1.37355306
  0
VERTEX
  8
0
 10
21.32752719
 20
1.37551149
  0
VERTEX
  8
0
 10
21.34424382
 20
1.38622203
  0
VERTEX
  8
0
 10
21.36287219
 20
1.39873532
  0
VERTEX
  8
0
 10
21.36746274
 20
1.40184225
  0
VERTEX
  8
0
 10
21.36912973
 20
1.40321902
  0
VERTEX
  8
0
 10
21.37941586
 20
1.41220837
  0
VERTEX
  8
0
 10
21.38410897
 20
1.41671170
  0
VERTEX
  8
0
 10
21.39392297
 20
1.42609318
  0
VERTEX
  8
0
 10
21.39590098
 20
1.42837234
  0
VERTEX
  8
0
 10
21.40041827
 20
1.43394387
  0
VERTEX
  8
0
 10
21.40173094
 20
1.43611429
  0
VERTEX
  8
0
 10
21.40481841
 20
1.44243346
  0
VERTEX
  8
0
 10
21.40535399
 20
1.44365535
  0
VERTEX
  8
0
 10
21.40595945
 20
1.44672885
  0
VERTEX
  8
0
 10
21.40667829
 20
1.44986551
  0
VERTEX
  8
0
 10
21.40695264
 20
1.45406422
  0
VERTEX
  8
0
 10
21.40709444
 20
1.45713719
  0
VERTEX
  8
0
 10
21.40692132
 20
1.45876654
  0
VERTEX
  8
0
 10
21.40657298
 20
1.46548976
  0
VERTEX
  8
0
 10
21.40510865
 20
1.47419370
  0
VERTEX
  8
0
 10
21.40491283
 20
1.47514207
  0
VERTEX
  8
0
 10
21.40155702
 20
1.48865294
  0
VERTEX
  8
0
 10
21.39977391
 20
1.49603981
  0
VERTEX
  8
0
 10
21.39966418
 20
1.49653021
  0
VERTEX
  8
0
 10
21.39880869
 20
1.49969284
  0
VERTEX
  8
0
 10
21.39226485
 20
1.52405879
  0
VERTEX
  8
0
 10
21.39070255
 20
1.52932395
  0
VERTEX
  8
0
 10
21.38673857
 20
1.53890490
  0
VERTEX
  8
0
 10
21.38539515
 20
1.54220763
  0
VERTEX
  8
0
 10
21.39202273
 20
1.54637841
  0
VERTEX
  8
0
 10
21.39853368
 20
1.55051103
  0
VERTEX
  8
0
 10
21.40314143
 20
1.55396955
  0
VERTEX
  8
0
 10
21.41318290
 20
1.56154963
  0
VERTEX
  8
0
 10
21.41855047
 20
1.56601452
  0
VERTEX
  8
0
 10
21.42908344
 20
1.57582929
  0
VERTEX
  8
0
 10
21.43102059
 20
1.57765184
  0
VERTEX
  8
0
 10
21.43368825
 20
1.58063615
  0
VERTEX
  8
0
 10
21.43876864
 20
1.58657564
  0
VERTEX
  8
0
 10
21.44043114
 20
1.58857558
  0
VERTEX
  8
0
 10
21.44258951
 20
1.59129825
  0
VERTEX
  8
0
 10
21.44926950
 20
1.60006770
  0
VERTEX
  8
0
 10
21.45545863
 20
1.60931094
  0
VERTEX
  8
0
 10
21.45737202
 20
1.61227836
  0
VERTEX
  8
0
 10
21.45919141
 20
1.61532537
  0
VERTEX
  8
0
 10
21.46466484
 20
1.62525393
  0
VERTEX
  8
0
 10
21.46990994
 20
1.63534716
  0
VERTEX
  8
0
 10
21.47216243
 20
1.64036451
  0
VERTEX
  8
0
 10
21.47527839
 20
1.64932701
  0
VERTEX
  8
0
 10
21.47656059
 20
1.65301118
  0
VERTEX
  8
0
 10
21.47680265
 20
1.65385361
  0
VERTEX
  8
0
 10
21.47707524
 20
1.65496671
  0
VERTEX
  8
0
 10
21.48022465
 20
1.66988010
  0
VERTEX
  8
0
 10
21.48066280
 20
1.67310056
  0
VERTEX
  8
0
 10
21.48098403
 20
1.67656384
  0
VERTEX
  8
0
 10
21.49305235
 20
1.68853878
  0
VERTEX
  8
0
 10
21.49462783
 20
1.69021055
  0
VERTEX
  8
0
 10
21.50214424
 20
1.69865151
  0
VERTEX
  8
0
 10
21.50624872
 20
1.70379766
  0
VERTEX
  8
0
 10
21.51179178
 20
1.71110330
  0
VERTEX
  8
0
 10
21.51563497
 20
1.71748651
  0
VERTEX
  8
0
 10
21.52517875
 20
1.72749741
  0
VERTEX
  8
0
 10
21.52640251
 20
1.72885752
  0
VERTEX
  8
0
 10
21.52724221
 20
1.72987646
  0
VERTEX
  8
0
 10
21.53870675
 20
1.74511784
  0
VERTEX
  8
0
 10
21.54259497
 20
1.75115181
  0
VERTEX
  8
0
 10
21.55017406
 20
1.76362559
  0
VERTEX
  8
0
 10
21.55086506
 20
1.76504423
  0
VERTEX
  8
0
 10
21.55787910
 20
1.78134734
  0
VERTEX
  8
0
 10
21.55867004
 20
1.78364041
  0
VERTEX
  8
0
 10
21.56178445
 20
1.79451445
  0
VERTEX
  8
0
 10
21.56357555
 20
1.80283715
  0
VERTEX
  8
0
 10
21.57702719
 20
1.81274085
  0
VERTEX
  8
0
 10
21.58464503
 20
1.81889771
  0
VERTEX
  8
0
 10
21.59014623
 20
1.82406112
  0
VERTEX
  8
0
 10
21.59592078
 20
1.82957690
  0
VERTEX
  8
0
 10
21.60428912
 20
1.83951276
  0
VERTEX
  8
0
 10
21.60489878
 20
1.84026653
  0
VERTEX
  8
0
 10
21.60580661
 20
1.84160672
  0
VERTEX
  8
0
 10
21.62426703
 20
1.86925614
  0
VERTEX
  8
0
 10
21.62896468
 20
1.87719807
  0
VERTEX
  8
0
 10
21.63340314
 20
1.88492822
  0
VERTEX
  8
0
 10
21.63792238
 20
1.89418971
  0
VERTEX
  8
0
 10
21.64154739
 20
1.90196202
  0
VERTEX
  8
0
 10
21.64668177
 20
1.91637778
  0
VERTEX
  8
0
 10
21.64725714
 20
1.91797357
  0
VERTEX
  8
0
 10
21.64753916
 20
1.91892867
  0
VERTEX
  8
0
 10
21.64842294
 20
1.92249594
  0
VERTEX
  8
0
 10
21.65124654
 20
1.93411182
  0
VERTEX
  8
0
 10
21.65204807
 20
1.93897103
  0
VERTEX
  8
0
 10
21.65568224
 20
1.94090742
  0
VERTEX
  8
0
 10
21.66359957
 20
1.94585047
  0
VERTEX
  8
0
 10
21.66532045
 20
1.94562692
  0
VERTEX
  8
0
 10
21.66842918
 20
1.94552056
  0
VERTEX
  8
0
 10
21.67437458
 20
1.94501768
  0
VERTEX
  8
0
 10
21.67951530
 20
1.94509542
  0
VERTEX
  8
0
 10
21.68220728
 20
1.94528947
  0
VERTEX
  8
0
 10
21.68668842
 20
1.94583942
  0
VERTEX
  8
0
 10
21.69336501
 20
1.94742193
  0
VERTEX
  8
0
 10
21.69507357
 20
1.94783211
  0
VERTEX
  8
0
 10
21.69884243
 20
1.94936937
  0
VERTEX
  8
0
 10
21.70120633
 20
1.95039309
  0
VERTEX
  8
0
 10
21.70907302
 20
1.95537162
  0
VERTEX
  8
0
 10
21.70962068
 20
1.95579058
  0
VERTEX
  8
0
 10
21.71445837
 20
1.96067107
  0
VERTEX
  8
0
 10
21.71834923
 20
1.96529432
  0
VERTEX
  8
0
 10
21.72123383
 20
1.96985518
  0
VERTEX
  8
0
 10
21.72438579
 20
1.97744906
  0
VERTEX
  8
0
 10
21.72517610
 20
1.97901030
  0
VERTEX
  8
0
 10
21.72627685
 20
1.98336476
  0
VERTEX
  8
0
 10
21.72640914
 20
1.98379579
  0
VERTEX
  8
0
 10
21.72647743
 20
1.98478144
  0
VERTEX
  8
0
 10
21.72692779
 20
1.99087365
  0
VERTEX
  8
0
 10
21.72625251
 20
1.99448377
  0
VERTEX
  8
0
 10
21.72572282
 20
1.99717392
  0
VERTEX
  8
0
 10
21.72388762
 20
2.00149888
  0
VERTEX
  8
0
 10
21.72236423
 20
2.00455542
  0
VERTEX
  8
0
 10
21.72542852
 20
2.00914858
  0
VERTEX
  8
0
 10
21.72898638
 20
2.01461935
  0
VERTEX
  8
0
 10
21.73254884
 20
2.02071847
  0
VERTEX
  8
0
 10
21.73627047
 20
2.01999840
  0
VERTEX
  8
0
 10
21.74044064
 20
2.01869700
  0
VERTEX
  8
0
 10
21.74536477
 20
2.01799672
  0
VERTEX
  8
0
 10
21.75449479
 20
2.01560677
  0
VERTEX
  8
0
 10
21.75494524
 20
2.01560485
  0
VERTEX
  8
0
 10
21.76634402
 20
2.01392884
  0
VERTEX
  8
0
 10
21.76823079
 20
2.01439319
  0
VERTEX
  8
0
 10
21.77423343
 20
2.01470208
  0
VERTEX
  8
0
 10
21.77712168
 20
2.01607679
  0
VERTEX
  8
0
 10
21.78135704
 20
2.01941929
  0
VERTEX
  8
0
 10
21.78280805
 20
2.02065063
  0
VERTEX
  8
0
 10
21.78483844
 20
2.02314310
  0
VERTEX
  8
0
 10
21.79281785
 20
2.03296253
  0
VERTEX
  8
0
 10
21.80099734
 20
2.04570254
  0
VERTEX
  8
0
 10
21.81116543
 20
2.06211386
  0
VERTEX
  8
0
 10
21.82456093
 20
2.08876709
  0
VERTEX
  8
0
 10
21.82501466
 20
2.08971915
  0
VERTEX
  8
0
 10
21.82544712
 20
2.09042221
  0
VERTEX
  8
0
 10
21.83128149
 20
2.10021668
  0
VERTEX
  8
0
 10
21.83687554
 20
2.10826236
  0
VERTEX
  8
0
 10
21.84262000
 20
2.11510731
  0
VERTEX
  8
0
 10
21.84726683
 20
2.12119543
  0
VERTEX
  8
0
 10
21.86042633
 20
2.13477830
  0
VERTEX
  8
0
 10
21.86978787
 20
2.14504998
  0
VERTEX
  8
0
 10
21.87689802
 20
2.15331832
  0
VERTEX
  8
0
 10
21.88967977
 20
2.17014941
  0
VERTEX
  8
0
 10
21.89263567
 20
2.17424290
  0
VERTEX
  8
0
 10
21.89354386
 20
2.17572000
  0
VERTEX
  8
0
 10
21.90685468
 20
2.19747052
  0
VERTEX
  8
0
 10
21.91557379
 20
2.21418692
  0
VERTEX
  8
0
 10
21.91763322
 20
2.21827447
  0
VERTEX
  8
0
 10
21.91875065
 20
2.22094015
  0
VERTEX
  8
0
 10
21.92723425
 20
2.24369015
  0
VERTEX
  8
0
 10
21.92948962
 20
2.25089856
  0
VERTEX
  8
0
 10
21.93467420
 20
2.27101337
  0
VERTEX
  8
0
 10
21.94022761
 20
2.29408445
  0
VERTEX
  8
0
 10
21.94691089
 20
2.32738702
  0
VERTEX
  8
0
 10
21.94804904
 20
2.33287901
  0
VERTEX
  8
0
 10
21.94813291
 20
2.33348990
  0
VERTEX
  8
0
 10
21.94825022
 20
2.33574237
  0
VERTEX
  8
0
 10
21.94860832
 20
2.34289045
  0
VERTEX
  8
0
 10
21.94752561
 20
2.34787738
  0
VERTEX
  8
0
 10
21.94742646
 20
2.34841965
  0
VERTEX
  8
0
 10
21.94719194
 20
2.34888131
  0
VERTEX
  8
0
 10
21.94383722
 20
2.35480282
  0
VERTEX
  8
0
 10
21.93877343
 20
2.35978815
  0
VERTEX
  8
0
 10
21.93542706
 20
2.36289310
  0
VERTEX
  8
0
 10
21.93139469
 20
2.36572126
  0
VERTEX
  8
0
 10
21.92536625
 20
2.36969118
  0
VERTEX
  8
0
 10
21.91959138
 20
2.37357477
  0
VERTEX
  8
0
 10
21.90315570
 20
2.38261535
  0
VERTEX
  8
0
 10
21.89760038
 20
2.38572258
  0
VERTEX
  8
0
 10
21.89447551
 20
2.38744779
  0
VERTEX
  8
0
 10
21.87292839
 20
2.39817273
  0
VERTEX
  8
0
 10
21.86563254
 20
2.40181607
  0
VERTEX
  8
0
 10
21.86564361
 20
2.40185204
  0
VERTEX
  8
0
 10
21.86581820
 20
2.40252378
  0
VERTEX
  8
0
 10
21.86614280
 20
2.40358700
  0
VERTEX
  8
0
 10
21.86981886
 20
2.41733747
  0
VERTEX
  8
0
 10
21.87074551
 20
2.41996069
  0
VERTEX
  8
0
 10
21.87279660
 20
2.42708873
  0
VERTEX
  8
0
 10
21.87516323
 20
2.43503964
  0
VERTEX
  8
0
 10
21.87653759
 20
2.43981463
  0
VERTEX
  8
0
 10
21.87790153
 20
2.44461821
  0
VERTEX
  8
0
 10
21.87994600
 20
2.45185712
  0
VERTEX
  8
0
 10
21.88420221
 20
2.46724817
  0
VERTEX
  8
0
 10
21.88576454
 20
2.47240872
  0
VERTEX
  8
0
 10
21.88730106
 20
2.47756898
  0
VERTEX
  8
0
 10
21.88807865
 20
2.48079409
  0
VERTEX
  8
0
 10
21.89396181
 20
2.47941723
  0
VERTEX
  8
0
 10
21.93229599
 20
2.47156527
  0
VERTEX
  8
0
 10
21.93603560
 20
2.47081385
  0
VERTEX
  8
0
 10
21.94146566
 20
2.46991923
  0
VERTEX
  8
0
 10
21.94979174
 20
2.46891608
  0
VERTEX
  8
0
 10
21.96371688
 20
2.46817865
  0
VERTEX
  8
0
 10
21.96814684
 20
2.46836353
  0
VERTEX
  8
0
 10
21.97500142
 20
2.46977917
  0
VERTEX
  8
0
 10
21.98014699
 20
2.47271083
  0
VERTEX
  8
0
 10
21.98093965
 20
2.47299540
  0
VERTEX
  8
0
 10
21.98160375
 20
2.47361614
  0
VERTEX
  8
0
 10
21.98561724
 20
2.47890644
  0
VERTEX
  8
0
 10
21.98749093
 20
2.48188036
  0
VERTEX
  8
0
 10
21.98984847
 20
2.48696692
  0
VERTEX
  8
0
 10
22.00422283
 20
2.51878935
  0
VERTEX
  8
0
 10
22.01058194
 20
2.53577886
  0
VERTEX
  8
0
 10
22.01762181
 20
2.55500947
  0
VERTEX
  8
0
 10
22.02377438
 20
2.57516192
  0
VERTEX
  8
0
 10
22.02594635
 20
2.58340166
  0
VERTEX
  8
0
 10
22.02956831
 20
2.59870547
  0
VERTEX
  8
0
 10
22.03054616
 20
2.60471596
  0
VERTEX
  8
0
 10
22.03189287
 20
2.61358869
  0
VERTEX
  8
0
 10
22.03258203
 20
2.61843350
  0
VERTEX
  8
0
 10
22.03279074
 20
2.62162368
  0
VERTEX
  8
0
 10
22.03282575
 20
2.62222885
  0
VERTEX
  8
0
 10
22.04392202
 20
2.64496626
  0
VERTEX
  8
0
 10
22.04856721
 20
2.65571837
  0
VERTEX
  8
0
 10
22.06061057
 20
2.68605295
  0
VERTEX
  8
0
 10
22.07101654
 20
2.71584426
  0
VERTEX
  8
0
 10
22.07189550
 20
2.71856056
  0
VERTEX
  8
0
 10
22.08079743
 20
2.75055924
  0
VERTEX
  8
0
 10
22.08116496
 20
2.75200231
  0
VERTEX
  8
0
 10
22.08219005
 20
2.75657117
  0
VERTEX
  8
0
 10
22.08665450
 20
2.77729522
  0
VERTEX
  8
0
 10
22.08785403
 20
2.78292555
  0
VERTEX
  8
0
 10
22.08916391
 20
2.79125002
  0
VERTEX
  8
0
 10
22.09266527
 20
2.81357934
  0
VERTEX
  8
0
 10
22.09381061
 20
2.82489839
  0
VERTEX
  8
0
 10
22.09454767
 20
2.83608218
  0
VERTEX
  8
0
 10
22.09439959
 20
2.84445603
  0
VERTEX
  8
0
 10
22.09407525
 20
2.85517571
  0
VERTEX
  8
0
 10
22.09204931
 20
2.87667376
  0
VERTEX
  8
0
 10
22.09126050
 20
2.88623005
  0
VERTEX
  8
0
 10
22.09130359
 20
2.89574030
  0
VERTEX
  8
0
 10
22.09080414
 20
2.90353318
  0
VERTEX
  8
0
 10
22.09100082
 20
2.90685295
  0
VERTEX
  8
0
 10
22.09139137
 20
2.91616512
  0
VERTEX
  8
0
 10
22.09460313
 20
2.94135043
  0
VERTEX
  8
0
 10
22.09517058
 20
2.94677748
  0
VERTEX
  8
0
 10
22.09633296
 20
2.96560179
  0
VERTEX
  8
0
 10
22.09749465
 20
2.99985872
  0
VERTEX
  8
0
 10
22.09757929
 20
3.00252208
  0
VERTEX
  8
0
 10
22.09755535
 20
3.00451849
  0
VERTEX
  8
0
 10
22.09682563
 20
3.02195209
  0
VERTEX
  8
0
 10
22.09484125
 20
3.04482669
  0
VERTEX
  8
0
 10
22.09457991
 20
3.04718277
  0
VERTEX
  8
0
 10
22.09380046
 20
3.05213391
  0
VERTEX
  8
0
 10
22.08842740
 20
3.08578307
  0
VERTEX
  8
0
 10
22.08718652
 20
3.09200952
  0
VERTEX
  8
0
 10
22.08058570
 20
3.12254615
  0
VERTEX
  8
0
 10
22.07770651
 20
3.13685381
  0
VERTEX
  8
0
 10
22.07747692
 20
3.13843700
  0
VERTEX
  8
0
 10
22.07663414
 20
3.14381629
  0
VERTEX
  8
0
 10
22.07201870
 20
3.16801663
  0
VERTEX
  8
0
 10
22.07081487
 20
3.17328703
  0
VERTEX
  8
0
 10
22.07159855
 20
3.18586947
  0
VERTEX
  8
0
 10
22.07229168
 20
3.19942358
  0
VERTEX
  8
0
 10
22.07235468
 20
3.20130611
  0
VERTEX
  8
0
 10
22.07214122
 20
3.22737248
  0
VERTEX
  8
0
 10
22.07200906
 20
3.23675969
  0
VERTEX
  8
0
 10
22.07006580
 20
3.27339095
  0
VERTEX
  8
0
 10
22.06795680
 20
3.30463180
  0
VERTEX
  8
0
 10
22.06757126
 20
3.31333885
  0
VERTEX
  8
0
 10
22.06699839
 20
3.32170072
  0
VERTEX
  8
0
 10
22.06733262
 20
3.33493997
  0
VERTEX
  8
0
 10
22.06535619
 20
3.36830571
  0
VERTEX
  8
0
 10
22.06447002
 20
3.37935320
  0
VERTEX
  8
0
 10
22.06061571
 20
3.40365390
  0
VERTEX
  8
0
 10
22.06054076
 20
3.40411209
  0
VERTEX
  8
0
 10
22.06005248
 20
3.40625313
  0
VERTEX
  8
0
 10
22.05524434
 20
3.42749415
  0
VERTEX
  8
0
 10
22.05060377
 20
3.44347955
  0
VERTEX
  8
0
 10
22.04726090
 20
3.45244719
  0
VERTEX
  8
0
 10
22.04232020
 20
3.46581298
  0
VERTEX
  8
0
 10
22.03180933
 20
3.48922063
  0
VERTEX
  8
0
 10
22.00616396
 20
3.54155714
  0
VERTEX
  8
0
 10
22.00422389
 20
3.54553494
  0
VERTEX
  8
0
 10
22.00082298
 20
3.55300747
  0
VERTEX
  8
0
 10
21.98869413
 20
3.57867656
  0
VERTEX
  8
0
 10
21.98377650
 20
3.59097330
  0
VERTEX
  8
0
 10
21.97752049
 20
3.60689407
  0
VERTEX
  8
0
 10
21.97339846
 20
3.61978249
  0
VERTEX
  8
0
 10
21.96960676
 20
3.63069180
  0
VERTEX
  8
0
 10
21.96586186
 20
3.64519629
  0
VERTEX
  8
0
 10
21.96422974
 20
3.65082438
  0
VERTEX
  8
0
 10
21.96363013
 20
3.65358687
  0
VERTEX
  8
0
 10
21.96108299
 20
3.66791915
  0
VERTEX
  8
0
 10
21.95907129
 20
3.67610850
  0
VERTEX
  8
0
 10
21.95746389
 20
3.68461514
  0
VERTEX
  8
0
 10
21.95608756
 20
3.69114058
  0
VERTEX
  8
0
 10
21.95518329
 20
3.69426451
  0
VERTEX
  8
0
 10
21.95419864
 20
3.69740187
  0
VERTEX
  8
0
 10
21.95237435
 20
3.70228526
  0
VERTEX
  8
0
 10
21.95078608
 20
3.70543949
  0
VERTEX
  8
0
 10
21.94854560
 20
3.70831859
  0
VERTEX
  8
0
 10
21.94664929
 20
3.71057391
  0
VERTEX
  8
0
 10
21.94468601
 20
3.71199251
  0
VERTEX
  8
0
 10
21.94098899
 20
3.71386623
  0
VERTEX
  8
0
 10
21.93836416
 20
3.71472098
  0
VERTEX
  8
0
 10
21.93506044
 20
3.71492910
  0
VERTEX
  8
0
 10
21.92868231
 20
3.71614337
  0
VERTEX
  8
0
 10
21.91480728
 20
3.71583085
  0
VERTEX
  8
0
 10
21.91454816
 20
3.71581174
  0
VERTEX
  8
0
 10
21.91433049
 20
3.71577352
  0
VERTEX
  8
0
 10
21.91369911
 20
3.71569501
  0
VERTEX
  8
0
 10
21.89825166
 20
3.71344371
  0
VERTEX
  8
0
 10
21.89445548
 20
3.71310637
  0
VERTEX
  8
0
 10
21.88346568
 20
3.71105159
  0
VERTEX
  8
0
 10
21.87277050
 20
3.70887695
  0
VERTEX
  8
0
 10
21.87176637
 20
3.72134524
  0
VERTEX
  8
0
 10
21.86849819
 20
3.73856420
  0
VERTEX
  8
0
 10
21.86803063
 20
3.74115854
  0
VERTEX
  8
0
 10
21.86670360
 20
3.74579346
  0
VERTEX
  8
0
 10
21.86272360
 20
3.75941271
  0
VERTEX
  8
0
 10
21.85711468
 20
3.77621205
  0
VERTEX
  8
0
 10
21.85505976
 20
3.78217902
  0
VERTEX
  8
0
 10
21.85412352
 20
3.78442825
  0
VERTEX
  8
0
 10
21.84619483
 20
3.80267977
  0
VERTEX
  8
0
 10
21.84387100
 20
3.80678920
  0
VERTEX
  8
0
 10
21.84155343
 20
3.81063326
  0
VERTEX
  8
0
 10
21.83906097
 20
3.81439113
  0
VERTEX
  8
0
 10
21.83352890
 20
3.82228713
  0
VERTEX
  8
0
 10
21.83013943
 20
3.82670498
  0
VERTEX
  8
0
 10
21.82113835
 20
3.83767918
  0
VERTEX
  8
0
 10
21.82116496
 20
3.83816968
  0
VERTEX
  8
0
 10
21.82135030
 20
3.84384266
  0
VERTEX
  8
0
 10
21.82135258
 20
3.84635836
  0
VERTEX
  8
0
 10
21.82104352
 20
3.85240735
  0
VERTEX
  8
0
 10
21.81983707
 20
3.86576074
  0
VERTEX
  8
0
 10
21.81951431
 20
3.86881120
  0
VERTEX
  8
0
 10
21.81677298
 20
3.88168536
  0
VERTEX
  8
0
 10
21.81556651
 20
3.88719554
  0
VERTEX
  8
0
 10
21.81512182
 20
3.88863849
  0
VERTEX
  8
0
 10
21.80813729
 20
3.90754645
  0
VERTEX
  8
0
 10
21.80486001
 20
3.91507620
  0
VERTEX
  8
0
 10
21.79862988
 20
3.92725838
  0
VERTEX
  8
0
 10
21.79584899
 20
3.93208669
  0
VERTEX
  8
0
 10
21.79363470
 20
3.93882215
  0
VERTEX
  8
0
 10
21.79286101
 20
3.94076719
  0
VERTEX
  8
0
 10
21.78812657
 20
3.95193997
  0
VERTEX
  8
0
 10
21.78707339
 20
3.95412621
  0
VERTEX
  8
0
 10
21.78486932
 20
3.95936288
  0
VERTEX
  8
0
 10
21.77818804
 20
3.97099630
  0
VERTEX
  8
0
 10
21.77710036
 20
3.97284235
  0
VERTEX
  8
0
 10
21.77630159
 20
3.97420819
  0
VERTEX
  8
0
 10
21.77221178
 20
3.98079492
  0
VERTEX
  8
0
 10
21.77309682
 20
3.98808538
  0
VERTEX
  8
0
 10
21.77373865
 20
3.99657974
  0
VERTEX
  8
0
 10
21.77382100
 20
4.00254477
  0
VERTEX
  8
0
 10
21.77349944
 20
4.00936122
  0
VERTEX
  8
0
 10
21.77285123
 20
4.01601895
  0
VERTEX
  8
0
 10
21.77203663
 20
4.02216250
  0
VERTEX
  8
0
 10
21.77041437
 20
4.03052292
  0
VERTEX
  8
0
 10
21.76964929
 20
4.03416961
  0
VERTEX
  8
0
 10
21.76843798
 20
4.03859848
  0
VERTEX
  8
0
 10
21.76576484
 20
4.04769954
  0
VERTEX
  8
0
 10
21.76510478
 20
4.04964191
  0
VERTEX
  8
0
 10
21.75965153
 20
4.06466030
  0
VERTEX
  8
0
 10
21.75806601
 20
4.06873286
  0
VERTEX
  8
0
 10
21.75302379
 20
4.07982974
  0
VERTEX
  8
0
 10
21.75072399
 20
4.08466268
  0
VERTEX
  8
0
 10
21.75010169
 20
4.08584379
  0
VERTEX
  8
0
 10
21.73938404
 20
4.10340179
  0
VERTEX
  8
0
 10
21.73826703
 20
4.10505438
  0
VERTEX
  8
0
 10
21.73716181
 20
4.10644862
  0
VERTEX
  8
0
 10
21.72635677
 20
4.12007126
  0
VERTEX
  8
0
 10
21.71775553
 20
4.12992174
  0
VERTEX
  8
0
 10
21.71587860
 20
4.13185356
  0
VERTEX
  8
0
 10
21.70986954
 20
4.13767856
  0
VERTEX
  8
0
 10
21.69778478
 20
4.14826315
  0
VERTEX
  8
0
 10
21.69508657
 20
4.15055867
  0
VERTEX
  8
0
 10
21.69082135
 20
4.15380299
  0
VERTEX
  8
0
 10
21.67526104
 20
4.16579230
  0
VERTEX
  8
0
 10
21.66718728
 20
4.17188483
  0
VERTEX
  8
0
 10
21.65835353
 20
4.18135047
  0
VERTEX
  8
0
 10
21.65771485
 20
4.18196799
  0
VERTEX
  8
0
 10
21.65695338
 20
4.18303990
  0
VERTEX
  8
0
 10
21.65561794
 20
4.18532500
  0
VERTEX
  8
0
 10
21.65101614
 20
4.19254024
  0
VERTEX
  8
0
 10
21.65029986
 20
4.19413823
  0
VERTEX
  8
0
 10
21.65659816
 20
4.20323886
  0
VERTEX
  8
0
 10
21.66714967
 20
4.21464337
  0
VERTEX
  8
0
 10
21.68288363
 20
4.23104210
  0
VERTEX
  8
0
 10
21.69572819
 20
4.24535532
  0
VERTEX
  8
0
 10
21.69968532
 20
4.25011277
  0
VERTEX
  8
0
 10
21.70248695
 20
4.25401116
  0
VERTEX
  8
0
 10
21.71122398
 20
4.26525609
  0
VERTEX
  8
0
 10
21.71642668
 20
4.27383664
  0
VERTEX
  8
0
 10
21.71822448
 20
4.27698271
  0
VERTEX
  8
0
 10
21.71891077
 20
4.27927946
  0
VERTEX
  8
0
 10
21.72098491
 20
4.28546917
  0
VERTEX
  8
0
 10
21.72062058
 20
4.28977580
  0
VERTEX
  8
0
 10
21.72038341
 20
4.29135877
  0
VERTEX
  8
0
 10
21.71938367
 20
4.29323500
  0
VERTEX
  8
0
 10
21.71427311
 20
4.30294912
  0
VERTEX
  8
0
 10
21.70961582
 20
4.31027855
  0
VERTEX
  8
0
 10
21.70348391
 20
4.32002740
  0
VERTEX
  8
0
 10
21.70065371
 20
4.32422323
  0
VERTEX
  8
0
 10
21.69181894
 20
4.33637068
  0
VERTEX
  8
0
 10
21.68142651
 20
4.35021970
  0
VERTEX
  8
0
 10
21.67207973
 20
4.36119532
  0
VERTEX
  8
0
 10
21.66367461
 20
4.37092119
  0
VERTEX
  8
0
 10
21.65571122
 20
4.37927535
  0
VERTEX
  8
0
 10
21.64661657
 20
4.38838373
  0
VERTEX
  8
0
 10
21.63894433
 20
4.39611186
  0
VERTEX
  8
0
 10
21.63689250
 20
4.39802289
  0
VERTEX
  8
0
 10
21.63622534
 20
4.39867476
  0
VERTEX
  8
0
 10
21.63458585
 20
4.40064359
  0
VERTEX
  8
0
 10
21.63167733
 20
4.40386205
  0
VERTEX
  8
0
 10
21.62929400
 20
4.40749060
  0
VERTEX
  8
0
 10
21.62817329
 20
4.40909803
  0
VERTEX
  8
0
 10
21.62761230
 20
4.40994652
  0
VERTEX
  8
0
 10
21.62719170
 20
4.41052418
  0
VERTEX
  8
0
 10
21.60886819
 20
4.43351478
  0
VERTEX
  8
0
 10
21.60847857
 20
4.43398530
  0
VERTEX
  8
0
 10
21.60751999
 20
4.43500533
  0
VERTEX
  8
0
 10
21.59333169
 20
4.44975916
  0
VERTEX
  8
0
 10
21.58767017
 20
4.45490967
  0
VERTEX
  8
0
 10
21.58727620
 20
4.45526808
  0
VERTEX
  8
0
 10
21.58710371
 20
4.45542500
  0
VERTEX
  8
0
 10
21.58667066
 20
4.45581897
  0
VERTEX
  8
0
 10
21.58575807
 20
4.45660724
  0
VERTEX
  8
0
 10
21.58395745
 20
4.45816258
  0
VERTEX
  8
0
 10
21.57760627
 20
4.46364858
  0
VERTEX
  8
0
 10
21.56964277
 20
4.46965765
  0
SEQEND
  0
CIRCLE
  8
Construction
 62
256
 10
20.104884
 20
3.020977
 40
1.875000
  0
ENDSEC
  0
EOF
