  0
SECTION
  2
HEADER
  9
$ACADVER
  1
AC1021
  9
$ACADMAINTVER
 70
    50
  9
$DWGCODEPAGE
  3
ANSI_1252
  9
$INSBASE
 10
0.0
 20
0.0
 30
0.0
  9
$EXTMIN
 10
1.000000000000000E+20
 20
1.000000000000000E+20
 30
1.000000000000000E+20
  9
$EXTMAX
 10
-1.000000000000000E+20
 20
-1.000000000000000E+20
 30
-1.000000000000000E+20
  9
$LIMMIN
 10
0.0
 20
0.0
  9
$LIMMAX
 10
12.0
 20
9.0
  9
$ORTHOMODE
 70
     0
  9
$REGENMODE
 70
     1
  9
$FILLMODE
 70
     1
  9
$QTEXTMODE
 70
     0
  9
$MIRRTEXT
 70
     0
  9
$LTSCALE
 40
1.0
  9
$ATTMODE
 70
     1
  9
$TEXTSIZE
 40
0.2
  9
$TRACEWID
 40
0.05
  9
$TEXTSTYLE
  7
Standard
  9
$CLAYER
  8
0
  9
$CELTYPE
  6
ByLayer
  9
$CECOLOR
 62
   256
  9
$CELTSCALE
 40
1.0
  9
$DISPSILH
 70
     0
  9
$DIMSCALE
 40
1.0
  9
$DIMASZ
 40
0.18
  9
$DIMEXO
 40
0.0625
  9
$DIMDLI
 40
0.38
  9
$DIMRND
 40
0.0
  9
$DIMDLE
 40
0.0
  9
$DIMEXE
 40
0.18
  9
$DIMTP
 40
0.0
  9
$DIMTM
 40
0.0
  9
$DIMTXT
 40
0.18
  9
$DIMCEN
 40
0.09
  9
$DIMTSZ
 40
0.0
  9
$DIMTOL
 70
     0
  9
$DIMLIM
 70
     0
  9
$DIMTIH
 70
     1
  9
$DIMTOH
 70
     1
  9
$DIMSE1
 70
     0
  9
$DIMSE2
 70
     0
  9
$DIMTAD
 70
     0
  9
$DIMZIN
 70
     0
  9
$DIMBLK
  1

  9
$DIMASO
 70
     1
  9
$DIMSHO
 70
     1
  9
$DIMPOST
  1

  9
$DIMAPOST
  1

  9
$DIMALT
 70
     0
  9
$DIMALTD
 70
     2
  9
$DIMALTF
 40
25.4
  9
$DIMLFAC
 40
1.0
  9
$DIMTOFL
 70
     0
  9
$DIMTVP
 40
0.0
  9
$DIMTIX
 70
     0
  9
$DIMSOXD
 70
     0
  9
$DIMSAH
 70
     0
  9
$DIMBLK1
  1

  9
$DIMBLK2
  1

  9
$DIMSTYLE
  2
Standard
  9
$DIMCLRD
 70
     0
  9
$DIMCLRE
 70
     0
  9
$DIMCLRT
 70
     0
  9
$DIMTFAC
 40
1.0
  9
$DIMGAP
 40
0.09
  9
$DIMJUST
 70
     0
  9
$DIMSD1
 70
     0
  9
$DIMSD2
 70
     0
  9
$DIMTOLJ
 70
     1
  9
$DIMTZIN
 70
     0
  9
$DIMALTZ
 70
     0
  9
$DIMALTTZ
 70
     0
  9
$DIMUPT
 70
     0
  9
$DIMDEC
 70
     4
  9
$DIMTDEC
 70
     4
  9
$DIMALTU
 70
     2
  9
$DIMALTTD
 70
     2
  9
$DIMTXSTY
  7
Standard
  9
$DIMAUNIT
 70
     0
  9
$DIMADEC
 70
     0
  9
$DIMALTRND
 40
0.0
  9
$DIMAZIN
 70
     0
  9
$DIMDSEP
 70
    46
  9
$DIMATFIT
 70
     3
  9
$DIMFRAC
 70
     0
  9
$DIMLDRBLK
  1

  9
$DIMLUNIT
 70
     2
  9
$DIMLWD
 70
    -2
  9
$DIMLWE
 70
    -2
  9
$DIMTMOVE
 70
     0
  9
$DIMFXL
 40
1.0
  9
$DIMFXLON
 70
     0
  9
$DIMJOGANG
 40
0.7853981633974483
  9
$DIMTFILL
 70
     0
  9
$DIMTFILLCLR
 70
     0
  9
$DIMARCSYM
 70
     0
  9
$DIMLTYPE
  6

  9
$DIMLTEX1
  6

  9
$DIMLTEX2
  6

  9
$LUNITS
 70
     2
  9
$LUPREC
 70
     4
  9
$SKETCHINC
 40
0.1
  9
$FILLETRAD
 40
0.0
  9
$AUNITS
 70
     0
  9
$AUPREC
 70
     0
  9
$MENU
  1
.
  9
$ELEVATION
 40
0.0
  9
$PELEVATION
 40
0.0
  9
$THICKNESS
 40
0.0
  9
$LIMCHECK
 70
     0
  9
$CHAMFERA
 40
0.0
  9
$CHAMFERB
 40
0.0
  9
$CHAMFERC
 40
0.0
  9
$CHAMFERD
 40
0.0
  9
$SKPOLY
 70
     0
  9
$TDCREATE
 40
2459670.528217593
  9
$TDUCREATE
 40
2459670.819884260
  9
$TDUPDATE
 40
2459670.528217593
  9
$TDUUPDATE
 40
2459670.819884260
  9
$TDINDWG
 40
0.0000000000
  9
$TDUSRTIMER
 40
0.0000000000
  9
$USRTIMER
 70
     1
  9
$ANGBASE
 50
0.0
  9
$ANGDIR
 70
     0
  9
$PDMODE
 70
     0
  9
$PDSIZE
 40
0.0
  9
$PLINEWID
 40
0.0
  9
$SPLFRAME
 70
     0
  9
$SPLINETYPE
 70
     6
  9
$SPLINESEGS
 70
     8
  9
$HANDSEED
  5
F4
  9
$SURFTAB1
 70
     6
  9
$SURFTAB2
 70
     6
  9
$SURFTYPE
 70
     6
  9
$SURFU
 70
     6
  9
$SURFV
 70
     6
  9
$UCSBASE
  2

  9
$UCSNAME
  2

  9
$UCSORG
 10
0.0
 20
0.0
 30
0.0
  9
$UCSXDIR
 10
1.0
 20
0.0
 30
0.0
  9
$UCSYDIR
 10
0.0
 20
1.0
 30
0.0
  9
$UCSORTHOREF
  2

  9
$UCSORTHOVIEW
 70
     0
  9
$UCSORGTOP
 10
0.0
 20
0.0
 30
0.0
  9
$UCSORGBOTTOM
 10
0.0
 20
0.0
 30
0.0
  9
$UCSORGLEFT
 10
0.0
 20
0.0
 30
0.0
  9
$UCSORGRIGHT
 10
0.0
 20
0.0
 30
0.0
  9
$UCSORGFRONT
 10
0.0
 20
0.0
 30
0.0
  9
$UCSORGBACK
 10
0.0
 20
0.0
 30
0.0
  9
$PUCSBASE
  2

  9
$PUCSNAME
  2

  9
$PUCSORG
 10
0.0
 20
0.0
 30
0.0
  9
$PUCSXDIR
 10
1.0
 20
0.0
 30
0.0
  9
$PUCSYDIR
 10
0.0
 20
1.0
 30
0.0
  9
$PUCSORTHOREF
  2

  9
$PUCSORTHOVIEW
 70
     0
  9
$PUCSORGTOP
 10
0.0
 20
0.0
 30
0.0
  9
$PUCSORGBOTTOM
 10
0.0
 20
0.0
 30
0.0
  9
$PUCSORGLEFT
 10
0.0
 20
0.0
 30
0.0
  9
$PUCSORGRIGHT
 10
0.0
 20
0.0
 30
0.0
  9
$PUCSORGFRONT
 10
0.0
 20
0.0
 30
0.0
  9
$PUCSORGBACK
 10
0.0
 20
0.0
 30
0.0
  9
$USERI1
 70
     0
  9
$USERI2
 70
     0
  9
$USERI3
 70
     0
  9
$USERI4
 70
     0
  9
$USERI5
 70
     0
  9
$USERR1
 40
0.0
  9
$USERR2
 40
0.0
  9
$USERR3
 40
0.0
  9
$USERR4
 40
0.0
  9
$USERR5
 40
0.0
  9
$WORLDVIEW
 70
     1
  9
$SHADEDGE
 70
     3
  9
$SHADEDIF
 70
    70
  9
$TILEMODE
 70
     1
  9
$MAXACTVP
 70
    64
  9
$PINSBASE
 10
0.0
 20
0.0
 30
0.0
  9
$PLIMCHECK
 70
     0
  9
$PEXTMIN
 10
1.000000000000000E+20
 20
1.000000000000000E+20
 30
1.000000000000000E+20
  9
$PEXTMAX
 10
-1.000000000000000E+20
 20
-1.000000000000000E+20
 30
-1.000000000000000E+20
  9
$PLIMMIN
 10
0.0
 20
0.0
  9
$PLIMMAX
 10
12.0
 20
9.0
  9
$UNITMODE
 70
     0
  9
$VISRETAIN
 70
     1
  9
$PLINEGEN
 70
     0
  9
$PSLTSCALE
 70
     1
  9
$TREEDEPTH
 70
  3020
  9
$CMLSTYLE
  2
Standard
  9
$CMLJUST
 70
     0
  9
$CMLSCALE
 40
1.0
  9
$PROXYGRAPHICS
 70
     1
  9
$MEASUREMENT
 70
     0
  9
$CELWEIGHT
370
    -1
  9
$ENDCAPS
280
     0
  9
$JOINSTYLE
280
     0
  9
$LWDISPLAY
290
     0
  9
$INSUNITS
 70
     0
  9
$HYPERLINKBASE
  1

  9
$STYLESHEET
  1

  9
$XEDIT
290
     1
  9
$CEPSNTYPE
380
     0
  9
$PSTYLEMODE
290
     1
  9
$FINGERPRINTGUID
  2
{04DC4045-1665-7141-AF13-0C228E928B09}
  9
$VERSIONGUID
  2
{A9F499DB-4EF6-C04E-83B5-CD7D225D64B9}
  9
$EXTNAMES
290
     1
  9
$PSVPSCALE
 40
0.0
  9
$OLESTARTUP
290
     0
  9
$SORTENTS
280
   127
  9
$INDEXCTL
280
     0
  9
$HIDETEXT
280
     1
  9
$XCLIPFRAME
290
     0
  9
$HALOGAP
280
     0
  9
$OBSCOLOR
 70
   257
  9
$OBSLTYPE
280
     0
  9
$INTERSECTIONDISPLAY
280
     0
  9
$INTERSECTIONCOLOR
 70
   257
  9
$DIMASSOC
280
     2
  9
$PROJECTNAME
  1

  9
$CAMERADISPLAY
290
     0
  9
$LENSLENGTH
 40
50.0
  9
$CAMERAHEIGHT
 40
0.0
  9
$STEPSPERSEC
 40
2.0
  9
$STEPSIZE
 40
6.0
  9
$3DDWFPREC
 40
2.0
  9
$PSOLWIDTH
 40
0.25
  9
$PSOLHEIGHT
 40
4.0
  9
$LOFTANG1
 40
1.570796326794896
  9
$LOFTANG2
 40
1.570796326794896
  9
$LOFTMAG1
 40
0.0
  9
$LOFTMAG2
 40
0.0
  9
$LOFTPARAM
 70
     7
  9
$LOFTNORMALS
280
     1
  9
$LATITUDE
 40
37.795
  9
$LONGITUDE
 40
-122.394
  9
$NORTHDIRECTION
 40
0.0
  9
$TIMEZONE
 70
 -8000
  9
$LIGHTGLYPHDISPLAY
280
     1
  9
$TILEMODELIGHTSYNCH
280
     1
  9
$CMATERIAL
347
11
  9
$SOLIDHIST
280
     0
  9
$SHOWHIST
280
     1
  9
$DWFFRAME
280
     2
  9
$DGNFRAME
280
     0
  9
$REALWORLDSCALE
290
     1
  9
$INTERFERECOLOR
 62
     1
  9
$INTERFEREOBJVS
345
33
  9
$INTERFEREVPVS
346
30
  9
$CSHADOW
280
     0
  9
$SHADOWPLANELOCATION
 40
0.0
  0
ENDSEC
  0
SECTION
  2
CLASSES
  0
CLASS
  1
ACDBDICTIONARYWDFLT
  2
AcDbDictionaryWithDefault
  3
ObjectDBX Classes
 90
        0
 91
        1
280
     0
281
     0
  0
CLASS
  1
MATERIAL
  2
AcDbMaterial
  3
ObjectDBX Classes
 90
     1153
 91
        3
280
     0
281
     0
  0
CLASS
  1
VISUALSTYLE
  2
AcDbVisualStyle
  3
ObjectDBX Classes
 90
     4095
 91
       24
280
     0
281
     0
  0
CLASS
  1
SCALE
  2
AcDbScale
  3
ObjectDBX Classes
 90
     1153
 91
       17
280
     0
281
     0
  0
CLASS
  1
TABLESTYLE
  2
AcDbTableStyle
  3
ObjectDBX Classes
 90
     4095
 91
        1
280
     0
281
     0
  0
CLASS
  1
MLEADERSTYLE
  2
AcDbMLeaderStyle
  3
ACDB_MLEADERSTYLE_CLASS
 90
     4095
 91
        1
280
     0
281
     0
  0
CLASS
  1
ACDBSECTIONVIEWSTYLE
  2
AcDbSectionViewStyle
  3
ObjectDBX Classes
 90
     1025
 91
        1
280
     0
281
     0
  0
CLASS
  1
ACDBDETAILVIEWSTYLE
  2
AcDbDetailViewStyle
  3
ObjectDBX Classes
 90
     1025
 91
        1
280
     0
281
     0
  0
CLASS
  1
DICTIONARYVAR
  2
AcDbDictionaryVar
  3
ObjectDBX Classes
 90
        0
 91
        6
280
     0
281
     0
  0
CLASS
  1
CELLSTYLEMAP
  2
AcDbCellStyleMap
  3
ObjectDBX Classes
 90
     1152
 91
        1
280
     0
281
     0
  0
ENDSEC
  0
SECTION
  2
TABLES
  0
TABLE
  2
VPORT
  5
8
330
0
100
AcDbSymbolTable
 70
     1
  0
VPORT
  5
57
330
8
100
AcDbSymbolTableRecord
100
AcDbViewportTableRecord
  2
*Active
 70
     0
 10
0.0
 20
0.0
 11
1.0
 21
1.0
 12
500.0
 22
500.0
 13
0.0
 23
0.0
 14
1.0
 24
1.0
 15
0.0
 25
0.0
 16
0.0
 26
0.0
 36
1.0
 17
0.0
 27
0.0
 37
0.0
 40
12.0
 41
1.0
 42
50.0
 43
0.0
 44
0.0
 50
0.0
 51
0.0
 71
     0
 72
   100
 73
     1
 74
     1
 75
     0
 76
     0
 77
     0
 78
     0
281
     0
 65
     1
110
0.0
120
0.0
130
0.0
111
1.0
121
0.0
131
0.0
112
0.0
122
1.0
132
0.0
 79
     0
146
0.0
 60
     3
 61
     5
292
     1
282
     1
141
0.0
142
0.0
 63
   250
421
  3355443
  0
ENDTAB
  0
TABLE
  2
LTYPE
  5
5
330
0
100
AcDbSymbolTable
 70
     1
  0
LTYPE
  5
5B
330
5
100
AcDbSymbolTableRecord
100
AcDbLinetypeTableRecord
  2
ByBlock
 70
     0
  3

 72
    65
 73
     0
 40
0.0
  0
LTYPE
  5
5C
330
5
100
AcDbSymbolTableRecord
100
AcDbLinetypeTableRecord
  2
ByLayer
 70
     0
  3

 72
    65
 73
     0
 40
0.0
  0
LTYPE
  5
5D
330
5
100
AcDbSymbolTableRecord
100
AcDbLinetypeTableRecord
  2
Continuous
 70
     0
  3
Solid line
 72
    65
 73
     0
 40
0.0
  0
ENDTAB
  0
TABLE
  2
LAYER
  5
2
330
0
100
AcDbSymbolTable
 70
     2
  0
LAYER
  5
54
330
2
100
AcDbSymbolTableRecord
100
AcDbLayerTableRecord
  2
0
 70
     0
 62
     7
  6
Continuous
370
    -3
390
F
347
21
  0
LAYER
  5
78
330
2
100
AcDbSymbolTableRecord
100
AcDbLayerTableRecord
  2
Vector Layer 1
 70
     0
 62
     7
  6
Continuous
370
    30
390
F
347
21
  0
ENDTAB
  0
TABLE
  2
STYLE
  5
3
330
0
100
AcDbSymbolTable
 70
     2
  0
STYLE
  5
55
330
3
100
AcDbSymbolTableRecord
100
AcDbTextStyleTableRecord
  2
Standard
 70
     0
 40
0.0
 41
1.0
 50
0.0
 71
     0
 42
0.2
  3
txt
  4

  0
STYLE
  5
5A
330
3
100
AcDbSymbolTableRecord
100
AcDbTextStyleTableRecord
  2
Annotative
 70
     0
 40
0.0
 41
1.0
 50
0.0
 71
     0
 42
0.2
  3
txt
  4

1001
AcadAnnotative
1000
AnnotativeData
1002
{
1070
     1
1070
     1
1002
}
  0
ENDTAB
  0
TABLE
  2
VIEW
  5
6
330
0
100
AcDbSymbolTable
 70
     0
  0
ENDTAB
  0
TABLE
  2
UCS
  5
7
330
0
100
AcDbSymbolTable
 70
     0
  0
ENDTAB
  0
TABLE
  2
APPID
  5
9
330
0
100
AcDbSymbolTable
 70
     3
  0
APPID
  5
56
330
9
100
AcDbSymbolTableRecord
100
AcDbRegAppTableRecord
  2
ACAD
 70
     0
  0
APPID
  5
5E
330
9
100
AcDbSymbolTableRecord
100
AcDbRegAppTableRecord
  2
AcadAnnotative
 70
     0
  0
APPID
  5
ED
330
9
100
AcDbSymbolTableRecord
100
AcDbRegAppTableRecord
  2
ACAD_MLEADERVER
 70
     0
  0
ENDTAB
  0
TABLE
  2
DIMSTYLE
  5
A
330
0
100
AcDbSymbolTable
 70
     2
100
AcDbDimStyleTable
 71
     0
  0
DIMSTYLE
105
58
330
A
100
AcDbSymbolTableRecord
100
AcDbDimStyleTableRecord
  2
Standard
 70
     0
340
55
  0
DIMSTYLE
105
59
330
A
100
AcDbSymbolTableRecord
100
AcDbDimStyleTableRecord
  2
Annotative
 70
     0
340
55
1001
AcadAnnotative
1000
AnnotativeData
1002
{
1070
     1
1070
     1
1002
}
  0
ENDTAB
  0
TABLE
  2
BLOCK_RECORD
  5
1
330
0
100
AcDbSymbolTable
 70
     1
  0
BLOCK_RECORD
  5
70
330
1
100
AcDbSymbolTableRecord
100
AcDbBlockTableRecord
  2
*Model_Space
340
73
 70
     0
280
     1
281
     0
  0
BLOCK_RECORD
  5
6C
330
1
100
AcDbSymbolTableRecord
100
AcDbBlockTableRecord
  2
*Paper_Space
340
6F
 70
     0
280
     1
281
     0
  0
BLOCK_RECORD
  5
74
330
1
100
AcDbSymbolTableRecord
100
AcDbBlockTableRecord
  2
*Paper_Space0
340
77
 70
     0
280
     1
281
     0
  0
ENDTAB
  0
ENDSEC
  0
SECTION
  2
BLOCKS
  0
BLOCK
  5
71
330
70
100
AcDbEntity
  8
0
100
AcDbBlockBegin
  2
*Model_Space
 70
     0
 10
0.0
 20
0.0
 30
0.0
  3
*Model_Space
  1

  0
ENDBLK
  5
72
330
70
100
AcDbEntity
  8
0
100
AcDbBlockEnd
  0
BLOCK
  5
6D
330
6C
100
AcDbEntity
 67
     1
  8
0
100
AcDbBlockBegin
  2
*Paper_Space
 70
     0
 10
0.0
 20
0.0
 30
0.0
  3
*Paper_Space
  1

  0
ENDBLK
  5
6E
330
6C
100
AcDbEntity
 67
     1
  8
0
100
AcDbBlockEnd
  0
BLOCK
  5
75
330
74
100
AcDbEntity
 67
     1
  8
0
100
AcDbBlockBegin
  2
*Paper_Space0
 70
     0
 10
0.0
 20
0.0
 30
0.0
  3
*Paper_Space0
  1

  0
ENDBLK
  5
76
330
74
100
AcDbEntity
 67
     1
  8
0
100
AcDbBlockEnd
  0
ENDSEC
  0
SECTION
  2
ENTITIES
  0
LWPOLYLINE
  5
79
330
70
100
AcDbEntity
  8
Vector Layer 1
 62
    18
420
        0
370
    30
100
AcDbPolyline
 90
        8
 70
     0
 43
0.0
 10
-0.0625
 20
-3.312499999999998
 10
-0.0625
 20
3.312499999999997
 10
-0.0625
 20
3.312499999999997
 10
-10.0625
 20
3.312500000000001
 10
-10.0625
 20
3.312500000000001
 10
-10.0625
 20
-3.3125
 10
-10.0625
 20
-3.3125
 10
-0.0625
 20
-3.312499999999998
210
0.0
220
0.0
230
-1.0
  0
LWPOLYLINE
  5
7A
330
70
100
AcDbEntity
  8
Vector Layer 1
 62
    18
420
        0
370
    30
100
AcDbPolyline
 90
     1831
 70
     0
 43
0.0
 10
6.905812217133458
 20
-2.320640745589322
 10
6.912485455397924
 20
-2.307728750673267
 10
6.917472107478557
 20
-2.293379172155246
 10
6.921333570952819
 20
-2.278027814424344
 10
6.92463124339817
 20
-2.262110481869644
 10
6.927926522392071
 20
-2.246062978880234
 10
6.931780805511981
 20
-2.230321109845197
 10
6.936755490335362
 20
-2.21532067915362
 10
6.943411974439674
 20
-2.201497491194586
 10
6.943411974439673
 20
-2.201497491194586
 10
6.952896100129969
 20
-2.183342115248192
 10
6.961442420825991
 20
-2.164407201679095
 10
6.970048049184428
 20
-2.145431159545791
 10
6.979710097861964
 20
-2.127152397906777
 10
6.979710097861964
 20
-2.127152397906778
 10
6.995607521398375
 20
-2.101278866977744
 10
7.012702290243438
 20
-2.076015114624262
 10
7.03141903785292
 20
-2.05205104549607
 10
7.03141903785292
 20
-2.052051045496069
 10
7.059762361417062
 20
-2.018567903468459
 10
7.088608450496436
 20
-1.985764363565946
 10
7.088608450496436
 20
-1.985764363565946
 10
7.099800074496307
 20
-1.974676083930306
 10
7.111526197000889
 20
-1.964173334825485
 10
7.123211546520662
 20
-1.953408725642638
 10
7.134280851566108
 20
-1.941534865772924
 10
7.134280851566109
 20
-1.941534865772924
 10
7.144939276102335
 20
-1.9303262534536
 10
7.156527908103334
 20
-1.920486635855486
 10
7.168635644810462
 20
-1.911414165194345
 10
7.180851383465074
 20
-1.902506993685942
 10
7.192764021308525
 20
-1.893163273546038
 10
7.203962455582173
 20
-1.882781156990399
 10
7.203962455582174
 20
-1.882781156990399
 10
7.218524708142488
 20
-1.869350179520133
 10
7.23423437566174
 20
-1.857271825139543
 10
7.250556986067851
 20
-1.84589775473421
 10
7.26695806728874
 20
-1.834579629189717
 10
7.282903147252327
 20
-1.822669109391649
 10
7.297857753886532
 20
-1.809517856225587
 10
7.297857753886534
 20
-1.809517856225587
 10
7.307749077098152
 20
-1.801174407013616
 10
7.318286030665566
 20
-1.793994548983253
 10
7.328857576038457
 20
-1.787236874253236
 10
7.338852674666507
 20
-1.780159974942304
 10
7.338852674666507
 20
-1.780159974942304
 10
7.366436052461317
 20
-1.758867215959164
 10
7.395498325137904
 20
-1.737906352884631
 10
7.395498325137904
 20
-1.737906352884631
 10
7.440443891794044
 20
-1.705815555211195
 10
7.484344257458735
 20
-1.672101291738009
 10
7.527177903047512
 20
-1.637070263011017
 10
7.568923309475911
 20
-1.601029169576167
 10
7.56892330947591
 20
-1.601029169576167
 10
7.594104056709918
 20
-1.578555259891849
 10
7.618991483535705
 20
-1.555527664099977
 10
7.64314391209428
 20
-1.531707853057695
 10
7.666119664526648
 20
-1.506857297622147
 10
7.687477062973818
 20
-1.480737468650474
 10
7.706774429576795
 20
-1.453109836999821
 10
7.706774429576793
 20
-1.453109836999821
 10
7.714640109269808
 20
-1.442472145163627
 10
7.723082443438482
 20
-1.43240429045377
 10
7.730746240108136
 20
-1.422097741437649
 10
7.730746240108135
 20
-1.422097741437649
 10
7.743205150487325
 20
-1.403400124565475
 10
7.755833069381164
 20
-1.384541755388456
 10
7.767482202778247
 20
-1.364979335374484
 10
7.767482202778247
 20
-1.364979335374484
 10
7.779425510623195
 20
-1.340627233149988
 10
7.790324401997137
 20
-1.315664294524203
 10
7.801147882171505
 20
-1.290692434764895
 10
7.812864956417725
 20
-1.266313569139831
 10
7.812864956417724
 20
-1.26631356913983
 10
7.817382074402076
 20
-1.255391942754245
 10
7.820347478242089
 20
-1.243886199949172
 10
7.822435016570497
 20
-1.232027089277556
 10
7.824318538020033
 20
-1.220045359292343
 10
7.826671891223432
 20
-1.208171758546476
 10
7.830168924813428
 20
-1.196637035592902
 10
7.830168924813428
 20
-1.196637035592902
 10
7.834121436394203
 20
-1.183245966735259
 10
7.836600872582962
 20
-1.169430843670449
 10
7.838488331607883
 20
-1.155427127794172
 10
7.840664911697142
 20
-1.141470280502129
 10
7.844011711078914
 20
-1.12779576319002
 10
7.844011711078912
 20
-1.12779576319002
 10
7.848026366137568
 20
-1.111205022388042
 10
7.85027869217191
 20
-1.094234841123433
 10
7.851472676380998
 20
-1.077079994398949
 10
7.852312305963893
 20
-1.059935257217348
 10
7.852312305963894
 20
-1.059935257217348
 10
7.85309625274323
 20
-1.031498899015304
 10
7.853049406381988
 20
-1.003002360728587
 10
7.853050211689902
 20
-0.9744638310632428
 10
7.853050211689903
 20
-0.9744638310632428
 10
7.852034782281216
 20
-0.9455827263841747
 10
7.848938708156261
 20
-0.9168872963026194
 10
7.844654521459183
 20
-0.8883012131183816
 10
7.840074754334128
 20
-0.8597481491312661
 10
7.836091938925241
 20
-0.8311517766410776
 10
7.836091938925242
 20
-0.8311517766410776
 10
7.831916156670976
 20
-0.8046501829830555
 10
7.826408550814838
 20
-0.7783571631810013
 10
7.82064209617333
 20
-0.7521126300600776
 10
7.815689767562953
 20
-0.7257564964454473
 10
7.815689767562954
 20
-0.7257564964454473
 10
7.810756310561567
 20
-0.7032559528735288
 10
7.80397458928305
 20
-0.6810645405115641
 10
7.796593268279347
 20
-0.659023330831662
 10
7.789861012102403
 20
-0.6369733953059314
 10
7.789861012102403
 20
-0.6369733953059314
 10
7.785766122424938
 20
-0.6227610904661045
 10
7.781662139686687
 20
-0.6085139803642515
 10
7.778247948173191
 20
-0.594118199476135
 10
7.77824794817319
 20
-0.594118199476135
 10
7.773387706823451
 20
-0.5750157837812045
 10
7.766804090172461
 20
-0.5561444934518752
 10
7.759214276478915
 20
-0.5374679465876758
 10
7.751335444001511
 20
-0.5189497612881344
 10
7.743884770998945
 20
-0.5005535556527795
 10
7.743884770998946
 20
-0.5005535556527795
 10
7.741784586838456
 20
-0.493366714280221
 10
7.74021484919637
 20
-0.4859394047591488
 10
7.738335734142651
 20
-0.4786633520850198
 10
7.735307417747269
 20
-0.4719302812532905
 10
7.735307417747268
 20
-0.4719302812532905
 10
7.729136656961833
 20
-0.4596832107401662
 10
7.72418400542636
 20
-0.446728867426171
 10
7.719356623997306
 20
-0.4338021884475598
 10
7.713561673531128
 20
-0.4216381109405878
 10
7.713561673531127
 20
-0.4216381109405878
 10
7.710225667725032
 20
-0.4144014089205755
 10
7.707684409987857
 20
-0.4065697378521047
 10
7.705387263411053
 20
-0.3985516306119272
 10
7.702783591086075
 20
-0.3907556200767952
 10
7.699322756104374
 20
-0.3835902391234604
 10
7.694454121557403
 20
-0.3774640206286751
 10
7.687627050536617
 20
-0.3727854974691911
 10
7.687627050536618
 20
-0.3727854974691913
 10
7.677764821538554
 20
-0.369176462862235
 10
7.66779391196253
 20
-0.3676388262219343
 10
7.65799113966372
 20
-0.3681769412806122
 10
7.648633322497302
 20
-0.3707951617705918
 10
7.639997278318451
 20
-0.3754978414241963
 10
7.632359824982343
 20
-0.3822893339737488
 10
7.632359824982344
 20
-0.3822893339737488
 10
7.624295987264695
 20
-0.3894461118905836
 10
7.615321392379009
 20
-0.3950451732908068
 10
7.60601881037896
 20
-0.4000207311313011
 10
7.596971011318222
 20
-0.4053069983689492
 10
7.58876076525047
 20
-0.411838187960634
 10
7.58876076525047
 20
-0.4118381879606339
 10
7.577487757713862
 20
-0.4214369087612899
 10
7.565456197251512
 20
-0.4299705513377499
 10
7.553421663203958
 20
-0.4384155857895459
 10
7.54213973491174
 20
-0.4477484822162103
 10
7.54213973491174
 20
-0.4477484822162104
 10
7.539715504834062
 20
-0.4460337683794477
 10
7.539574095484654
 20
-0.443782485445222
 10
7.540998818059942
 20
-0.4411476754656143
 10
7.543272983756351
 20
-0.4382823804927049
 10
7.545679903770307
 20
-0.4353396425785745
 10
7.547502889298232
 20
-0.4324725037753036
 10
7.547502889298232
 20
-0.4324725037753036
 10
7.556082802344944
 20
-0.4145493920283516
 10
7.564793024590236
 20
-0.396376276169381
 10
7.572964794379428
 20
-0.3778600696964696
 10
7.579929350057839
 20
-0.3589076861076948
 10
7.585017929970787
 20
-0.3394260389011342
 10
7.585017929970787
 20
-0.3394260389011341
 10
7.592511056637675
 20
-0.296476472175602
 10
7.597853167103305
 20
-0.2532802843443639
 10
7.600942084070121
 20
-0.209391817882623
 10
7.600942084070121
 20
-0.209391817882623
 10
7.601734616324981
 20
-0.166406582156516
 10
7.600449387204619
 20
-0.1242415681964228
 10
7.597290968760998
 20
-0.0819121860292171
 10
7.592463933046082
 20
-0.0384338456817729
 10
7.592463933046082
 20
-0.0384338456817729
 10
7.590143483730573
 20
-0.0286294791716624
 10
7.585989724874206
 20
-0.0205183864115852
 10
7.580169130878434
 20
-0.0139576988254523
 10
7.572848176144707
 20
-0.0088045478371747
 10
7.564193335074476
 20
-0.0049160648706634
 10
7.554371082069194
 20
-0.0021493813498296
 10
7.543547891530312
 20
-0.0003616286985841
 10
7.543547891530313
 20
-0.0003616286985841
 10
7.55336116939542
 20
0.0016710670040595
 10
7.562472327390796
 20
0.0043803940819967
 10
7.570709046553635
 20
0.0078951376112031
 10
7.577899007921127
 20
0.0123440826676544
 10
7.583869892530463
 20
0.0178560143273264
 10
7.588449381418836
 20
0.0245597176661947
 10
7.591465155623437
 20
0.0325839777602351
 10
7.592744896181456
 20
0.0420575796854232
 10
7.592744896181457
 20
0.0420575796854232
 10
7.593887960460235
 20
0.0579212299900764
 10
7.595778385123009
 20
0.0728658205954155
 10
7.597820919529514
 20
0.0874362292512626
 10
7.599420313039486
 20
0.1021773337074397
 10
7.59998131501266
 20
0.1176340117137691
 10
7.59998131501266
 20
0.1176340117137691
 10
7.600373430980474
 20
0.143704024103439
 10
7.601205776852216
 20
0.1691896157237852
 10
7.601179420460669
 20
0.194971880239633
 10
7.601179420460669
 20
0.1949718802396331
 10
7.599194966919762
 20
0.2245139244450542
 10
7.595781317649763
 20
0.2537450492367854
 10
7.591723095817193
 20
0.2828361373245282
 10
7.587804924588576
 20
0.3119580714179837
 10
7.584811427130436
 20
0.3412817342268533
 10
7.584811427130437
 20
0.3412817342268533
 10
7.578101531864278
 20
0.3530906972923556
 10
7.572785517736543
 20
0.3654192451885451
 10
7.568160060878033
 20
0.3779966129195389
 10
7.56352183741955
 20
0.3905520354894541
 10
7.558167523491895
 20
0.4028147479024076
 10
7.551393795225869
 20
0.4145139851625165
 10
7.551393795225869
 20
0.4145139851625165
 10
7.54851777688315
 20
0.4205239860684408
 10
7.546650560911635
 20
0.4270736936232522
 10
7.544670504338025
 20
0.4334728127333299
 10
7.541455964189018
 20
0.439031048305054
 10
7.541455964189019
 20
0.439031048305054
 10
7.53920056189454
 20
0.4417818896877208
 10
7.536902838463587
 20
0.4449585590774535
 10
7.535022367261488
 20
0.4482325675710813
 10
7.53401872165357
 20
0.4512754262654333
 10
7.534351475005161
 20
0.4537586462573385
 10
7.536480200681589
 20
0.4553537386436261
 10
7.536480200681591
 20
0.4553537386436261
 10
7.539783527086167
 20
0.4546484334845947
 10
7.542108323409083
 20
0.4527554547005902
 10
7.543866357824359
 20
0.4501702406864121
 10
7.545469398506019
 20
0.4473882298368605
 10
7.547329213628085
 20
0.444904860546735
 10
7.547329213628084
 20
0.4449048605467349
 10
7.559316896306908
 20
0.4341741822468448
 10
7.572540232684421
 20
0.4245171697350767
 10
7.586451095926456
 20
0.415488926268597
 10
7.60050135919885
 20
0.4066445551045724
 10
7.614142895667438
 20
0.3975391595001695
 10
7.626827578498053
 20
0.3877278427125549
 10
7.626827578498053
 20
0.3877278427125549
 10
7.633544573468849
 20
0.3826416877941157
 10
7.641100161236142
 20
0.3781450042565711
 10
7.649243696428168
 20
0.374390865314805
 10
7.657724533673166
 20
0.3715323441837007
 10
7.666292027599372
 20
0.3697225140781419
 10
7.674695532835025
 20
0.3691144482130122
 10
7.682684404008362
 20
0.369861219803195
 10
7.690007995747621
 20
0.3721159020635741
 10
7.69641566268104
 20
0.376031568209033
 10
7.701656759436856
 20
0.3817612914544553
 10
7.705480640643306
 20
0.3894581450147246
 10
7.707636660928629
 20
0.3992752021047245
 10
7.707636660928629
 20
0.3992752021047245
 10
7.709206496577399
 20
0.4072189731108735
 10
7.711673814742153
 20
0.4137426433101092
 10
7.714686161950181
 20
0.4194505940601108
 10
7.71789108472877
 20
0.4249472067185576
 10
7.72093612960521
 20
0.4308368626431287
 10
7.723468843106789
 20
0.4377239431915033
 10
7.72346884310679
 20
0.4377239431915034
 10
7.728123889002992
 20
0.4511659360508201
 10
7.73336773366406
 20
0.4635104291929759
 10
7.738338302652838
 20
0.4757275255185315
 10
7.742173521532167
 20
0.4887873279280476
 10
7.742173521532168
 20
0.4887873279280476
 10
7.746399155315185
 20
0.5035965568169917
 10
7.751928314156455
 20
0.5178452704969935
 10
7.7578948278726
 20
0.5319164262278948
 10
7.763432526280245
 20
0.5461929812695376
 10
7.763432526280245
 20
0.5461929812695377
 10
7.773593616714607
 20
0.5748156832431734
 10
7.783390085313943
 20
0.6036233535163312
 10
7.7917069172988
 20
0.6332247756842789
 10
7.7917069172988
 20
0.6332247756842789
 10
7.793468962346203
 20
0.6431502202762288
 10
7.794817770151468
 20
0.6530570771649546
 10
7.796898428419339
 20
0.6626957613253233
 10
7.800856024854567
 20
0.671816687732202
 10
7.800856024854567
 20
0.6718166877322018
 10
7.807426350298771
 20
0.6851653082931617
 10
7.812020890662378
 20
0.6991407992137887
 10
7.815344656078895
 20
0.7135265587152168
 10
7.818102656681833
 20
0.7281059850185799
 10
7.820999902604699
 20
0.7426624763450118
 10
7.820999902604699
 20
0.7426624763450118
 10
7.829551539600835
 20
0.7858884885216203
 10
7.836924289169144
 20
0.8292757931798259
 10
7.84432221032674
 20
0.8727869301141446
 10
7.84432221032674
 20
0.8727869301141446
 10
7.848939919353085
 20
0.9033275986009574
 10
7.851832451698449
 20
0.933964894412086
 10
7.852995207600347
 20
0.9648739596649454
 10
7.852995207600348
 20
0.9648739596649452
 10
7.853053143541385
 20
1.009172713749429
 10
7.85303022687075
 20
1.053481206358854
 10
7.853030226870749
 20
1.053481206358854
 10
7.851973086780523
 20
1.085759122344995
 10
7.848628130819548
 20
1.117700247138273
 10
7.843309871858668
 20
1.149388883287724
 10
7.836332822768727
 20
1.180909333342387
 10
7.836332822768728
 20
1.180909333342387
 10
7.831644717508272
 20
1.201303151828392
 10
7.827151260270057
 20
1.221687782690153
 10
7.822271715296028
 20
1.241892315169816
 10
7.816425346828126
 20
1.26174583850953
 10
7.809031419108297
 20
1.281077441951442
 10
7.799509196378482
 20
1.299716214737699
 10
7.799509196378483
 20
1.299716214737699
 10
7.7922098761231
 20
1.313813711026497
 10
7.786084252978373
 20
1.328350851818007
 10
7.780367932602445
 20
1.343008452357146
 10
7.774296520653461
 20
1.357467327888826
 10
7.767105622789562
 20
1.371408293657962
 10
7.758030844668891
 20
1.384512164909467
 10
7.758030844668891
 20
1.384512164909467
 10
7.74231435488079
 20
1.405731209929716
 10
7.728520576274142
 20
1.427942853319894
 10
7.716365800550455
 20
1.450599462224371
 10
7.716365800550454
 20
1.450599462224371
 10
7.713903325349718
 20
1.453621891596759
 10
7.71051679437665
 20
1.455955080930714
 10
7.706833151957846
 20
1.458169967617767
 10
7.703479342419898
 20
1.460837489049446
 10
7.701082310089398
 20
1.46452858261728
 10
7.701082310089399
 20
1.46452858261728
 10
7.698535251710692
 20
1.468744723670392
 10
7.69507357928816
 20
1.471991617469266
 10
7.691238040153479
 20
1.474887087960776
 10
7.687569381638329
 20
1.478048959091795
 10
7.684608351074387
 20
1.482095054809198
 10
7.684608351074387
 20
1.482095054809198
 10
7.675330222091039
 20
1.497471144848803
 10
7.664687225481065
 20
1.511059656405718
 10
7.653001114039188
 20
1.52330504156716
 10
7.640593640560129
 20
1.534651752420347
 10
7.627786557838611
 20
1.545544241052497
 10
7.614901618669355
 20
1.556426959550829
 10
7.602260575847084
 20
1.56774436000256
 10
7.59018518216652
 20
1.579940894494908
 10
7.578997190422384
 20
1.59346101511509
 10
7.578997190422384
 20
1.59346101511509
 10
7.569361948000175
 20
1.60445127087063
 10
7.558537701612446
 20
1.613977171806427
 10
7.547078865201284
 20
1.622663179640291
 10
7.535539852708774
 20
1.631133756090031
 10
7.524475078077
 20
1.640013362873457
 10
7.514438955248047
 20
1.64992646170838
 10
7.505985898164
 20
1.661497514312608
 10
7.505985898164001
 20
1.661497514312608
 10
7.497734054146912
 20
1.666063695682822
 10
7.490192914165679
 20
1.671545651003905
 10
7.482228731300425
 20
1.67653094908267
 10
7.482228731300426
 20
1.67653094908267
 10
7.474306646573825
 20
1.68159422664878
 10
7.467116983517514
 20
1.687591769781514
 10
7.459890297978292
 20
1.693520389844243
 10
7.451857145802959
 20
1.698376898200338
 10
7.451857145802961
 20
1.698376898200338
 10
7.445151471789486
 20
1.702514159839577
 10
7.43950080866973
 20
1.707680895183248
 10
7.434240323496552
 20
1.713264563597405
 10
7.428705183322808
 20
1.718652624448103
 10
7.422230555201358
 20
1.723232537101399
 10
7.422230555201359
 20
1.723232537101399
 10
7.414304810241839
 20
1.728477139654327
 10
7.407074392371026
 20
1.734370580263816
 10
7.399913739046985
 20
1.740255324694172
 10
7.392197287727784
 20
1.745473838709705
 10
7.383299475871488
 20
1.749368588074723
 10
7.383299475871488
 20
1.749368588074723
 10
7.371839492674904
 20
1.754217305243798
 10
7.36180417604097
 20
1.7607154303614
 10
7.352690699255452
 20
1.768296125604031
 10
7.343996235604114
 20
1.776392553148195
 10
7.335217958372721
 20
1.784437875170391
 10
7.325853040847039
 20
1.791865253847124
 10
7.32585304084704
 20
1.791865253847124
 10
7.319724115024198
 20
1.795831362342399
 10
7.313576112416787
 20
1.79970665595304
 10
7.307783100685868
 20
1.804139472000831
 10
7.307783100685867
 20
1.80413947200083
 10
7.291153703504185
 20
1.818016657925732
 10
7.27394352940272
 20
1.830726350794599
 10
7.256251366013986
 20
1.842786953801179
 10
7.238176000970493
 20
1.854716870139218
 10
7.238176000970493
 20
1.854716870139218
 10
7.222481999097331
 20
1.866301778258855
 10
7.207747366439715
 20
1.87861957675897
 10
7.192880729250386
 20
1.890767000140605
 10
7.176790713782087
 20
1.901840782904803
 10
7.176790713782088
 20
1.901840782904803
 10
7.170438242408379
 20
1.906639247632208
 10
7.165309200263139
 20
1.912205912570218
 10
7.160818592311668
 20
1.91817990697785
 10
7.156381423519267
 20
1.924200360114119
 10
7.151412698851237
 20
1.929906401238042
 10
7.151412698851237
 20
1.929906401238042
 10
7.140775435686585
 20
1.939459010222438
 10
7.129452471043855
 20
1.948538585357389
 10
7.118222918374016
 20
1.95787657171087
 10
7.107865891128038
 20
1.968204414350856
 10
7.107865891128039
 20
1.968204414350857
 10
7.086778135787441
 20
1.990718583824938
 10
7.064069802200292
 20
2.011695722835477
 10
7.064069802200292
 20
2.011695722835477
 10
7.052618069299041
 20
2.022953698157746
 10
7.042555697006694
 20
2.035227201819674
 10
7.03326511273822
 20
2.048103626337038
 10
7.024128743908588
 20
2.061170364225615
 10
7.014529017932765
 20
2.074014808001181
 10
7.014529017932765
 20
2.074014808001181
 10
7.001334402751528
 20
2.092730492638302
 10
6.989945391733648
 20
2.112571333468657
 10
6.979652484956464
 20
2.133040912136147
 10
6.969746182497317
 20
2.153642810284674
 10
6.969746182497317
 20
2.153642810284673
 10
6.964244713224418
 20
2.164017567367691
 10
6.958365277305742
 20
2.174204307344091
 10
6.952692757853784
 20
2.18443324382679
 10
6.947812037981038
 20
2.194934590428704
 10
6.944308000799997
 20
2.205938560762748
 10
6.944308000799998
 20
2.205938560762748
 10
6.94150086612859
 20
2.214754672118115
 10
6.937700683076445
 20
2.223263810397865
 10
6.933563844100727
 20
2.231692091035122
 10
6.929746741658601
 20
2.24026562946301
 10
6.926905768207233
 20
2.249210541114652
 10
6.925697316203786
 20
2.258752941423173
 10
6.925697316203787
 20
2.258752941423174
 10
6.92425535014193
 20
2.270327639063287
 10
6.921076310146838
 20
2.281214753898815
 10
6.917247002190366
 20
2.291888073218237
 10
6.913854232244371
 20
2.302821384310031
 10
6.913854232244373
 20
2.302821384310032
 10
6.911852877625277
 20
2.309138213640422
 10
6.908956713827579
 20
2.314959552459598
 10
6.90500007369634
 20
2.319854207693425
 10
6.899817290076628
 20
2.323390986267766
 10
6.893242695813505
 20
2.325138695108485
 10
6.893242695813506
 20
2.325138695108486
 10
6.884490423646242
 20
2.325015664923598
 10
6.876569354020718
 20
2.323095153184343
 10
6.869286299376275
 20
2.319732262730871
 10
6.862448072152258
 20
2.315282096403333
 10
6.855861484788008
 20
2.310099757041879
 10
6.855861484788007
 20
2.310099757041879
 10
6.835106944415803
 20
2.292161376103487
 10
6.815203026455629
 20
2.273313454794319
 10
6.815203026455629
 20
2.273313454794318
 10
6.794680210415155
 20
2.252229915442408
 10
6.774450003658921
 20
2.230797028254822
 10
6.774450003658921
 20
2.230797028254822
 10
6.770327766182938
 20
2.225229884416846
 10
6.767003870019219
 20
2.219389347723867
 10
6.76324718194709
 20
2.213904598476887
 10
6.76324718194709
 20
2.213904598476888
 10
6.758376965278694
 20
2.20652411041937
 10
6.754596142462338
 20
2.198429585936135
 10
6.750644221885876
 20
2.190336192929786
 10
6.745260711937164
 20
2.182959099302926
 10
6.745260711937163
 20
2.182959099302926
 10
6.740578038066971
 20
2.176449389235265
 10
6.737302615186628
 20
2.169124750088207
 10
6.734501430496321
 20
2.161515525237545
 10
6.73124147119624
 20
2.154152058059069
 10
6.726589724486573
 20
2.147564691928574
 10
6.726589724486572
 20
2.147564691928574
 10
6.721683813875065
 20
2.140537724704417
 10
6.71866411155761
 20
2.132603474518095
 10
6.716840849422927
 20
2.124072353655568
 10
6.715524259359733
 20
2.1152547744028
 10
6.714024573256748
 20
2.106461149045754
 10
6.711652023002693
 20
2.098001889870393
 10
6.707716840486284
 20
2.090187409162679
 10
6.707716840486283
 20
2.090187409162679
 10
6.703848023973018
 20
2.081999869581885
 10
6.701789331932861
 20
2.073004503642189
 10
6.700566163933208
 20
2.063703734434495
 10
6.699203919541456
 20
2.054599985049704
 10
6.699203919541456
 20
2.054599985049704
 10
6.695911011118398
 20
2.034653760409689
 10
6.693650905900394
 20
2.014223425645857
 10
6.692202455196984
 20
1.993814563166042
 10
6.692202455196984
 20
1.993814563166042
 10
6.691478659450959
 20
1.972967664419568
 10
6.690889779930098
 20
1.951947526292531
 10
6.690889779930097
 20
1.951947526292531
 10
6.690835786839053
 20
1.925054263760054
 10
6.692341996389628
 20
1.898404708314849
 10
6.694541468326914
 20
1.871834147660045
 10
6.696567262396
 20
1.845177869498775
 10
6.697552438341979
 20
1.818271161534168
 10
6.697552438341979
 20
1.818271161534168
 10
6.698993273254886
 20
1.80237797158246
 10
6.702441023426743
 20
1.78690079343551
 10
6.706898572934848
 20
1.771630296412719
 10
6.711368805856498
 20
1.756357149833487
 10
6.714854606268987
 20
1.740872023017217
 10
6.716358858249614
 20
1.724965585283308
 10
6.716358858249614
 20
1.724965585283308
 10
6.717618088987059
 20
1.713529378940167
 10
6.720649870416274
 20
1.702531956643682
 10
6.724728233623229
 20
1.691823749189224
 10
6.729127209693897
 20
1.681255187372167
 10
6.733120829714248
 20
1.670676701987884
 10
6.735983124770252
 20
1.659938723831748
 10
6.735983124770253
 20
1.659938723831747
 10
6.740355098013848
 20
1.642137280706752
 10
6.746224214982511
 20
1.624533094592389
 10
6.752862499560405
 20
1.60718130068519
 10
6.752862499560405
 20
1.60718130068519
 10
6.756159336895612
 20
1.596659119533449
 10
6.758493783387533
 20
1.585841217718493
 10
6.760710643644518
 20
1.574942213575278
 10
6.763654722274917
 20
1.56417672543876
 10
6.768170823887081
 20
1.553759371643895
 10
6.768170823887081
 20
1.553759371643895
 10
6.780852896144788
 20
1.529074533862926
 10
6.792047782636849
 20
1.504212872966155
 10
6.802122383323779
 20
1.478923453372046
 10
6.811443598166093
 20
1.452955339499068
 10
6.811443598166093
 20
1.452955339499068
 10
6.817704413195887
 20
1.438095387149655
 10
6.825301433547259
 20
1.424058464779383
 10
6.825301433547259
 20
1.424058464779383
 10
6.829402184700798
 20
1.415538205375022
 10
6.832756211311772
 20
1.406622858984146
 10
6.836166076649265
 20
1.397670981941113
 10
6.840434343982362
 20
1.389041130580281
 10
6.840434343982363
 20
1.389041130580282
 10
6.858197879524536
 20
1.356874840933844
 10
6.874456774157871
 20
1.324135817901529
 10
6.87445677415787
 20
1.324135817901529
 10
6.880330079406227
 20
1.311001442994026
 10
6.886083737317548
 20
1.29779196947713
 10
6.89265913708362
 20
1.284988865400772
 10
6.892659137083619
 20
1.284988865400772
 10
6.911508567333457
 20
1.252951601783809
 10
6.930043250434347
 20
1.220709665621608
 10
6.947669258227702
 20
1.187916217193857
 10
6.947669258227703
 20
1.187916217193857
 10
6.960273348017198
 20
1.165775401535632
 10
6.974106434276069
 20
1.144545421257065
 10
6.988253170172872
 20
1.123482952083891
 10
6.988253170172871
 20
1.123482952083892
 10
6.998657016042309
 20
1.106008223599427
 10
7.008440029697876
 20
1.088069711408765
 10
7.008440029697876
 20
1.088069711408765
 10
7.016832205401497
 20
1.075078281427881
 10
7.026092468213167
 20
1.062816079062677
 10
7.035163595676673
 20
1.050427933605708
 10
7.042988365335803
 20
1.037058674349528
 10
7.042988365335803
 20
1.037058674349528
 10
7.048642515471769
 20
1.02750267952804
 10
7.055228316379813
 20
1.018538659157716
 10
7.061808868194342
 20
1.009512788805949
 10
7.067447271049764
 20
0.9997712440401304
 10
7.067447271049764
 20
0.9997712440401304
 10
7.073011726333692
 20
0.9903240962803218
 10
7.079697651509662
 20
0.9816471149278301
 10
7.086663531346622
 20
0.9731253630225138
 10
7.093067850613521
 20
0.9641439036042307
 10
7.093067850613522
 20
0.9641439036042307
 10
7.108238861392987
 20
0.9408978052032683
 10
7.124121447697389
 20
0.9184825426631118
 10
7.140655041014898
 20
0.8963542293912876
 10
7.140655041014899
 20
0.8963542293912873
 10
7.176500723864288
 20
0.8489238590217221
 10
7.212835262501554
 20
0.8019126391216129
 10
7.212835262501553
 20
0.8019126391216129
 10
7.240173728325954
 20
0.7683938061097463
 10
7.267700056184338
 20
0.7350682365970773
 10
7.294592519440899
 20
0.7009265589007177
 10
7.294592519440899
 20
0.7009265589007176
 10
7.30146271914144
 20
0.6927023871675586
 10
7.308568651737222
 20
0.68501041635587
 10
7.315322377850843
 20
0.6772326326239621
 10
7.321135958104898
 20
0.6687510221301448
 10
7.321135958104898
 20
0.6687510221301451
 10
7.32334985920626
 20
0.666366858476674
 10
7.32640490073569
 20
0.6647360510647654
 10
7.329834516794171
 20
0.6635126990598796
 10
7.333172141482685
 20
0.6623509016274763
 10
7.335951208902213
 20
0.6609047579330158
 10
7.337705153153737
 20
0.658828367141958
 10
7.33796740833824
 20
0.6557758284197632
 10
7.33796740833824
 20
0.6557758284197632
 10
7.337997706174508
 20
0.6507667029789584
 10
7.339754700141502
 20
0.6470640691768726
 10
7.342691600419667
 20
0.6442313258244306
 10
7.346261617189449
 20
0.6418318717325571
 10
7.349917960631295
 20
0.6394291057121768
 10
7.353113840925651
 20
0.6365864265742145
 10
7.353113840925652
 20
0.6365864265742144
 10
7.359393711461189
 20
0.6289484673792453
 10
7.365701937812237
 20
0.6213931838184676
 10
7.372823550798843
 20
0.6143878515267364
 10
7.372823550798842
 20
0.6143878515267364
 10
7.386793772147462
 20
0.6008916669953958
 10
7.399640631815382
 20
0.5855964688753251
 10
7.411461273585611
 20
0.5694163533674228
 10
7.41146127358561
 20
0.5694163533674229
 10
7.398242824792355
 20
0.5777093078618094
 10
7.384389919953841
 20
0.5844104504997535
 10
7.370082755742421
 20
0.5900149916598928
 10
7.355501528830446
 20
0.5950181417208641
 10
7.340826435890267
 20
0.5999151110613049
 10
7.340826435890269
 20
0.5999151110613047
 10
7.326976045937519
 20
0.6039538650168889
 10
7.312995724402972
 20
0.6074859803577915
 10
7.299244255251678
 20
0.6116411633740797
 10
7.28608042244869
 20
0.6175491203558209
 10
7.28608042244869
 20
0.617549120355821
 10
7.273741500726061
 20
0.6229606117895968
 10
7.260786180581997
 20
0.626654403882868
 10
7.247659171809751
 20
0.6298398596627383
 10
7.247659171809752
 20
0.6298398596627383
 10
7.217507667451974
 20
0.6386822797053498
 10
7.187855824262999
 20
0.6488578750460516
 10
7.187855824262999
 20
0.6488578750460514
 10
7.170684115499975
 20
0.6555718758941575
 10
7.153678447049013
 20
0.6627812903620376
 10
7.136477616440149
 20
0.6695598041174748
 10
7.118720421203422
 20
0.6749811028282521
 10
7.118720421203421
 20
0.6749811028282523
 10
7.103077570345973
 20
0.6798298871133996
 10
7.087980904917942
 20
0.6860342630650976
 10
7.07313517323752
 20
0.6928141234425668
 10
7.058245123622901
 20
0.6993893610050282
 10
7.0582451236229
 20
0.6993893610050282
 10
7.037508304635528
 20
0.7090092612946357
 10
7.017295189203962
 20
0.7199858183898219
 10
6.997403988739283
 20
0.731651854358534
 10
6.977632914652572
 20
0.7433401912687195
 10
6.977632914652572
 20
0.7433401912687195
 10
6.965762997870939
 20
0.7502607045819016
 10
6.953973664944434
 20
0.7574826562520226
 10
6.942575444692216
 20
0.7652505209667111
 10
6.931878865933446
 20
0.7738087734135953
 10
6.922194457487283
 20
0.7834018882803037
 10
6.913832748172887
 20
0.7942743402544644
 10
6.913832748172887
 20
0.7942743402544643
 10
6.908010307510161
 20
0.8014029537865894
 10
6.901117949524594
 20
0.807491945914602
 10
6.893655908162212
 20
0.8130404352452455
 10
6.886124417369044
 20
0.818547540385264
 10
6.879023711091116
 20
0.8245123799414011
 10
6.872854023274456
 20
0.8314340725204006
 10
6.868115587865092
 20
0.8398117367290062
 10
6.86811558786509
 20
0.8398117367290062
 10
6.862616880672693
 20
0.8501890452905421
 10
6.855994168717144
 20
0.8593703775749371
 10
6.849038765612945
 20
0.8681384705507934
 10
6.842541984974603
 20
0.8772760611867138
 10
6.837295140416624
 20
0.8875658864513003
 10
6.837295140416625
 20
0.8875658864513004
 10
6.832152973938248
 20
0.8992249184744235
 10
6.826697620925775
 20
0.9100214097716861
 10
6.821382058578818
 20
0.9207145444771589
 10
6.816659264096988
 20
0.9320635067249124
 10
6.812982214679899
 20
0.9448274806490172
 10
6.812982214679898
 20
0.9448274806490172
 10
6.810008508669392
 20
0.9531210082781635
 10
6.805348092575767
 20
0.9595764874516447
 10
6.799328143832902
 20
0.9642681493700862
 10
6.792275839874677
 20
0.967270225234113
 10
6.784518358134974
 20
0.9686569462443507
 10
6.776382876047672
 20
0.9685025436014244
 10
6.768196571046652
 20
0.9668812485059593
 10
6.760286620565793
 20
0.9638672921585808
 10
6.760286620565793
 20
0.963867292158581
 10
6.744934789738065
 20
0.9570463998323244
 10
6.729703050668422
 20
0.9509843091739108
 10
6.71462618279961
 20
0.9450606303857567
 10
6.69973896557438
 20
0.9386549736702782
 10
6.68507617843548
 20
0.9311469492298918
 10
6.670672600825658
 20
0.9219161672670141
 10
6.670672600825658
 20
0.9219161672670137
 10
6.652768951901031
 20
0.9082160927699522
 10
6.636235922098367
 20
0.8942739798220335
 10
6.619450268600138
 20
0.8793852158382261
 10
6.619450268600136
 20
0.8793852158382261
 10
6.609052637049079
 20
0.8693274032598809
 10
6.600064742433557
 20
0.8585933580041174
 10
6.59257242011377
 20
0.8466535414288649
 10
6.59257242011377
 20
0.8466535414288648
 10
6.587270411221655
 20
0.8375203744320394
 10
6.581059456184186
 20
0.8292514775793838
 10
6.573851734169311
 20
0.8228343503138029
 10
6.573851734169311
 20
0.8228343503138029
 10
6.561093903393864
 20
0.832547055237012
 10
6.54814378431786
 20
0.8418967239109495
 10
6.535293333512631
 20
0.8512480877613372
 10
6.522834507549508
 20
0.8609658782138966
 10
6.511059262999824
 20
0.8714148266943496
 10
6.500259556434908
 20
0.8829596646284173
 10
6.490727344426093
 20
0.8959651234418215
 10
6.490727344426093
 20
0.8959651234418217
 10
6.480503683548053
 20
0.9105748740386097
 10
6.469814015965455
 20
0.9244459824384595
 10
6.459368631283068
 20
0.938713561281029
 10
6.459368631283068
 20
0.9387135612810288
 10
6.452543938609263
 20
0.9482159111579795
 10
6.445754943548814
 20
0.95759151564075
 10
6.439666814227334
 20
0.9673746112328338
 10
6.434944718770439
 20
0.9780994344377244
 10
6.434944718770439
 20
0.9780994344377242
 10
6.431274333689675
 20
0.9855529929239869
 10
6.426206148551067
 20
0.9919930019858792
 10
6.420465725513927
 20
0.9979371704437845
 10
6.414778626737566
 20
1.003903207118085
 10
6.409870414381297
 20
1.010408820829164
 10
6.406466650604428
 20
1.017971720397404
 10
6.406466650604428
 20
1.017971720397404
 10
6.400462788955848
 20
1.034694267504571
 10
6.392977482908552
 20
1.050431352849385
 10
6.384612361755963
 20
1.065624269515031
 10
6.375969054791505
 20
1.080714310584697
 10
6.3676491913086
 20
1.09614276914157
 10
6.367649191308601
 20
1.09614276914157
 10
6.352060916058896
 20
1.126915996856647
 10
6.336993378367636
 20
1.157728959790118
 10
6.323008724386818
 20
1.189282871750495
 10
6.323008724386819
 20
1.189282871750495
 10
6.307743177889789
 20
1.223529115674298
 10
6.291378812250844
 20
1.257083721860786
 10
6.275009471365073
 20
1.290619194350905
 10
6.259728999127568
 20
1.324808037185604
 10
6.259728999127568
 20
1.324808037185604
 10
6.246458618112493
 20
1.355229147284115
 10
6.232745320814886
 20
1.385254224450183
 10
6.219374941061075
 20
1.415754854501925
 10
6.219374941061074
 20
1.415754854501925
 10
6.212595399437868
 20
1.432524261350531
 10
6.205819168149106
 20
1.449090562251289
 10
6.198340188594866
 20
1.46532780551476
 10
6.189452402175231
 20
1.481110039451507
 10
6.189452402175231
 20
1.481110039451507
 10
6.181973711761834
 20
1.494563826915855
 10
6.175676933190999
 20
1.508454850647775
 10
6.169818709311471
 20
1.522464723922299
 10
6.163655682971996
 20
1.536275060014457
 10
6.156444497021323
 20
1.549567472199283
 10
6.147441794308196
 20
1.562023573751807
 10
6.147441794308196
 20
1.562023573751807
 10
6.140267334410472
 20
1.572243894107872
 10
6.134467736835703
 20
1.583221188486794
 10
6.128993289729619
 20
1.594400759504104
 10
6.122794281237948
 20
1.605227909775329
 10
6.122794281237948
 20
1.60522790977533
 10
6.104901836538281
 20
1.6316189486854
 10
6.086869258065701
 20
1.657876459674406
 10
6.069394157844695
 20
1.684539134933777
 10
6.069394157844694
 20
1.684539134933777
 10
6.054649013220837
 20
1.706376943773025
 10
6.038789776411201
 20
1.72725022746784
 10
6.022116970385622
 20
1.747578402776328
 10
6.004931118113937
 20
1.767780886456595
 10
6.004931118113938
 20
1.767780886456595
 10
5.989371513462033
 20
1.78677761097823
 10
5.974762986322569
 20
1.806393054662066
 10
5.961011833042176
 20
1.826927726596505
 10
5.961011833042174
 20
1.826927726596505
 10
5.951056013537396
 20
1.830560138025112
 10
5.942456541577513
 20
1.836041661152029
 10
5.934812659419011
 20
1.842908736719764
 10
5.927723609318377
 20
1.850697805470825
 10
5.927723609318377
 20
1.850697805470825
 10
5.915649325634576
 20
1.863264325589709
 10
5.90295358724753
 20
1.874989052682885
 10
5.890463503765932
 20
1.887081440095633
 10
5.890463503765932
 20
1.887081440095633
 10
5.883807035788167
 20
1.892862817149735
 10
5.876413209049061
 20
1.897703829465747
 10
5.868725086021166
 20
1.902133685858884
 10
5.86118572917704
 20
1.906681595144362
 10
5.854238200989237
 20
1.911876766137396
 10
5.848325563930312
 20
1.918248407653201
 10
5.848325563930311
 20
1.918248407653201
 10
5.84053591167133
 20
1.927012320677563
 10
5.831573550344899
 20
1.934448406521531
 10
5.821881288987057
 20
1.941059105862889
 10
5.811901936633841
 20
1.947346859379417
 10
5.802078302321289
 20
1.953814107748901
 10
5.802078302321289
 20
1.953814107748901
 10
5.788621379738136
 20
1.962371954415343
 10
5.775026326578723
 20
1.970639411550022
 10
5.762265623700461
 20
1.979964619030165
 10
5.762265623700461
 20
1.979964619030165
 10
5.755142346007921
 20
1.984881033150793
 10
5.747182017446466
 20
1.988781144065345
 10
5.738823188342486
 20
1.992258024552312
 10
5.730504409022373
 20
1.995904747390187
 10
5.722664229812515
 20
2.00031438535746
 10
5.722664229812515
 20
2.00031438535746
 10
5.701560182400775
 20
2.013032023692371
 10
5.679743377124571
 20
2.024515870752321
 10
5.657829793398465
 20
2.036003990911643
 10
5.657829793398465
 20
2.036003990911643
 10
5.623526433925342
 20
2.053739372597374
 10
5.588636104572929
 20
2.07029646947409
 10
5.55348054575594
 20
2.08634554775782
 10
5.553480545755941
 20
2.08634554775782
 10
5.525566847445978
 20
2.097693557271334
 10
5.497045978550059
 20
2.107548787030848
 10
5.468375562148406
 20
2.117133776672423
 10
5.440013221321239
 20
2.127671065832119
 10
5.44001322132124
 20
2.127671065832119
 10
5.418350599842477
 20
2.135307269752984
 10
5.396181533932967
 20
2.14130273500105
 10
5.37374551905791
 20
2.146336291326041
 10
5.351282050682504
 20
2.151086768477676
 10
5.329030624271947
 20
2.156232996205678
 10
5.329030624271947
 20
2.156232996205679
 10
5.304393379957689
 20
2.162637777884717
 10
5.279636385324881
 20
2.168888234529731
 10
5.254629546105355
 20
2.174184797141366
 10
5.229242768030941
 20
2.177727896720267
 10
5.229242768030941
 20
2.177727896720266
 10
5.18370736974746
 20
2.182219478704369
 10
5.138222134436698
 20
2.186682509520655
 10
5.092732600464421
 20
2.190407517127457
 10
5.047184306196393
 20
2.192685029483107
 10
5.001522789998378
 20
2.192805574545935
 10
5.001522789998379
 20
2.192805574545935
 10
4.972087605457793
 20
2.192429249614994
 10
4.94263286931255
 20
2.192163644721834
 10
4.9134818931908
 20
2.191006873804765
 10
4.913481893190799
 20
2.191006873804765
 10
4.886155576992202
 20
2.188913304719031
 10
4.858614974730451
 20
2.18606341580936
 10
4.831164607867066
 20
2.182151102294611
 10
4.80410899786357
 20
2.176870259393646
 10
4.777752666181485
 20
2.169914782325325
 10
4.777752666181485
 20
2.169914782325324
 10
4.752061419597813
 20
2.161819128087068
 10
4.726104435521562
 20
2.153641671272215
 10
4.700105642757776
 20
2.146247505506132
 10
4.700105642757775
 20
2.146247505506132
 10
4.686289865472415
 20
2.1419827028094
 10
4.672732772307118
 20
2.136534924529774
 10
4.65974210718246
 20
2.130177448015847
 10
4.659742107182461
 20
2.130177448015847
 10
4.640699681599142
 20
2.119993524306833
 10
4.622004065074293
 20
2.109062052273007
 10
4.604343227174595
 20
2.096441233386082
 10
4.604343227174595
 20
2.096441233386082
 10
4.591004835203539
 20
2.086247540750068
 10
4.577493043373695
 20
2.076499528267091
 10
4.564264372394924
 20
2.066431452439185
 10
4.551775342977087
 20
2.055277569768386
 10
4.551775342977088
 20
2.055277569768386
 10
4.531340670614278
 20
2.033440193148067
 10
4.512760244279488
 20
2.010445212646491
 10
4.495951867147254
 20
1.985981205900336
 10
4.480833342392115
 20
1.959736750546281
 10
4.480833342392114
 20
1.959736750546281
 10
4.470180344205595
 20
1.936960173225138
 10
4.461834332863744
 20
1.913756363280091
 10
4.455680950479266
 20
1.890134460150019
 10
4.451605839164869
 20
1.866103603273801
 10
4.449494641033258
 20
1.841672932090316
 10
4.44923299819714
 20
1.816851586038442
 10
4.45070655276922
 20
1.791648704557057
 10
4.450706552769218
 20
1.791648704557056
 10
4.433524507396288
 20
1.792193278376205
 10
4.417161653478762
 20
1.794141162127262
 10
4.401142683871072
 20
1.797007954611753
 10
4.384992291427651
 20
1.800309254631207
 10
4.384992291427653
 20
1.800309254631207
 10
4.336529650185204
 20
1.809166318448544
 10
4.287882850996338
 20
1.816265697034927
 10
4.239073812280969
 20
1.822145785936898
 10
4.190124452459018
 20
1.827344980700995
 10
4.190124452459019
 20
1.827344980700995
 10
4.149188134111378
 20
1.830570644727728
 10
4.108179573543293
 20
1.832489208365154
 10
4.067146398513209
 20
1.834071146172094
 10
4.026136236779572
 20
1.836286932707371
 10
4.026136236779571
 20
1.836286932707371
 10
3.973636978517546
 20
1.838534706102107
 10
3.921075827825547
 20
1.838418145404126
 10
3.868513856335241
 20
1.836613155275087
 10
3.816012135678296
 20
1.833795640376647
 10
3.763631737486377
 20
1.830641505370466
 10
3.763631737486376
 20
1.830641505370466
 10
3.72641275086444
 20
1.827400701093699
 10
3.689281863874766
 20
1.822429318392731
 10
3.652325250830802
 20
1.816238909675442
 10
3.615629086045996
 20
1.809341027349708
 10
3.615629086045995
 20
1.809341027349708
 10
3.586142605808809
 20
1.803858363279556
 10
3.55656870820287
 20
1.798388787022635
 10
3.52714103732662
 20
1.792326719121864
 10
3.498093237278501
 20
1.785066580120158
 10
3.469658952156954
 20
1.776002790560435
 10
3.469658952156953
 20
1.776002790560436
 10
3.44298287233658
 20
1.766777941395011
 10
3.41620099641186
 20
1.757799959608167
 10
3.389587789037051
 20
1.748261958631045
 10
3.363417714866415
 20
1.737357051894785
 10
3.337965238554211
 20
1.724278352830528
 10
3.337965238554211
 20
1.724278352830528
 10
3.322478076904339
 20
1.716080657177036
 10
3.306738273454917
 20
1.708682269874504
 10
3.290991009434915
 20
1.701411888481301
 10
3.275481466073309
 20
1.693598210555799
 10
3.260454824599069
 20
1.684569933656368
 10
3.26045482459907
 20
1.684569933656367
 10
3.252529126544281
 20
1.679141780579662
 10
3.245006215572656
 20
1.673210551090192
 10
3.245006215572656
 20
1.673210551090192
 10
3.239862451377443
 20
1.669871563308549
 10
3.234406713411697
 20
1.667531729221447
 10
3.229068681929602
 20
1.664913189432478
 10
3.224278037185343
 20
1.660738084545237
 10
3.224278037185343
 20
1.660738084545236
 10
3.212613128350436
 20
1.647634625558008
 10
3.200319041045256
 20
1.635979436705427
 10
3.186898400112062
 20
1.624763540744955
 10
3.186898400112062
 20
1.624763540744954
 10
3.177003138600718
 20
1.615288550489857
 10
3.168474803575648
 20
1.605078832253459
 10
3.160038679527909
 20
1.59501867301943
 10
3.150420050948558
 20
1.585992359771436
 10
3.150420050948558
 20
1.585992359771436
 10
3.143885315178766
 20
1.57975003093726
 10
3.138423695729261
 20
1.572462926011313
 10
3.133609557458334
 20
1.564575854957946
 10
3.129017265224273
 20
1.556533627741512
 10
3.124221183885368
 20
1.548781054326361
 10
3.124221183885368
 20
1.548781054326361
 10
3.118737082105744
 20
1.538959495825393
 10
3.114460551720909
 20
1.528454369962096
 10
3.110680485435685
 20
1.517620488880569
 10
3.106685775954896
 20
1.506812664724908
 10
3.101765315983365
 20
1.496385709639208
 10
3.095207998225914
 20
1.486694435767567
 10
3.095207998225915
 20
1.486694435767567
 10
3.094838474821836
 20
1.465972653585858
 10
3.094978654813021
 20
1.445859319263218
 10
3.094444517268683
 20
1.425433024430399
 10
3.094444517268682
 20
1.425433024430399
 10
3.093591785111871
 20
1.404816882189829
 10
3.093782670195656
 20
1.384437773648151
 10
3.095374999316262
 20
1.364359864610606
 10
3.098726599269914
 20
1.344647320882437
 10
3.104195296852835
 20
1.325364308268884
 10
3.11213891886125
 20
1.306574992575188
 10
3.11213891886125
 20
1.306574992575188
 10
3.135772298169893
 20
1.260344548312569
 10
3.159566867772372
 20
1.214865347620705
 10
3.183542879042859
 20
1.169203617211373
 10
3.183542879042859
 20
1.169203617211373
 10
3.186302656444954
 20
1.162805057890157
 10
3.188536100987653
 20
1.156233661659773
 10
3.190934691098495
 20
1.149749642358859
 10
3.194189905205018
 20
1.143613213826055
 10
3.198993221734763
 20
1.138084589900002
 10
3.198993221734763
 20
1.138084589900002
 10
3.196898321307798
 20
1.135037087580856
 10
3.194028465152932
 20
1.133396931668835
 10
3.190754148651032
 20
1.132427449169136
 10
3.187445867182962
 20
1.131391967086956
 10
3.187445867182963
 20
1.131391967086956
 10
3.169763249980408
 20
1.124968999572346
 10
3.151639654883004
 20
1.120126829856148
 10
3.133106575368511
 20
1.117018537791741
 10
3.133106575368511
 20
1.117018537791741
 10
3.109756648532943
 20
1.113103517090682
 10
3.086794691921807
 20
1.107511080335018
 10
3.063953547227638
 20
1.101177911079175
 10
3.040966056142971
 20
1.09504069287758
 10
3.040966056142971
 20
1.09504069287758
 10
3.028516843402431
 20
1.090886722002573
 10
3.016761754013074
 20
1.085487554793012
 10
3.005149388966424
 20
1.079803877153325
 10
2.993128349254011
 20
1.074796374987937
 10
2.980147235867361
 20
1.071425734201277
 10
2.980147235867361
 20
1.071425734201277
 10
2.967856539590535
 20
1.068337158308368
 10
2.956390987591044
 20
1.063689803607167
 10
2.945421666535575
 20
1.05812359142802
 10
2.934619663090817
 20
1.052278443101276
 10
2.923656063923457
 20
1.046794279957281
 10
2.912201955700184
 20
1.042311023326382
 10
2.912201955700185
 20
1.042311023326382
 10
2.906217486690062
 20
1.039547272874358
 10
2.900692509379634
 20
1.035953623172092
 10
2.895042906968161
 20
1.032439191413557
 10
2.888684562654903
 20
1.029913094792729
 10
2.888684562654903
 20
1.029913094792729
 10
2.881458435137832
 20
1.02715327602408
 10
2.875345236436071
 20
1.02316922744277
 10
2.869876916522264
 20
1.018443088577398
 10
2.864585425369057
 20
1.013456998956563
 10
2.859002712949092
 20
1.008693098108863
 10
2.852660729235016
 20
1.004633525562898
 10
2.852660729235016
 20
1.004633525562898
 10
2.839395397577669
 20
0.9966525573226501
 10
2.827306268615478
 20
0.9875888274458249
 10
2.815742643636683
 20
0.9779935107572162
 10
2.804053823929525
 20
0.9684177820816167
 10
2.791589110782243
 20
0.9594128162438188
 10
2.791589110782243
 20
0.959412816243819
 10
2.784236902473355
 20
0.9530478565603171
 10
2.778238848057755
 20
0.9454579834854552
 10
2.772664365357066
 20
0.9375609149091003
 10
2.766582872192911
 20
0.930274368721119
 10
2.766582872192911
 20
0.930274368721119
 10
2.761729593706937
 20
0.9264096364019938
 10
2.756459652096545
 20
0.9230168521859164
 10
2.75152478548854
 20
0.9191551467324456
 10
2.747676732009728
 20
0.9138836507011401
 10
2.747676732009728
 20
0.9138836507011401
 10
2.741010470882313
 20
0.9018763442195286
 10
2.733699157747539
 20
0.8906870984547406
 10
2.726385233682092
 20
0.8796922864137474
 10
2.719711139762663
 20
0.868268281103521
 10
2.714319317065938
 20
0.8557914555310329
 10
2.714319317065938
 20
0.8557914555310329
 10
2.711051789389554
 20
0.8488686916308562
 10
2.706774225874945
 20
0.8425950970463956
 10
2.702131358704727
 20
0.8364557017135535
 10
2.697767920061514
 20
0.8299355355682321
 10
2.697767920061513
 20
0.8299355355682321
 10
2.69776927303608
 20
0.8169182747411555
 10
2.695621857112436
 20
0.8042607615442472
 10
2.692120522133774
 20
0.7918131276006958
 10
2.688060117943289
 20
0.7794255045336901
 10
2.684235494384174
 20
0.7669480239664185
 10
2.681441501299622
 20
0.7542308175220701
 10
2.681441501299622
 20
0.7542308175220698
 10
2.679008940963707
 20
0.7314339589408491
 10
2.678780910086589
 20
0.7085101482255344
 10
2.680737213475732
 20
0.6856660376967206
 10
2.684857655938599
 20
0.6631082796750024
 10
2.691122042282656
 20
0.6410435264809744
 10
2.691122042282656
 20
0.6410435264809744
 10
2.695467267413689
 20
0.6253530344606169
 10
2.698233528992232
 20
0.6093963774203435
 10
2.699704691106816
 20
0.5932944716926585
 10
2.699704691106816
 20
0.5932944716926584
 10
2.712332691200489
 20
0.5692907279648941
 10
2.724909157148678
 20
0.5453124136948388
 10
2.736384913223911
 20
0.5207062103701019
 10
2.736384913223912
 20
0.520706210370102
 10
2.746974205872832
 20
0.4986450668089477
 10
2.759546006560125
 20
0.4778341959935434
 10
2.773984781272094
 20
0.4581646984962339
 10
2.773984781272094
 20
0.4581646984962339
 10
2.789383448021871
 20
0.4385639165292847
 10
2.804186306914477
 20
0.4184615243176568
 10
2.817937263641914
 20
0.3977129851178773
 10
2.830180223896179
 20
0.3761737621864731
 10
2.830180223896179
 20
0.376173762186473
 10
2.833703063732785
 20
0.3703549641929869
 10
2.837802897835604
 20
0.3647955188679742
 10
2.842061068286458
 20
0.3593380988917897
 10
2.84605891716717
 20
0.3538253769447882
 10
2.849377786559561
 20
0.3481000257073246
 10
2.851599018545452
 20
0.3420047178597538
 10
2.852303955206666
 20
0.3353821260824304
 10
2.851073938625024
 20
0.3280749230557096
 10
2.851073938625025
 20
0.3280749230557096
 10
2.837972397432145
 20
0.328498542221117
 10
2.824412560601328
 20
0.3284347367769036
 10
2.810786866493067
 20
0.3273823723746886
 10
2.797487753467854
 20
0.3248403146660907
 10
2.784907659886182
 20
0.320307429302729
 10
2.784907659886182
 20
0.320307429302729
 10
2.771509326702014
 20
0.3153897263520464
 10
2.75751913427632
 20
0.3123050917741561
 10
2.743234915196131
 20
0.3101793938499656
 10
2.72895450204848
 20
0.3081385008603823
 10
2.714975727420398
 20
0.305308281086314
 10
2.701596423898916
 20
0.3008146028086678
 10
2.701596423898917
 20
0.3008146028086679
 10
2.6885821107017
 20
0.2962855138251907
 10
2.67508516013824
 20
0.2930734521077814
 10
2.66146351017633
 20
0.2903148578832828
 10
2.648075098783767
 20
0.2871461713785379
 10
2.635277863928346
 20
0.2827038328203894
 10
2.635277863928346
 20
0.2827038328203893
 10
2.624795371927641
 20
0.2788603600379005
 10
2.613932770023428
 20
0.2757237238590818
 10
2.603029694705403
 20
0.272648300917065
 10
2.592425782463259
 20
0.2689884678449821
 10
2.582460669786693
 20
0.264098601275965
 10
2.582460669786693
 20
0.264098601275965
 10
2.568227263211522
 20
0.2564865275177861
 10
2.553455143380598
 20
0.2497976261519209
 10
2.538557969120744
 20
0.2433632122754977
 10
2.523949399258786
 20
0.2365146009856446
 10
2.523949399258785
 20
0.2365146009856446
 10
2.513715723732955
 20
0.2318443120610923
 10
2.503440382666201
 20
0.2272405388772303
 10
2.493712315147114
 20
0.221547045763664
 10
2.493712315147114
 20
0.221547045763664
 10
2.47704389272268
 20
0.2110674223296837
 10
2.45949157157117
 20
0.2017469258640312
 10
2.442376168473055
 20
0.1928801766376233
 10
2.442376168473055
 20
0.1928801766376233
 10
2.428609055759402
 20
0.1840744579472761
 10
2.415442596296981
 20
0.1735222216534024
 10
2.402722454184436
 20
0.162178112249373
 10
2.390294293520411
 20
0.1509967742285587
 10
2.390294293520411
 20
0.1509967742285587
 10
2.378187966299691
 20
0.1411777564863989
 10
2.365927249606052
 20
0.1312064327609145
 10
2.365927249606052
 20
0.1312064327609145
 10
2.352436748535329
 20
0.1183540859242149
 10
2.339801972495728
 20
0.1045813694130799
 10
2.327891651126382
 20
0.090328886351694
 10
2.327891651126381
 20
0.090328886351694
 10
2.314902457675828
 20
0.0727812041527651
 10
2.303084921627007
 20
0.054252510097861
 10
2.292151879131054
 20
0.0351596344931357
 10
2.281816166339109
 20
0.0159194076447432
 10
2.27179061940231
 20
-0.0030513401411625
 10
2.27179061940231
 20
-0.0030513401411625
 10
2.279911137732356
 20
-0.0177769638246315
 10
2.288823461487398
 20
-0.0323653664946447
 10
2.297675645215898
 20
-0.0468878407231187
 10
2.297675645215898
 20
-0.0468878407231187
 10
2.301900904992853
 20
-0.0548054480652183
 10
2.305783394164864
 20
-0.062774272346548
 10
2.309929077913958
 20
-0.0705688431307661
 10
2.314943921422161
 20
-0.0779636899815307
 10
2.3214338898715
 20
-0.0847333424625
 10
2.3214338898715
 20
-0.0847333424625
 10
2.330016970398294
 20
-0.0931216345230592
 10
2.337263279006796
 20
-0.1019598314160458
 10
2.343951029367176
 20
-0.1112672038099394
 10
2.350858435149599
 20
-0.1210630223732193
 10
2.3508584351496
 20
-0.1210630223732193
 10
2.357467265517451
 20
-0.1285373216181942
 10
2.364865526645929
 20
-0.1346871139118458
 10
2.372631453412464
 20
-0.1402589217487813
 10
2.380343280694483
 20
-0.1459992676236081
 10
2.387579243369415
 20
-0.1526546740309333
 10
2.387579243369415
 20
-0.1526546740309333
 10
2.393758559746688
 20
-0.15800434995293
 10
2.400599285069807
 20
-0.1623007968131909
 10
2.407621401567888
 20
-0.1662360790604236
 10
2.41434489147005
 20
-0.1705022611433351
 10
2.420289737005409
 20
-0.1757914075106327
 10
2.420289737005409
 20
-0.1757914075106328
 10
2.428423372149773
 20
-0.1834826045651434
 10
2.437546009414287
 20
-0.1901042537814922
 10
2.447225402112834
 20
-0.1961132129356323
 10
2.457029303559297
 20
-0.2019663398035169
 10
2.466525467067559
 20
-0.2081204921610991
 10
2.466525467067559
 20
-0.208120492161099
 10
2.488451183330681
 20
-0.221934598281235
 10
2.511610202748683
 20
-0.2342091903306597
 10
2.535259780316442
 20
-0.2455468293531857
 10
2.558657171028833
 20
-0.2565500763926252
 10
2.558657171028833
 20
-0.2565500763926252
 10
2.588161527329447
 20
-0.2693284588374426
 10
2.61890657173844
 20
-0.2803653301847184
 10
2.650164737484516
 20
-0.28990298730418
 10
2.681208457796379
 20
-0.298183727065555
 10
2.681208457796379
 20
-0.298183727065555
 10
2.705062507947208
 20
-0.304475359979138
 10
2.729389918913633
 20
-0.310961202386665
 10
2.753738149169069
 20
-0.3167941519189775
 10
2.777654657186933
 20
-0.3211271062069172
 10
2.777654657186934
 20
-0.3211271062069172
 10
2.787838487846986
 20
-0.3221712511309414
 10
2.798527791001188
 20
-0.3228689805741873
 10
2.809392813529941
 20
-0.3236976563568863
 10
2.820103802313647
 20
-0.3251346402992701
 10
2.830331004232707
 20
-0.32765729422157
 10
2.839744666167522
 20
-0.3317429799440176
 10
2.848015034998493
 20
-0.3378690592868445
 10
2.848015034998492
 20
-0.3378690592868445
 10
2.850607291428788
 20
-0.3417827071294781
 10
2.850910970926031
 20
-0.345978105112442
 10
2.849408680916268
 20
-0.3503925242349528
 10
2.846583028825545
 20
-0.3549632354962271
 10
2.842916622079908
 20
-0.3596275098954816
 10
2.838892068105406
 20
-0.3643226184319326
 10
2.834991974328085
 20
-0.3689858321047969
 10
2.831698948173992
 20
-0.3735544219132909
 10
2.829495597069175
 20
-0.3779656588566312
 10
2.829495597069175
 20
-0.3779656588566312
 10
2.823459112087739
 20
-0.3916536681064926
 10
2.815263985623627
 20
-0.4053994164603776
 10
2.80565019359884
 20
-0.4189094848285845
 10
2.795357711935381
 20
-0.4318904541214116
 10
2.785126516555251
 20
-0.4440489052491569
 10
2.785126516555251
 20
-0.4440489052491569
 10
2.771095306636987
 20
-0.4615842476011534
 10
2.757988285361706
 20
-0.4804487706072047
 10
2.746320998031524
 20
-0.500312902220189
 10
2.736608989948556
 20
-0.5208470703929847
 10
2.736608989948556
 20
-0.5208470703929847
 10
2.728654747067985
 20
-0.5395769522014824
 10
2.720030934020545
 20
-0.5581963309094755
 10
2.710510278698375
 20
-0.576319604008769
 10
2.699865508993617
 20
-0.5935611689911683
 10
2.699865508993618
 20
-0.5935611689911682
 10
2.697480358105671
 20
-0.6116067252256811
 10
2.693751469913351
 20
-0.6295952613556498
 10
2.689355349051185
 20
-0.6475702386594913
 10
2.6849685001537
 20
-0.6655751184156224
 10
2.681267427855423
 20
-0.68365336190246
 10
2.678928636790879
 20
-0.701848430398421
 10
2.678628631594596
 20
-0.7202037851819223
 10
2.678628631594596
 20
-0.720203785181922
 10
2.679953445989805
 20
-0.7393080533939824
 10
2.682237922517714
 20
-0.7582731346768052
 10
2.685886183639145
 20
-0.7769660117626223
 10
2.691302351814921
 20
-0.7952536673836658
 10
2.691302351814921
 20
-0.7952536673836656
 10
2.694035090590442
 20
-0.8047447698996633
 10
2.695964893709097
 20
-0.8143579728350353
 10
2.697726132707508
 20
-0.8239428573564499
 10
2.699953179122295
 20
-0.8333490046305756
 10
2.70328040449008
 20
-0.8424259958240812
 10
2.708342180347482
 20
-0.8510234121036351
 10
2.708342180347482
 20
-0.8510234121036349
 10
2.718568001871191
 20
-0.8665747365431707
 10
2.727571209384389
 20
-0.8824279739845756
 10
2.736659811699899
 20
-0.8981362548306389
 10
2.747141817630544
 20
-0.9132527094841494
 10
2.747141817630544
 20
-0.9132527094841492
 10
2.761586722908695
 20
-0.9299369375240564
 10
2.77700355957448
 20
-0.9454051200843077
 10
2.793044892970084
 20
-0.9602400026804133
 10
2.80936328843769
 20
-0.9750243308278832
 10
2.80936328843769
 20
-0.9750243308278832
 10
2.825862709004875
 20
-0.9887973928379901
 10
2.843208789055274
 20
-1.001162071265022
 10
2.861233923781488
 20
-1.012665583894853
 10
2.879770508376116
 20
-1.023855148513356
 10
2.879770508376116
 20
-1.023855148513356
 10
2.900284015086562
 20
-1.034954615705399
 10
2.921204930707467
 20
-1.044610101064063
 10
2.94227339278679
 20
-1.053671956214472
 10
2.963229538872491
 20
-1.06299053278175
 10
2.983813506512531
 20
-1.07341618239102
 10
3.003765433254868
 20
-1.085799256667407
 10
3.003765433254869
 20
-1.085799256667407
 10
3.012109994450251
 20
-1.090243118014327
 10
3.020722490765273
 20
-1.092757626108765
 10
3.029496899122599
 20
-1.094235940109357
 10
3.03832719644489
 20
-1.095571219174739
 10
3.047107359654811
 20
-1.097656622463546
 10
3.055731365675024
 20
-1.101385309134416
 10
3.055731365675024
 20
-1.101385309134415
 10
3.064745672977654
 20
-1.105341776065547
 10
3.07407749776614
 20
-1.107692775286732
 10
3.083543874064983
 20
-1.109190144452726
 10
3.092961835898684
 20
-1.110585721218283
 10
3.102148417291745
 20
-1.112631343238157
 10
3.102148417291744
 20
-1.112631343238157
 10
3.118651793653835
 20
-1.116891039516493
 10
3.135607637285819
 20
-1.120646676559498
 10
3.15258081193269
 20
-1.124443043515441
 10
3.169136181339442
 20
-1.128824929532588
 10
3.18483860925107
 20
-1.134337123759209
 10
3.199252959412567
 20
-1.141524415343571
 10
3.199252959412567
 20
-1.141524415343571
 10
3.193196312100143
 20
-1.148910465689654
 10
3.188834181832954
 20
-1.156227544624143
 10
3.185499471825936
 20
-1.163507445876616
 10
3.182525085294025
 20
-1.170781963176646
 10
3.179243925452158
 20
-1.17808289025381
 10
3.174988895515271
 20
-1.185442020837684
 10
3.174988895515271
 20
-1.185442020837684
 10
3.169650221224026
 20
-1.195283134514257
 10
3.165558028006474
 20
-1.205375647029924
 10
3.161287392566146
 20
-1.215353903566389
 10
3.155413391606569
 20
-1.224852249305359
 10
3.15541339160657
 20
-1.22485224930536
 10
3.147500269276352
 20
-1.236515613845013
 10
3.140996417551996
 20
-1.248768631798471
 10
3.1352583159639
 20
-1.261361048236684
 10
3.129642444042463
 20
-1.274042608230602
 10
3.123505281318081
 20
-1.286563056851174
 10
3.116203307321154
 20
-1.29867213916935
 10
3.116203307321154
 20
-1.29867213916935
 10
3.108034045669132
 20
-1.312829583362719
 10
3.102087545813263
 20
-1.327777515478606
 10
3.098035963001556
 20
-1.34334192138944
 10
3.095551452482017
 20
-1.359348786967651
 10
3.094306169502655
 20
-1.375624098085668
 10
3.093972269311479
 20
-1.391993840615921
 10
3.094221907156497
 20
-1.408284000430841
 10
3.094727238285715
 20
-1.424320563402856
 10
3.094727238285715
 20
-1.424320563402855
 10
3.094984056045636
 20
-1.444787506731295
 10
3.09520605472884
 20
-1.465546368242834
 10
3.09656847279457
 20
-1.486086159569238
 10
3.09656847279457
 20
-1.486086159569238
 10
3.098572105226977
 20
-1.494682490774687
 10
3.102074631017478
 20
-1.502698821244001
 10
3.106404124914132
 20
-1.510415014032736
 10
3.110888661665002
 20
-1.51811093219645
 10
3.114856316018148
 20
-1.526066438790697
 10
3.117635162721631
 20
-1.534561396871033
 10
3.117635162721631
 20
-1.534561396871033
 10
3.121530946950164
 20
-1.546243660215671
 10
3.127453157462683
 20
-1.557344745310585
 10
3.134710986457589
 20
-1.567897739571577
 10
3.142613626133284
 20
-1.577935730414453
 10
3.15047026868817
 20
-1.587491805255016
 10
3.15047026868817
 20
-1.587491805255016
 10
3.170520102165967
 20
-1.610651598370221
 10
3.192337131619474
 20
-1.633410704781464
 10
3.214734048694479
 20
-1.654759139456457
 10
3.214734048694479
 20
-1.654759139456457
 10
3.228828776919441
 20
-1.666049802443838
 10
3.244262565269104
 20
-1.676202294267456
 10
3.260361873369215
 20
-1.685713513109674
 10
3.276453160845521
 20
-1.695080357152851
 10
3.291862887323768
 20
-1.70479972457935
 10
3.291862887323767
 20
-1.70479972457935
 10
3.299088254754281
 20
-1.708569486228771
 10
3.307030742763114
 20
-1.711414149041609
 10
3.315109883096688
 20
-1.714205906872857
 10
3.322745207501421
 20
-1.71781695357751
 10
3.329356247723733
 20
-1.723119483010561
 10
3.329356247723733
 20
-1.723119483010561
 10
3.334283844920897
 20
-1.727164085640384
 10
3.339617052530784
 20
-1.730628244813442
 10
3.344555501117965
 20
-1.735089925372847
 10
3.344555501117965
 20
-1.735089925372847
 10
3.355119175402621
 20
-1.736667456230304
 10
3.364932099257266
 20
-1.73994642843747
 10
3.374381916258792
 20
-1.744179947867075
 10
3.383856269984092
 20
-1.748621120391849
 10
3.39374280401006
 20
-1.752523051884522
 10
3.39374280401006
 20
-1.752523051884522
 10
3.439690906140703
 20
-1.767203604689932
 10
3.485663732247163
 20
-1.780938248670398
 10
3.485663732247163
 20
-1.780938248670398
 10
3.527729259540189
 20
-1.792180741730533
 10
3.570228877906597
 20
-1.80201098322964
 10
3.612947903425922
 20
-1.810898009027663
 10
3.612947903425922
 20
-1.810898009027663
 10
3.650756548193491
 20
-1.817339433130373
 10
3.688830430654761
 20
-1.822142523978253
 10
3.727048990498931
 20
-1.826160696812502
 10
3.765291667415204
 20
-1.830247366874318
 10
3.803437901092781
 20
-1.835255949404901
 10
3.803437901092781
 20
-1.835255949404901
 10
3.85098856624243
 20
-1.841023271118518
 10
3.898726467392418
 20
-1.844212462971779
 10
3.946578740158504
 20
-1.845168620666047
 10
3.994472520156451
 20
-1.844236839902682
 10
4.042334943002018
 20
-1.841762216383048
 10
4.090093144310966
 20
-1.838089845808505
 10
4.090093144310966
 20
-1.838089845808505
 10
4.159672888080931
 20
-1.83200190395545
 10
4.22920378236931
 20
-1.825447222531346
 10
4.298604875931229
 20
-1.817795309699619
 10
4.367795217521816
 20
-1.808415673623694
 10
4.367795217521815
 20
-1.808415673623695
 10
4.381714820762784
 20
-1.805657437986679
 10
4.395458606654533
 20
-1.802057058910133
 10
4.409127198154245
 20
-1.798249629116909
 10
4.422821218219106
 20
-1.79487024132986
 10
4.4366412898063
 20
-1.792553988271838
 10
4.450688035873011
 20
-1.791935962665697
 10
4.450688035873013
 20
-1.791935962665697
 10
4.450655620686505
 20
-1.805183062557609
 10
4.450960595521161
 20
-1.817684577026642
 10
4.450726704395687
 20
-1.83044888066314
 10
4.450726704395687
 20
-1.83044888066314
 10
4.450286062338399
 20
-1.848834982100175
 10
4.451314679388261
 20
-1.866802132725742
 10
4.453971830918795
 20
-1.884566778110388
 10
4.458416792303524
 20
-1.902345363824662
 10
4.458416792303523
 20
-1.902345363824662
 10
4.462845579165916
 20
-1.914791234763965
 10
4.467458562132692
 20
-1.92688440159387
 10
4.470975767961096
 20
-1.939607261434506
 10
4.470975767961096
 20
-1.939607261434506
 10
4.473352735763939
 20
-1.947357855888953
 10
4.476851239836633
 20
-1.954429474940898
 10
4.480726699786079
 20
-1.961277958248036
 10
4.48423453521918
 20
-1.968359145468063
 10
4.486630165742838
 20
-1.976128876258673
 10
4.486630165742838
 20
-1.976128876258674
 10
4.488928533988021
 20
-1.982846904942318
 10
4.492574820925235
 20
-1.988428531861704
 10
4.497004151091389
 20
-1.99339415316374
 10
4.50165164902339
 20
-1.998264164995335
 10
4.505952439258146
 20
-2.003558963503398
 10
4.505952439258147
 20
-2.003558963503398
 10
4.515779461400629
 20
-2.017387552791924
 10
4.526169042287356
 20
-2.030926160421192
 10
4.537331288416926
 20
-2.043854910971768
 10
4.549476306287939
 20
-2.055853929024214
 10
4.562814202398991
 20
-2.066603339159094
 10
4.562814202398989
 20
-2.066603339159095
 10
4.572956239625874
 20
-2.074583671495592
 10
4.58221394411939
 20
-2.082819082862097
 10
4.591264612102629
 20
-2.090949823252502
 10
4.600785539798686
 20
-2.098616142660699
 10
4.611454023430654
 20
-2.10545829108058
 10
4.611454023430654
 20
-2.10545829108058
 10
4.633599185406479
 20
-2.117695463292326
 10
4.655950015642257
 20
-2.129521257786392
 10
4.678762854332203
 20
-2.140133730283428
 10
4.702294041670533
 20
-2.148730936504089
 10
4.702294041670534
 20
-2.148730936504089
 10
4.716244447470987
 20
-2.15379890119832
 10
4.73009996967418
 20
-2.159611759839141
 10
4.744091843003903
 20
-2.164978488104622
 10
4.75845130218395
 20
-2.168708061672834
 10
4.758451302183949
 20
-2.168708061672834
 10
4.811920446791353
 20
-2.176363593017546
 10
4.865870516937431
 20
-2.181233259179284
 10
4.920027644880097
 20
-2.183582835564727
 10
4.974117962877257
 20
-2.183678097580555
 10
4.974117962877257
 20
-2.183678097580555
 10
5.015403679188606
 20
-2.183062264136881
 10
5.056723510653966
 20
-2.181964921648151
 10
5.097947670006231
 20
-2.179349483160307
 10
5.09794767000623
 20
-2.179349483160307
 10
5.125429436926023
 20
-2.176347838060258
 10
5.152891430131871
 20
-2.173312463856128
 10
5.180588901727044
 20
-2.171715699456246
 10
5.180588901727046
 20
-2.171715699456246
 10
5.202752309212752
 20
-2.170262438583525
 10
5.224618819659473
 20
-2.16695808138871
 10
5.246287256367306
 20
-2.16245671313039
 10
5.267856442636354
 20
-2.157412419067156
 10
5.289425201766714
 20
-2.152479284457596
 10
5.311092357058489
 20
-2.1483113945603
 10
5.332956731811777
 20
-2.145562834633857
 10
5.332956731811776
 20
-2.145562834633857
 10
5.351846977067486
 20
-2.142781064278294
 10
5.370443683121659
 20
-2.138279961486567
 10
5.38892232842174
 20
-2.133083546218137
 10
5.407458391415175
 20
-2.128215838432466
 10
5.407458391415175
 20
-2.128215838432465
 10
5.421478884604082
 20
-2.124008256136217
 10
5.435175332366364
 20
-2.118759820315695
 10
5.44892176494039
 20
-2.113478737318462
 10
5.46309221256453
 20
-2.109173213492082
 10
5.46309221256453
 20
-2.109173213492083
 10
5.491231639563484
 20
-2.101271501765704
 10
5.518664543931138
 20
-2.09157002677927
 10
5.545569170275337
 20
-2.080516978248731
 10
5.572123763203925
 20
-2.068560545890035
 10
5.572123763203925
 20
-2.068560545890035
 10
5.584870377615081
 20
-2.063527705658892
 10
5.59785800706656
 20
-2.059070071480362
 10
5.610357563691976
 20
-2.053924324587142
 10
5.610357563691977
 20
-2.053924324587141
 10
5.621525795274942
 20
-2.047806001798222
 10
5.632465978106327
 20
-2.041147609606939
 10
5.643544872603895
 20
-2.034658780439521
 10
5.655129239185407
 20
-2.029049146722198
 10
5.667585838268626
 20
-2.025028340881199
 10
5.667585838268626
 20
-2.025028340881198
 10
5.676232729785999
 20
-2.022057787294355
 10
5.68394813573223
 20
-2.017745434837193
 10
5.691076355580832
 20
-2.012630985943828
 10
5.697961688805313
 20
-2.007254143048383
 10
5.704948434879185
 20
-2.002154608584973
 10
5.712380893275956
 20
-1.99787208498772
 10
5.712380893275955
 20
-1.99787208498772
 10
5.717152624299453
 20
-1.996103355127599
 10
5.722167823563506
 20
-1.99452637719159
 10
5.726870058013873
 20
-1.992367290698457
 10
5.730702894596316
 20
-1.988852235166961
 10
5.730702894596315
 20
-1.988852235166961
 10
5.734545873987361
 20
-1.98554507711074
 10
5.739250027829784
 20
-1.983618694310589
 10
5.74354127038029
 20
-1.982647771241344
 10
5.743541270380291
 20
-1.982647771241344
 10
5.749382152117898
 20
-1.980548970870119
 10
5.75509750828707
 20
-1.976702196163303
 10
5.760775072872424
 20
-1.971694113852574
 10
5.766502579858578
 20
-1.966111390669613
 10
5.772367763230151
 20
-1.960540693346099
 10
5.778458356971758
 20
-1.955568688613711
 10
5.784862095068019
 20
-1.951782043204128
 10
5.784862095068019
 20
-1.951782043204128
 10
5.796165478938942
 20
-1.946155859443919
 10
5.807749428202831
 20
-1.939387297221409
 10
5.818763353742172
 20
-1.931789919321505
 10
5.82835666643945
 20
-1.923677288529115
 10
5.828356666439451
 20
-1.923677288529115
 10
5.847982326460874
 20
-1.906190762261302
 10
5.869355621405442
 20
-1.888996345991241
 10
5.891371822674587
 20
-1.871981352154359
 10
5.891371822674587
 20
-1.871981352154359
 10
5.926748984509183
 20
-1.843181140646177
 10
5.960741925931682
 20
-1.812506102366875
 10
5.993187118520332
 20
-1.780122346327555
 10
6.023921033853381
 20
-1.746195981539317
 10
6.05278014350908
 20
-1.710893117013264
 10
6.079600919065676
 20
-1.674379861760498
 10
6.079600919065674
 20
-1.674379861760497
 10
6.08665790797927
 20
-1.663291101288085
 10
6.09318421351207
 20
-1.652115906921794
 10
6.100083801117705
 20
-1.64106804909944
 10
6.108260636249807
 20
-1.63036129825884
 10
6.108260636249807
 20
-1.63036129825884
 10
6.11989075493788
 20
-1.615082581751742
 10
6.129895353101871
 20
-1.598758661987606
 10
6.13906037418117
 20
-1.581907043379453
 10
6.148171761615167
 20
-1.565045230340302
 10
6.158015458843256
 20
-1.548690727283175
 10
6.158015458843255
 20
-1.548690727283176
 10
6.166038317435075
 20
-1.534500407089019
 10
6.172833537394263
 20
-1.51970866735353
 10
6.179535739511822
 20
-1.504847642505867
 10
6.187279544578754
 20
-1.490449466975192
 10
6.187279544578754
 20
-1.490449466975193
 10
6.197389731654766
 20
-1.471677523078143
 10
6.205986063676179
 20
-1.452137758837236
 10
6.214210116617375
 20
-1.432377537097923
 10
6.223203466452741
 20
-1.412944220705658
 10
6.22320346645274
 20
-1.412944220705658
 10
6.235142507485834
 20
-1.387566274447161
 10
6.246021951167924
 20
-1.361936308399116
 10
6.25688949019479
 20
-1.336594728672311
 10
6.256889490194791
 20
-1.336594728672311
 10
6.266948094085938
 20
-1.313023346837055
 10
6.276944365066312
 20
-1.289022650432641
 10
6.287800627644329
 20
-1.26505781107574
 10
6.287800627644328
 20
-1.26505781107574
 10
6.296894829857917
 20
-1.248452938445364
 10
6.296894829857917
 20
-1.248452938445364
 10
6.303863534644448
 20
-1.234405453952256
 10
6.310150747380355
 20
-1.219991008067822
 10
6.317098675820056
 20
-1.205862009340313
 10
6.317098675820056
 20
-1.205862009340313
 10
6.320435472404302
 20
-1.198548756071979
 10
6.323103525443681
 20
-1.190975023823974
 10
6.325994846290039
 20
-1.183471714786479
 10
6.330001446295223
 20
-1.176369731149673
 10
6.330001446295222
 20
-1.176369731149673
 10
6.334007723020996
 20
-1.169161907192513
 10
6.336786496178764
 20
-1.161529849680867
 10
6.339264264470479
 20
-1.153805654335488
 10
6.342367526598093
 20
-1.146321416877126
 10
6.347022781263559
 20
-1.139409233026535
 10
6.347022781263559
 20
-1.139409233026535
 10
6.3536405685651
 20
-1.130141726274198
 10
6.35858257453403
 20
-1.120170151450569
 10
6.362737028844421
 20
-1.10984432545812
 10
6.366992161170342
 20
-1.099514065199321
 10
6.372236201185865
 20
-1.089529187576645
 10
6.372236201185865
 20
-1.089529187576645
 10
6.384966612338892
 20
-1.068250178918985
 10
6.396292262770198
 20
-1.046635510698452
 10
6.405988676617291
 20
-1.023633073095319
 10
6.405988676617291
 20
-1.023633073095319
 10
6.410852432520903
 20
-1.013670083681072
 10
6.417102042762569
 20
-1.004851005969438
 10
6.424014982452771
 20
-0.9965887309049474
 10
6.430868726701992
 20
-0.9882961494321294
 10
6.436940750620713
 20
-0.9793861524955145
 10
6.44150852931942
 20
-0.9692716310396328
 10
6.441508529319418
 20
-0.9692716310396326
 10
6.445982958357819
 20
-0.9589587228092121
 10
6.451887209203172
 20
-0.9497654495530191
 10
6.458751935839881
 20
-0.9413137743516873
 10
6.466107792252353
 20
-0.9332256602858507
 10
6.473485432424992
 20
-0.9251230704361431
 10
6.480415510342205
 20
-0.916627967883198
 10
6.486428679988396
 20
-0.9073623157076497
 10
6.486428679988395
 20
-0.9073623157076497
 10
6.492241452838388
 20
-0.898835938835276
 10
6.4991427983153
 20
-0.8911486037958907
 10
6.506441161972655
 20
-0.8837648233266708
 10
6.513444989363982
 20
-0.8761491101647946
 10
6.513444989363983
 20
-0.8761491101647946
 10
6.524005691717364
 20
-0.8652823772548316
 10
6.535749535319289
 20
-0.8555473561890721
 10
6.548023208311559
 20
-0.8463182561762023
 10
6.560173398835978
 20
-0.8369692864249087
 10
6.571546795034348
 20
-0.8268746561438772
 10
6.571546795034346
 20
-0.8268746561438772
 10
6.576016625159873
 20
-0.8279308910498414
 10
6.579146575910315
 20
-0.8301219130544355
 10
6.581545954077797
 20
-0.8329552215941909
 10
6.583824066454442
 20
-0.8359383161056387
 10
6.586590219832376
 20
-0.8385786960253106
 10
6.586590219832377
 20
-0.8385786960253104
 10
6.592366911504234
 20
-0.8438448698369956
 10
6.59704769448183
 20
-0.8499069583405646
 10
6.601278604019926
 20
-0.8562335528668739
 10
6.605705675373283
 20
-0.862293244746781
 10
6.61097494379666
 20
-0.8675546253111431
 10
6.610974943796661
 20
-0.8675546253111431
 10
6.62363061194627
 20
-0.8785493012792512
 10
6.635898137675455
 20
-0.8900933539847567
 10
6.648519215805376
 20
-0.9011968827737943
 10
6.662235541157191
 20
-0.9108699869924976
 10
6.662235541157193
 20
-0.9108699869924976
 10
6.679374214526423
 20
-0.9214815395698124
 10
6.696434126385652
 20
-0.9329022105244897
 10
6.696434126385653
 20
-0.9329022105244895
 10
6.710648628165254
 20
-0.9415052290717637
 10
6.725089144975101
 20
-0.9482918675187905
 10
6.739869597902823
 20
-0.9541024404856011
 10
6.75510390803605
 20
-0.9597772625922264
 10
6.770905996462412
 20
-0.9661566484586973
 10
6.770905996462412
 20
-0.9661566484586975
 10
6.780013557873371
 20
-0.9686300229085315
 10
6.788815057943662
 20
-0.9683079168789245
 10
6.796925398583902
 20
-0.9654908946573524
 10
6.803959481704707
 20
-0.9604795205312914
 10
6.809532209216694
 20
-0.9535743587882176
 10
6.813258483030478
 20
-0.945075973715607
 10
6.813258483030479
 20
-0.945075973715607
 10
6.820916064940575
 20
-0.9224089595259783
 10
6.830368736918754
 20
-0.9010177523550433
 10
6.841768183678938
 20
-0.8805782794557334
 10
6.841768183678939
 20
-0.8805782794557334
 10
6.855831916335724
 20
-0.858944665394825
 10
6.871014302066731
 20
-0.8379063649140967
 10
6.887371487974826
 20
-0.8177120440073586
 10
6.904959621162877
 20
-0.7986103686684217
 10
6.923834848733751
 20
-0.7808500048910966
 10
6.944053317790314
 20
-0.7646796186691939
 10
6.965671175435433
 20
-0.7503478759965243
 10
6.965671175435434
 20
-0.7503478759965243
 10
6.981754787669351
 20
-0.7402522003138622
 10
6.997650885320916
 20
-0.72995563340278
 10
7.013848130459952
 20
-0.7201899205865461
 10
7.030835185156284
 20
-0.7116868071884288
 10
7.030835185156284
 20
-0.7116868071884288
 10
7.061146822631175
 20
-0.6980889358210134
 10
7.091415720968941
 20
-0.6848117476607982
 10
7.091415720968941
 20
-0.6848117476607985
 10
7.116144642913108
 20
-0.6754373817726246
 10
7.141195793778171
 20
-0.6667997086968053
 10
7.166042987246824
 20
-0.657752987867619
 10
7.166042987246824
 20
-0.6577529878676191
 10
7.185648675052424
 20
-0.6499150976934893
 10
7.205318719424701
 20
-0.6422114812121959
 10
7.225288945436077
 20
-0.6352420359555375
 10
7.245795178158975
 20
-0.6296066594553124
 10
7.245795178158977
 20
-0.6296066594553125
 10
7.267216669772411
 20
-0.6236617716781102
 10
7.288034606539003
 20
-0.6165223222673771
 10
7.308660384289745
 20
-0.609234815733681
 10
7.329505398855627
 20
-0.6028457565875901
 10
7.329505398855628
 20
-0.6028457565875901
 10
7.34566007855955
 20
-0.5977902372856673
 10
7.36162320055609
 20
-0.5920240726399669
 10
7.377610099540207
 20
-0.5866677672382059
 10
7.39383611020686
 20
-0.582841825668102
 10
7.393836110206861
 20
-0.582841825668102
 10
7.390639573728815
 20
-0.5903030321928247
 10
7.385688705974233
 20
-0.596557851328396
 10
7.379727841281628
 20
-0.6021957668795639
 10
7.373501313989511
 20
-0.6078062626510769
 10
7.373501313989511
 20
-0.6078062626510769
 10
7.36788437657092
 20
-0.6142951262405889
 10
7.36322482788284
 20
-0.6212578387503074
 10
7.358603751809901
 20
-0.6281451206858108
 10
7.353102232236733
 20
-0.6344076925526779
 10
7.353102232236732
 20
-0.6344076925526779
 10
7.343044379724974
 20
-0.6433089446461842
 10
7.332751388709137
 20
-0.6526624306770894
 10
7.323662309864788
 20
-0.6626399479059232
 10
7.323662309864788
 20
-0.6626399479059231
 10
7.313177441461642
 20
-0.6753097336178326
 10
7.302350066840921
 20
-0.6883065469718698
 10
7.292824373326872
 20
-0.7019671984999692
 10
7.292824373326872
 20
-0.7019671984999692
 10
7.287961446200571
 20
-0.7082798592540881
 10
7.282015539028047
 20
-0.7138383168317099
 10
7.275789599976742
 20
-0.7191735491627098
 10
7.270086577214099
 20
-0.7248165341769633
 10
7.270086577214099
 20
-0.7248165341769633
 10
7.267377978904561
 20
-0.7288262310566754
 10
7.265290578338644
 20
-0.7332192354306884
 10
7.263290162686216
 20
-0.7376162106611563
 10
7.260842519117142
 20
-0.741637820110234
 10
7.257413434801288
 20
-0.7449047271400758
 10
7.252468696908522
 20
-0.7470375951128362
 10
7.252468696908523
 20
-0.7470375951128362
 10
7.248495399334069
 20
-0.7490232165702781
 10
7.245957984171071
 20
-0.7522586725863905
 10
7.244273851459693
 20
-0.7562492764609771
 10
7.242860401240098
 20
-0.7605003414938416
 10
7.241135033552447
 20
-0.7645171809847878
 10
7.238515148436905
 20
-0.7678051082336191
 10
7.234418145933632
 20
-0.7698694365401392
 10
7.23441814593363
 20
-0.769869436540139
 10
7.231759336517842
 20
-0.7714496963023653
 10
7.230457708012477
 20
-0.7740955924708103
 10
7.229973315689169
 20
-0.777366179541601
 10
7.229766214819551
 20
-0.7808205120108641
 10
7.229296460675257
 20
-0.7840176443747263
 10
7.228024108527922
 20
-0.7865166311293147
 10
7.225409213649178
 20
-0.7878765267707558
 10
7.225409213649179
 20
-0.7878765267707558
 10
7.220129352060769
 20
-0.7896478240858024
 10
7.216133990464024
 20
-0.792501870425931
 10
7.212852173379198
 20
-0.7961525693969936
 10
7.209712945326545
 20
-0.8003138246048418
 10
7.209712945326545
 20
-0.8003138246048418
 10
7.199852531811633
 20
-0.8142573138401886
 10
7.19020695957288
 20
-0.8280221357860304
 10
7.179473698189771
 20
-0.8408959715322266
 10
7.179473698189771
 20
-0.8408959715322264
 10
7.163525123991139
 20
-0.8591719634040797
 10
7.149210512171564
 20
-0.8788520225079665
 10
7.136603542942447
 20
-0.8994940766433117
 10
7.136603542942446
 20
-0.8994940766433115
 10
7.131858646567112
 20
-0.9063616367656152
 10
7.126256646667005
 20
-0.9126243112440953
 10
7.120447168666294
 20
-0.9187686549737401
 10
7.115079837989146
 20
-0.9252812228495379
 10
7.110804280059729
 20
-0.9326485697664772
 10
7.110804280059728
 20
-0.932648569766477
 10
7.104235467841109
 20
-0.9446304715243561
 10
7.096270214140323
 20
-0.9555717787590367
 10
7.087698746394609
 20
-0.9660651782219428
 10
7.079311292041205
 20
-0.976703356664499
 10
7.071898078517347
 20
-0.9880790008381293
 10
7.071898078517348
 20
-0.9880790008381293
 10
7.066115978573053
 20
-0.9966609917705659
 10
7.06010969932161
 20
-1.005048188858129
 10
7.06010969932161
 20
-1.005048188858129
 10
7.046272631931359
 20
-1.027201568392413
 10
7.032249835031571
 20
-1.049258030742238
 10
7.017391688377022
 20
-1.070648480856979
 10
7.017391688377023
 20
-1.070648480856979
 10
7.007164185648546
 20
-1.086130139335748
 10
6.998011655473327
 20
-1.10222425699887
 10
6.988876764012386
 20
-1.11832909441347
 10
6.978702177426745
 20
-1.133842912146669
 10
6.978702177426746
 20
-1.133842912146669
 10
6.960456101964043
 20
-1.16045052921314
 10
6.943763633376429
 20
-1.188091554571454
 10
6.928311567243016
 20
-1.216501246599061
 10
6.913786699142912
 20
-1.245414863673414
 10
6.913786699142914
 20
-1.245414863673415
 10
6.90698307687358
 20
-1.257889767010287
 10
6.899552022351881
 20
-1.269892716505916
 10
6.892171916060965
 20
-1.281863335038879
 10
6.892171916060965
 20
-1.281863335038879
 10
6.884201923142884
 20
-1.295880707108505
 10
6.877037018464637
 20
-1.310416070205712
 10
6.871326267841111
 20
-1.325730872904785
 10
6.871326267841111
 20
-1.325730872904785
 10
6.867926862416166
 20
-1.33398101238469
 10
6.863470547850476
 20
-1.341485436853701
 10
6.858649385917361
 20
-1.348612658669714
 10
6.854155438390145
 20
-1.355731190190628
 10
6.854155438390145
 20
-1.355731190190627
 10
6.850503251366506
 20
-1.363333978901468
 10
6.847322525530041
 20
-1.371436456023715
 10
6.844013701234162
 20
-1.379627933213289
 10
6.83997721883228
 20
-1.387497722126116
 10
6.834613518677807
 20
-1.394635134418117
 10
6.834613518677808
 20
-1.394635134418117
 10
6.831794270564213
 20
-1.399480165264006
 10
6.830519480302716
 20
-1.405043287428608
 10
6.829454261747018
 20
-1.410767635416186
 10
6.827263728750819
 20
-1.416096343731006
 10
6.82726372875082
 20
-1.416096343731006
 10
6.820986211768488
 20
-1.426959349142237
 10
6.81552786697001
 20
-1.438021776657548
 10
6.810085178094237
 20
-1.449256786667789
 10
6.810085178094238
 20
-1.449256786667788
 10
6.805690726365051
 20
-1.459833484939426
 10
6.802327366479128
 20
-1.470768324759863
 10
6.799178128879726
 20
-1.481708686140757
 10
6.795426044010102
 20
-1.492301949093769
 10
6.79025414231351
 20
-1.502195493630557
 10
6.790254142313511
 20
-1.502195493630556
 10
6.781231137977242
 20
-1.517812847939532
 10
6.773816222741086
 20
-1.534210821734416
 10
6.767736605259715
 20
-1.551281708211012
 10
6.767736605259715
 20
-1.551281708211012
 10
6.752466537834581
 20
-1.59726016839248
 10
6.737366202142549
 20
-1.643111501616109
 10
6.737366202142549
 20
-1.643111501616109
 10
6.722692880457102
 20
-1.694467514855962
 10
6.710299717986242
 20
-1.746524458803461
 10
6.700102463129841
 20
-1.798998798528299
 10
6.700102463129841
 20
-1.798998798528299
 10
6.69479951913558
 20
-1.832197877251517
 10
6.690528319055523
 20
-1.865643096848171
 10
6.687539770216486
 20
-1.899238223567256
 10
6.686084779945281
 20
-1.932887023657768
 10
6.686414255568724
 20
-1.966493263368704
 10
6.688779104413628
 20
-1.999960708949057
 10
6.693430233806807
 20
-2.033193126647826
 10
6.700618551075075
 20
-2.066094282714006
 10
6.700618551075073
 20
-2.066094282714006
 10
6.706169745034085
 20
-2.087655097132393
 10
6.71198981206915
 20
-2.109245012289998
 10
6.718598213022129
 20
-2.130439868261703
 10
6.726514408734884
 20
-2.150815505122391
 10
6.736257860049274
 20
-2.169947762946943
 10
6.736257860049274
 20
-2.169947762946944
 10
6.745777977470389
 20
-2.185942670896237
 10
6.75574542600219
 20
-2.202433858894874
 10
6.765673539221569
 20
-2.218658784832333
 10
6.775075650705413
 20
-2.23385490659809
 10
6.775075650705413
 20
-2.23385490659809
 10
6.782120972496534
 20
-2.243362986742016
 10
6.791140570644457
 20
-2.253175308250485
 10
6.801223135953053
 20
-2.26296925128128
 10
6.811457359226193
 20
-2.272422195992183
 10
6.820931931267749
 20
-2.281211522540977
 10
6.828735542881594
 20
-2.289014611085444
 10
6.828735542881595
 20
-2.289014611085444
 10
6.83342632689883
 20
-2.293776349840072
 10
6.839308331812816
 20
-2.299162232273788
 10
6.84613889641592
 20
-2.3048384347857
 10
6.853675359500515
 20
-2.310471133774921
 10
6.861675059858969
 20
-2.315726505640559
 10
6.869895336283653
 20
-2.320270726781725
 10
6.878093527566935
 20
-2.323769973597529
 10
6.886026972501188
 20
-2.32589042248708
 10
6.893453009878779
 20
-2.326298249849489
 10
6.900128978492079
 20
-2.324659632083867
 10
6.905812217133458
 20
-2.320640745589323
  0
LWPOLYLINE
  5
7B
330
70
100
AcDbEntity
  8
Vector Layer 1
 62
    18
420
        0
370
    30
100
AcDbPolyline
 90
       25
 70
     0
 43
0.0
 10
-7.343393854430329
 20
0.0074416547529759
 10
-7.34280639969635
 20
0.0112214538351428
 10
-7.34323994462083
 20
0.0128687035686923
 10
-7.344542048464337
 20
0.0128754981011578
 10
-7.346560270487436
 20
0.0117339315800728
 10
-7.349142169950694
 20
0.0099360981529705
 10
-7.352135306114676
 20
0.0079740919673845
 10
-7.355387238239949
 20
0.006340007170848
 10
-7.355387238239948
 20
0.006340007170848
 10
-7.362654096051346
 20
0.0036373228360176
 10
-7.370098430109957
 20
0.0014744140927457
 10
-7.3776621945238
 20
0.0003468633920815
 10
-7.38528734340089
 20
0.0007502531850742
 10
-7.38528734340089
 20
0.0007502531850742
 10
-7.376415297558947
 20
-0.0010318417747109
 10
-7.36750817817022
 20
-0.0022259516125146
 10
-7.358772685096801
 20
-0.0034776130512922
 10
-7.350415518200781
 20
-0.005432362813999
 10
-7.342643377344251
 20
-0.0087357376235905
 10
-7.34264337734425
 20
-0.0087357376235905
 10
-7.341339827822634
 20
-0.0064842282000139
 10
-7.341536231081505
 20
-0.0033908124360307
 10
-7.342459456809791
 20
0.0001945878538209
 10
-7.343336374696423
 20
0.0039220508550025
 10
-7.343393854430328
 20
0.0074416547529759
210
0.0
220
0.0
230
-1.0
  0
LWPOLYLINE
  5
7C
330
70
100
AcDbEntity
  8
Vector Layer 1
 62
    18
420
        0
370
    30
100
AcDbPolyline
 90
       36
 70
     0
 43
0.0
 10
6.853158249979313
 20
0.253898437559243
 10
6.817872437553589
 20
0.2557471592833742
 10
6.782586625127866
 20
0.2575958810075054
 10
6.747288582456546
 20
0.2580172918051122
 10
6.747288582456545
 20
0.2580172918051122
 10
6.706020756850771
 20
0.2570638424213571
 10
6.664694646274887
 20
0.2557090885398027
 10
6.62341187949997
 20
0.2535225947996049
 10
6.582274085297097
 20
0.250073925839919
 10
6.541382892437345
 20
0.2449326462999009
 10
6.500839929691792
 20
0.2376683208187059
 10
6.500839929691792
 20
0.2376683208187059
 10
6.465460356081929
 20
0.22881810997924
 10
6.430688994717256
 20
0.2176045932817965
 10
6.396512899420928
 20
0.204552707277404
 10
6.362919124016103
 20
0.1901873885170911
 10
6.362919124016104
 20
0.1901873885170912
 10
6.331629285730016
 20
0.1747193406614903
 10
6.30125210338766
 20
0.1574239932630784
 10
6.271348753034705
 20
0.1393149610510753
 10
6.271348753034705
 20
0.1393149610510753
 10
6.246946303326883
 20
0.1244580283473595
 10
6.2227231691651
 20
0.1092747558847393
 10
6.199072360387388
 20
0.0932846085714155
 10
6.176386886831775
 20
0.0760070513155889
 10
6.176386886831774
 20
0.0760070513155889
 10
6.167800195200436
 20
0.0691253508595887
 10
6.159198622831593
 20
0.0621074937585219
 10
6.151035663634152
 20
0.0546812288744841
 10
6.143764811517022
 20
0.0465743050695708
 10
6.137839560389113
 20
0.0375144712058778
 10
6.137839560389114
 20
0.0375144712058778
 10
6.134764382138842
 20
0.0292613433610122
 10
6.133252565876524
 20
0.0204589644773922
 10
6.132366094409389
 20
0.0114368851782704
 10
6.131166950544664
 20
0.0025246560868995
  0
LWPOLYLINE
  5
7D
330
70
100
AcDbEntity
  8
Vector Layer 1
 62
    18
420
        0
370
    30
100
AcDbPolyline
 90
       45
 70
     0
 43
0.0
 10
7.34264337734425
 20
-0.0087357376235905
 10
7.318579018424309
 20
-0.0179692745319967
 10
7.293414179375231
 20
-0.027269421736376
 10
7.268249340326152
 20
-0.0365695689407554
 10
7.244184981406212
 20
-0.0458031058491616
 10
7.244184981406212
 20
-0.0458031058491615
 10
7.205820548798818
 20
-0.0608425230806774
 10
7.167322788295897
 20
-0.075581370375645
 10
7.129091683584031
 20
-0.0909213575437092
 10
7.091527218349802
 20
-0.1077641943945149
 10
7.091527218349803
 20
-0.1077641943945149
 10
7.044495303058406
 20
-0.1313177494647892
 10
6.998194914903775
 20
-0.1563382931782409
 10
6.952763349555236
 20
-0.1828889077270601
 10
6.908337902682114
 20
-0.2110326753034371
 10
6.908337902682114
 20
-0.2110326753034371
 10
6.873897083595571
 20
-0.2348593051202057
 10
6.840589886865243
 20
-0.2602790048694819
 10
6.808661363274694
 20
-0.2873615524969883
 10
6.808661363274693
 20
-0.2873615524969883
 10
6.77547444155352
 20
-0.3178687093742179
 10
6.743116226319719
 20
-0.3493190099170857
 10
6.711799556949546
 20
-0.3818001394333721
 10
6.681737272819254
 20
-0.4153997832308571
 10
6.6531422133051
 20
-0.4502056266173211
 10
6.6531422133051
 20
-0.4502056266173211
 10
6.635623533893347
 20
-0.4735209110945899
 10
6.619175035716017
 20
-0.4976508983163914
 10
6.604054781129681
 20
-0.5226086771994973
 10
6.590520832490907
 20
-0.5484073366606792
 10
6.590520832490907
 20
-0.5484073366606792
 10
6.581072112268953
 20
-0.5693782738662896
 10
6.572809825908368
 20
-0.5908916256590688
 10
6.565931173537359
 20
-0.6128668340854244
 10
6.560633355284132
 20
-0.6352233411917637
 10
6.560633355284132
 20
-0.6352233411917638
 10
6.556781179816271
 20
-0.6595366623556442
 10
6.554645011285407
 20
-0.6841154788560578
 10
6.554079801553583
 20
-0.708798654035164
 10
6.554940502482844
 20
-0.733425051235122
 10
6.554940502482843
 20
-0.7334250512351219
 10
6.557652056656236
 20
-0.7569940506550647
 10
6.562131360227893
 20
-0.7803462167835957
 10
6.567317763558857
 20
-0.8036116495955617
 10
6.572150617010169
 20
-0.8269204490658101
  0
LWPOLYLINE
  5
7E
330
70
100
AcDbEntity
  8
Vector Layer 1
 62
    18
420
        0
370
    30
100
AcDbPolyline
 90
       45
 70
     0
 43
0.0
 10
-7.343102425439536
 20
0.0127168053545294
 10
-7.320000669073688
 20
0.0210705914014652
 10
-7.296953555643613
 20
0.0284352867106097
 10
-7.273906442213538
 20
0.0357999820197542
 10
-7.250804685847691
 20
0.04415376806669
 10
-7.250804685847691
 20
0.04415376806669
 10
-7.212440253240298
 20
0.0591931852982059
 10
-7.173942492737376
 20
0.0739320325931734
 10
-7.13571138802551
 20
0.0892720197612376
 10
-7.098146922791284
 20
0.1061148566120433
 10
-7.098146922791282
 20
0.1061148566120433
 10
-7.051115007499884
 20
0.1296684116823177
 10
-7.004814619345253
 20
0.1546889553957694
 10
-6.959383053996714
 20
0.1812395699445886
 10
-6.91495760712359
 20
0.2093833375209656
 10
-6.914957607123591
 20
0.2093833375209656
 10
-6.880516788037049
 20
0.2332099673377342
 10
-6.84720959130672
 20
0.2586296670870103
 10
-6.815281067716171
 20
0.2857122147145167
 10
-6.815281067716171
 20
0.2857122147145167
 10
-6.782094145994999
 20
0.3162193715917463
 10
-6.749735930761198
 20
0.3476696721346141
 10
-6.718419261391024
 20
0.3801508016509005
 10
-6.688356977260732
 20
0.4137504454483856
 10
-6.659761917746578
 20
0.4485562888348495
 10
-6.659761917746577
 20
0.4485562888348496
 10
-6.642243238334825
 20
0.4718715733121184
 10
-6.625794740157496
 20
0.4960015605339198
 10
-6.610674485571159
 20
0.5209593394170257
 10
-6.597140536932384
 20
0.5467579988782079
 10
-6.597140536932385
 20
0.5467579988782078
 10
-6.587691816710432
 20
0.5677289360838181
 10
-6.579429530349846
 20
0.5892422878765973
 10
-6.572550877978837
 20
0.6112174963029529
 10
-6.567253059725611
 20
0.6335740034092923
 10
-6.567253059725612
 20
0.6335740034092922
 10
-6.56340088425775
 20
0.6578873245731726
 10
-6.561264715726885
 20
0.6824661410735862
 10
-6.560699505995061
 20
0.7071493162526924
 10
-6.561560206924322
 20
0.7317757134526505
 10
-6.561560206924321
 20
0.7317757134526504
 10
-6.564271761097713
 20
0.7553447128725931
 10
-6.56875106466937
 20
0.7786968790011241
 10
-6.573937468000334
 20
0.8019623118130903
 10
-6.578770321451644
 20
0.8252711112833388
210
0.0
220
0.0
230
-1.0
  0
LWPOLYLINE
  5
7F
330
70
100
AcDbEntity
  8
Vector Layer 1
 62
    18
420
        0
370
    30
100
AcDbPolyline
 90
       69
 70
     0
 43
0.0
 10
2.804526033546464
 20
-0.4179754020835896
 10
2.81037672523448
 20
-0.4492972072682397
 10
2.81585722486743
 20
-0.4807138036360695
 10
2.822078108610512
 20
-0.51194081763754
 10
2.830149952628923
 20
-0.5426938757231119
 10
2.830149952628923
 20
-0.5426938757231118
 10
2.841338911660197
 20
-0.5758062481503911
 10
2.854184410006489
 20
-0.6083525388931598
 10
2.868450573578517
 20
-0.6403204454313521
 10
2.883901528287001
 20
-0.6716976652449019
 10
2.883901528287001
 20
-0.6716976652449019
 10
2.890513508110709
 20
-0.6850092698341359
 10
2.897108193052498
 20
-0.6984727252937109
 10
2.90404419527188
 20
-0.7117432726218198
 10
2.911680126928363
 20
-0.7244761528166557
 10
2.920374600181457
 20
-0.7363266068764113
 10
2.93048622719067
 20
-0.7469498757992796
 10
2.93048622719067
 20
-0.7469498757992794
 10
2.949103209829585
 20
-0.7618173421630195
 10
2.969242237037759
 20
-0.7745805964730107
 10
2.990566811598499
 20
-0.7856275438674817
 10
3.012740436295114
 20
-0.7953460894846617
 10
3.035426613910912
 20
-0.8041241384627792
 10
3.058288847229201
 20
-0.8123495959400633
 10
3.08099063903329
 20
-0.820410367054743
 10
3.08099063903329
 20
-0.820410367054743
 10
3.124400147444391
 20
-0.8347668505588536
 10
3.168492275113829
 20
-0.8470389467110289
 10
3.213096966516389
 20
-0.85750795900789
 10
3.258044166126856
 20
-0.8664551909460584
 10
3.303163818420015
 20
-0.8741619460221558
 10
3.303163818420015
 20
-0.8741619460221558
 10
3.366890373715228
 20
-0.8832111467234549
 10
3.430923095733442
 20
-0.8901866652010914
 10
3.495164313580037
 20
-0.8951459903465577
 10
3.559516356360391
 20
-0.898146611051346
 10
3.623881553179885
 20
-0.8992460162069484
 10
3.623881553179885
 20
-0.8992460162069482
 10
3.70762062127939
 20
-0.8981400785310114
 10
3.791338657898924
 20
-0.8944475816370369
 10
3.874934217563147
 20
-0.8882621307728776
 10
3.958305854796718
 20
-0.8796773311863859
 10
4.041352124124296
 20
-0.8687867881254145
 10
4.041352124124296
 20
-0.8687867881254145
 10
4.122825785901323
 20
-0.8556686859556371
 10
4.203916957938941
 20
-0.8402490727404609
 10
4.284658618054735
 20
-0.8229039404830727
 10
4.365083744066287
 20
-0.8040092811866589
 10
4.445225313791182
 20
-0.7839410868544069
 10
4.525116305047002
 20
-0.7630753494895031
 10
4.525116305047003
 20
-0.763075349489503
 10
4.635326490881227
 20
-0.7327358819338473
 10
4.745007166540024
 20
-0.7005278067058626
 10
4.854257350882941
 20
-0.6668196365589001
 10
4.963176062769525
 20
-0.6319798842463113
 10
5.071862321059322
 20
-0.5963770625214473
 10
5.180415144611878
 20
-0.5603796841376596
 10
5.28893355228674
 20
-0.5243562618482997
 10
5.288933552286741
 20
-0.5243562618482995
 10
5.421301356240052
 20
-0.4791619207519663
 10
5.553134644004317
 20
-0.4323977600784973
 10
5.684912673270533
 20
-0.3854679904622131
 10
5.817114701729695
 20
-0.3397768225374345
 10
5.817114701729695
 20
-0.3397768225374345
 10
5.913499339241148
 20
-0.3080414614050312
 10
6.010130884042362
 20
-0.2770543612230901
 10
6.106762428843574
 20
-0.2460672610411491
 10
6.106762428843575
 20
-0.2460672610411491
 10
6.32602037481601
 20
-0.1716618004586161
  0
LWPOLYLINE
  5
80
330
70
100
AcDbEntity
  8
Vector Layer 1
 62
    18
420
        0
370
    30
100
AcDbPolyline
 90
       28
 70
     0
 43
0.0
 10
2.851097728280709
 20
-0.3281625002292942
 10
2.902589911118413
 20
-0.3315063105353049
 10
2.954069835332135
 20
-0.3353607989462088
 10
3.005555888857848
 20
-0.3389599483046661
 10
3.057066459631524
 20
-0.3415377414533367
 10
3.108619935589135
 20
-0.3423281612348805
 10
3.108619935589135
 20
-0.3423281612348806
 10
3.202031072492064
 20
-0.3404327580217015
 10
3.29537511745661
 20
-0.336325912311634
 10
3.38865542167086
 20
-0.330427685914469
 10
3.481875336322902
 20
-0.3231581406399968
 10
3.575038212600824
 20
-0.314937338298008
 10
3.668147401692712
 20
-0.3061853406982933
 10
3.761206254786655
 20
-0.2973222096506433
 10
3.761206254786656
 20
-0.2973222096506433
 10
3.939882847719722
 20
-0.2791383682829806
 10
4.118322203955171
 20
-0.2587603485081429
 10
4.296594298416102
 20
-0.2368289558675965
 10
4.474769106025618
 20
-0.2139849959028071
 10
4.652916601706822
 20
-0.1908692741552409
 10
4.831106760382815
 20
-0.1681225961663638
 10
5.0094095569767
 20
-0.1463857674776419
 10
5.187894966411577
 20
-0.1262995936305412
 10
5.187894966411579
 20
-0.1262995936305412
 10
5.42513454640864
 20
-0.1023520144909594
 10
5.662594781056445
 20
-0.0803264467661541
 10
5.900190686494876
 20
-0.059089995434564
 10
6.137837278863815
 20
-0.0375097654746278
  0
LWPOLYLINE
  5
81
330
70
100
AcDbEntity
  8
Vector Layer 1
 62
    18
420
        0
370
    30
100
AcDbPolyline
 90
       51
 70
     0
 43
0.0
 10
2.865875341657497
 20
-0.4610877941728599
 10
2.904282726735321
 20
-0.4781254510599053
 10
2.942477799942454
 20
-0.4957305994801033
 10
2.980779029084932
 20
-0.5130520021337249
 10
3.019504881968796
 20
-0.5292384217210412
 10
3.058973826400082
 20
-0.5434386209423231
 10
3.058973826400082
 20
-0.5434386209423231
 10
3.118081407930164
 20
-0.5613350662265633
 10
3.177862946109684
 20
-0.5770546876231581
 10
3.238191339675214
 20
-0.5906413272137263
 10
3.298939487363324
 20
-0.6021388270798866
 10
3.359980287910585
 20
-0.6115910293032579
 10
3.359980287910584
 20
-0.6115910293032576
 10
3.436244544301532
 20
-0.6207416295826695
 10
3.512844172065741
 20
-0.6272343833363438
 10
3.589647400223078
 20
-0.6311396155275059
 10
3.666522457793409
 20
-0.6325276511193817
 10
3.743337573796599
 20
-0.6314688150751968
 10
3.743337573796599
 20
-0.6314688150751968
 10
3.820399043538316
 20
-0.6278993221807166
 10
3.897343951386526
 20
-0.6219368066490563
 10
3.974142714992006
 20
-0.61389116801291
 10
4.050765752005531
 20
-0.6040723058049719
 10
4.127183480077877
 20
-0.5927901195579359
 10
4.20336631685982
 20
-0.580354508804496
 10
4.20336631685982
 20
-0.580354508804496
 10
4.290699611769166
 20
-0.5640791952583064
 10
4.37756872279359
 20
-0.5454498473077276
 10
4.464104904306253
 20
-0.5251512490883262
 10
4.550439410680318
 20
-0.5038681847356698
 10
4.636703496288949
 20
-0.4822854383853253
 10
4.723028415505307
 20
-0.4610877941728598
 10
4.723028415505308
 20
-0.4610877941728599
 10
4.881283972559649
 20
-0.4220633284609619
 10
5.039269774561977
 20
-0.3819422040010931
 10
5.197255576564304
 20
-0.3418210795412243
 10
5.197255576564305
 20
-0.3418210795412243
 10
5.294261065040971
 20
-0.3163694986422318
 10
5.391154862903178
 20
-0.2904555532432564
 10
5.488104506072614
 20
-0.2647727900942725
 10
5.585277530470968
 20
-0.2400147559452546
 10
5.682841472019926
 20
-0.216874997546177
 10
5.682841472019926
 20
-0.216874997546177
 10
5.795191196829849
 20
-0.1922387475944852
 10
5.907891084159308
 20
-0.1691863292888574
 10
6.020943588485513
 20
-0.1479706965786709
 10
6.134351164285677
 20
-0.1288448034133031
 10
6.134351164285678
 20
-0.128844803413303
 10
6.167589132522768
 20
-0.1242469727890948
 10
6.200937219800936
 20
-0.1204338193550416
 10
6.234285307079105
 20
-0.1166206659209883
  0
LWPOLYLINE
  5
82
330
70
100
AcDbEntity
  8
Vector Layer 1
 62
    18
420
        0
370
    30
100
AcDbPolyline
 90
       52
 70
     0
 43
0.0
 10
3.198993221734763
 20
-1.138084589900002
 10
3.248684886357124
 20
-1.143366207204888
 10
3.298343314338869
 20
-1.149196574979521
 10
3.348018360640921
 20
-1.15475256751928
 10
3.397759880224208
 20
-1.159211059119546
 10
3.447617728049656
 20
-1.161748924075697
 10
3.447617728049656
 20
-1.161748924075697
 10
3.516940521874588
 20
-1.163228409893612
 10
3.586354645987565
 20
-1.163898886972568
 10
3.655799362945205
 20
-1.163530927169204
 10
3.725213935304128
 20
-1.161895102340161
 10
3.794537625620951
 20
-1.158761984342079
 10
3.863709696452294
 20
-1.153902145031599
 10
3.932669410354775
 20
-1.14708615626536
 10
4.001356029885013
 20
-1.138084589900002
 10
4.001356029885013
 20
-1.138084589900002
 10
4.082323097510416
 20
-1.12458296103196
 10
4.162815602538352
 20
-1.108411242560059
 10
4.242862836717692
 20
-1.08990909075279
 10
4.322494091797304
 20
-1.069416161878646
 10
4.40173865952606
 20
-1.047272112206116
 10
4.480625831652828
 20
-1.023816598003692
 10
4.559184899926479
 20
-0.9993892755398658
 10
4.637445156095882
 20
-0.9743298010831274
 10
4.637445156095883
 20
-0.9743298010831271
 10
4.719562914508624
 20
-0.9465484795006544
 10
4.80100016417212
 20
-0.9168247062565402
 10
4.881887288259998
 20
-0.8855517787450343
 10
4.962354669945885
 20
-0.8531229943603866
 10
5.042532692403407
 20
-0.8199316504968468
 10
5.12255173880619
 20
-0.7863710445486644
 10
5.202542192327861
 20
-0.7528344739100891
 10
5.202542192327862
 20
-0.7528344739100891
 10
5.307611561108839
 20
-0.7087211261935873
 10
5.413587858190174
 20
-0.6635048746075522
 10
5.519882664762078
 20
-0.6171433418369383
 10
5.625907562014763
 20
-0.5695941505667001
 10
5.731074131138442
 20
-0.5208149234817923
 10
5.834793953323328
 20
-0.4707632832671694
 10
5.936478609759631
 20
-0.419396852607786
 10
5.936478609759629
 20
-0.4193968526077859
 10
5.9835700228121
 20
-0.3955577206014325
 10
6.028812190466386
 20
-0.3736624223843799
 10
6.072522719802704
 20
-0.3533712746781882
 10
6.115019217901275
 20
-0.3343445942044172
 10
6.156619291842319
 20
-0.3162426976846269
 10
6.197640548706052
 20
-0.2987259018403774
 10
6.238400595572696
 20
-0.2814545233932286
 10
6.279217039522469
 20
-0.2640888790647404
 10
6.32040748763559
 20
-0.2462892855764729
 10
6.362289546992279
 20
-0.2277160596499861
 10
6.405180824672755
 20
-0.20802951800684
  0
LWPOLYLINE
  5
83
330
70
100
AcDbEntity
  8
Vector Layer 1
 62
    18
420
        0
370
    30
100
AcDbPolyline
 90
       58
 70
     0
 43
0.0
 10
3.183919904762932
 20
-1.273237327140666
 10
3.235457849215447
 20
-1.288048100402912
 10
3.286851496615845
 20
-1.303471228518877
 10
3.338317292542302
 20
-1.318588179207982
 10
3.390071682572994
 20
-1.332480420189651
 10
3.442331112286098
 20
-1.344229419183306
 10
3.442331112286098
 20
-1.344229419183306
 10
3.491756735523231
 20
-1.353740135918605
 10
3.541382591549833
 20
-1.362615893138876
 10
3.5911828755504
 20
-1.370552530498234
 10
3.641131782709429
 20
-1.377245887650798
 10
3.691203508211416
 20
-1.382391804250684
 10
3.741372247240856
 20
-1.385686119952009
 10
3.791612194982247
 20
-1.38682467440889
 10
3.791612194982246
 20
-1.38682467440889
 10
3.864380174403137
 20
-1.385299474153366
 10
3.937108453681319
 20
-1.380974885413531
 10
4.009709076465373
 20
-1.374050637302575
 10
4.082094086403882
 20
-1.364726458933689
 10
4.154175527145429
 20
-1.353202079420065
 10
4.225865442338593
 20
-1.339677227874894
 10
4.297075875631959
 20
-1.324351633411367
 10
4.297075875631957
 20
-1.324351633411367
 10
4.365083920898566
 20
-1.307639611862883
 10
4.432546600585181
 20
-1.28879048154305
 10
4.499503677319463
 20
-1.268065584345408
 10
4.565994913729075
 20
-1.245726262163495
 10
4.632060072441679
 20
-1.222033856890851
 10
4.697738916084937
 20
-1.197249710421013
 10
4.763071207286513
 20
-1.171635164647521
 10
4.828096708674068
 20
-1.145451561463913
 10
4.828096708674068
 20
-1.145451561463913
 10
4.920512778630598
 20
-1.106424437289958
 10
5.011980170754513
 20
-1.065215066311864
 10
5.102677718971553
 20
-1.022256902762834
 10
5.19278425720746
 20
-0.9779834008760708
 10
5.282478619387974
 20
-0.9328280148847774
 10
5.371939639438835
 20
-0.8872241990221569
 10
5.461346151285784
 20
-0.8416054075214123
 10
5.461346151285782
 20
-0.8416054075214123
 10
5.560630721224359
 20
-0.7900041928394411
 10
5.659117648780775
 20
-0.736878221090332
 10
5.756965559732607
 20
-0.6825892017728154
 10
5.756965559732607
 20
-0.6825892017728155
 10
5.839283775216238
 20
-0.6352675203338734
 10
5.920993720404189
 20
-0.5868845808505359
 10
6.002660738134919
 20
-0.5384254605823953
 10
6.084850171246889
 20
-0.490875236789044
 10
6.084850171246888
 20
-0.4908752367890442
 10
6.145712237983479
 20
-0.4563471249528103
 10
6.206718096169537
 20
-0.4220590703459503
 10
6.26815637410391
 20
-0.3885843621060043
 10
6.330315700085446
 20
-0.3564962893705126
 10
6.330315700085446
 20
-0.3564962893705126
 10
6.389472630447449
 20
-0.3282521546216385
 10
6.449307001036347
 20
-0.3014357505753447
 10
6.509412347716001
 20
-0.2751904388100831
 10
6.569382206350278
 20
-0.2486595809043053
  0
LWPOLYLINE
  5
84
330
70
100
AcDbEntity
  8
Vector Layer 1
 62
    18
420
        0
370
    30
100
AcDbPolyline
 90
       78
 70
     0
 43
0.0
 10
3.149395793504759
 20
-1.234238731373187
 10
3.153091449781119
 20
-1.253359901540984
 10
3.156115831900763
 20
-1.272711823495239
 10
3.159140214020406
 20
-1.292063745449495
 10
3.162835870296766
 20
-1.311184915617291
 10
3.16787407488656
 20
-1.329844582212168
 10
3.174926101946505
 20
-1.347811993447668
 10
3.174926101946504
 20
-1.347811993447668
 10
3.185393853461554
 20
-1.368591528473003
 10
3.197066328458222
 20
-1.388939591458464
 10
3.209966826143683
 20
-1.408610180499388
 10
3.224118645725112
 20
-1.427357293691109
 10
3.239545086409683
 20
-1.444934929128965
 10
3.256269447404572
 20
-1.46109708490829
 10
3.274315027916953
 20
-1.475597759124421
 10
3.274315027916953
 20
-1.47559775912442
 10
3.301419259511183
 20
-1.49344955541026
 10
3.329924540532259
 20
-1.508955288564679
 10
3.359605554854032
 20
-1.522390923290275
 10
3.390236986350356
 20
-1.534032424289647
 10
3.421593518895082
 20
-1.544155756265395
 10
3.453449836362062
 20
-1.553036883920117
 10
3.485580622625149
 20
-1.560951771956412
 10
3.517760561558195
 20
-1.568176385076879
 10
3.549764337035052
 20
-1.574986687984117
 10
3.549764337035053
 20
-1.574986687984117
 10
3.61415176360428
 20
-1.587028711746659
 10
3.679089279885517
 20
-1.596307783788785
 10
3.744431891293829
 20
-1.602965742404487
 10
3.810034603244281
 20
-1.607144425887756
 10
3.875752421151936
 20
-1.608985672532584
 10
3.94144035043186
 20
-1.608631320632961
 10
4.006953396499117
 20
-1.606223208482879
 10
4.006953396499117
 20
-1.606223208482879
 10
4.07740593853074
 20
-1.601304466820337
 10
4.147699436837563
 20
-1.593977941549867
 10
4.21778765701737
 20
-1.584426108191903
 10
4.287624364667945
 20
-1.57283144226688
 10
4.357163325387074
 20
-1.559376419295232
 10
4.426358304772541
 20
-1.544243514797394
 10
4.495163068422131
 20
-1.527615204293801
 10
4.563531381933629
 20
-1.509673963304888
 10
4.563531381933629
 20
-1.509673963304888
 10
4.635928923748956
 20
-1.488704174715815
 10
4.707682482894104
 20
-1.465406058538822
 10
4.778711426640819
 20
-1.439865682732796
 10
4.848935122260846
 20
-1.412169115256622
 10
4.918272937025933
 20
-1.382402424069186
 10
4.986644238207824
 20
-1.350651677129373
 10
4.986644238207825
 20
-1.350651677129373
 10
5.058285559203443
 20
-1.314594017424695
 10
5.12877952377331
 20
-1.27634633105493
 10
5.198302811028003
 20
-1.236272523684044
 10
5.267032100078099
 20
-1.194736500976
 10
5.335144070034172
 20
-1.152102168594762
 10
5.402815400006801
 20
-1.108733432204293
 10
5.47022276910656
 20
-1.064994197468559
 10
5.537542856444026
 20
-1.021248370051522
 10
5.537542856444025
 20
-1.021248370051522
 10
5.627969403304241
 20
-0.9612366081970684
 10
5.717304015599389
 20
-0.899604250026347
 10
5.805910671517825
 20
-0.8368914943114475
 10
5.894153349247904
 20
-0.7736385398244588
 10
5.982396026977983
 20
-0.71038558533747
 10
6.071002682896418
 20
-0.6476728296225704
 10
6.071002682896417
 20
-0.6476728296225705
 10
6.132009765300491
 20
-0.6058955658453586
 10
6.192691457318129
 20
-0.5636096847914525
 10
6.253373149335766
 20
-0.5213238037375464
 10
6.31438023173984
 20
-0.4795465399603345
 10
6.376038094916785
 20
-0.4387865107365113
 10
6.438672129253038
 20
-0.3995523333427713
 10
6.438672129253037
 20
-0.3995523333427712
 10
6.490485544381589
 20
-0.3694029713004527
 10
6.543116793901775
 20
-0.3406815587446527
 10
6.596215377360039
 20
-0.312776117324006
 10
6.649430794302821
 20
-0.2850746686871476
 10
6.702412544276564
 20
-0.2569652344827126
  0
LWPOLYLINE
  5
85
330
70
100
AcDbEntity
  8
Vector Layer 1
 62
    18
420
        0
370
    30
100
AcDbPolyline
 90
       55
 70
     0
 43
0.0
 10
4.450706552769218
 20
-1.791648704557056
 10
4.477722727522575
 20
-1.787537332282435
 10
4.504829135246994
 20
-1.783839301779679
 10
4.531890426485881
 20
-1.77993460039099
 10
4.558771251782646
 20
-1.77520321545857
 10
4.585336261680695
 20
-1.769025134324618
 10
4.585336261680696
 20
-1.769025134324618
 10
4.656700279327097
 20
-1.748316660368432
 10
4.727327189287583
 20
-1.725054957534982
 10
4.7972183126451
 20
-1.699510525871543
 10
4.866374970482594
 20
-1.671953865425389
 10
4.934798483883009
 20
-1.642655476243795
 10
5.00249017392929
 20
-1.611885858374036
 10
5.002490173929292
 20
-1.611885858374036
 10
5.072953667381216
 20
-1.5777937849403
 10
5.142445365075281
 20
-1.541625569328758
 10
5.210785791505504
 20
-1.503309944740272
 10
5.277795471165899
 20
-1.462775644375702
 10
5.343294928550482
 20
-1.41995140143591
 10
5.343294928550481
 20
-1.41995140143591
 10
5.402675495176648
 20
-1.378096617159187
 10
5.460773005228865
 20
-1.334486788796448
 10
5.51780872198083
 20
-1.289437279092019
 10
5.574003908706238
 20
-1.243263450790224
 10
5.629579828678786
 20
-1.196280666635389
 10
5.68475774517217
 20
-1.148804289371837
 10
5.739758921460087
 20
-1.101149681743895
 10
5.794804620816233
 20
-1.053632206495886
 10
5.794804620816233
 20
-1.053632206495886
 10
5.851231435106228
 20
-1.003958438095112
 10
5.906764091284328
 20
-0.9532738683228066
 10
5.961912239589155
 20
-0.902152997983708
 10
6.017185530259334
 20
-0.8511703278825548
 10
6.073093613533488
 20
-0.8009003588240863
 10
6.073093613533488
 20
-0.8009003588240863
 10
6.124733554656197
 20
-0.7548635032473982
 10
6.176189936581715
 20
-0.7085603630340592
 10
6.227868690346437
 20
-0.6625132108464622
 10
6.280175746986757
 20
-0.6172443193470003
 10
6.33351703753907
 20
-0.5732759611980664
 10
6.388298493039768
 20
-0.5311304090620532
 10
6.388298493039768
 20
-0.531130409062053
 10
6.429390259746898
 20
-0.5010126977745289
 10
6.470893457227957
 20
-0.4713025634858756
 10
6.512943058291748
 20
-0.4423430363492964
 10
6.555674035747072
 20
-0.4144771465179939
 10
6.599221362402732
 20
-0.3880479241451712
 10
6.64372001106753
 20
-0.3633983993840312
 10
6.689304954550268
 20
-0.3408716023877768
 10
6.68930495455027
 20
-0.3408716023877768
 10
6.708614013461146
 20
-0.3330210921389183
 10
6.728471732486703
 20
-0.3265941875362483
 10
6.748642971577791
 20
-0.3209807718742573
 10
6.768892590685263
 20
-0.3155707284474362
 10
6.788985449759969
 20
-0.3097539405502754
  0
LWPOLYLINE
  5
86
330
70
100
AcDbEntity
  8
Vector Layer 1
 62
    18
420
        0
370
    30
100
AcDbPolyline
 90
       55
 70
     0
 43
0.0
 10
4.505683085317247
 20
-1.825998802570383
 10
4.539028220112956
 20
-1.829235129677677
 10
4.572359256579085
 20
-1.832735885735363
 10
4.605718489704374
 20
-1.835707783892265
 10
4.639148214477563
 20
-1.837357537297206
 10
4.639148214477564
 20
-1.837357537297206
 10
4.693774183828638
 20
-1.838178546584749
 10
4.748462745582896
 20
-1.837949952887561
 10
4.803099285213511
 20
-1.836174981073919
 10
4.857569188193657
 20
-1.832356856012101
 10
4.911757839996507
 20
-1.825998802570383
 10
4.911757839996508
 20
-1.825998802570383
 10
4.967287766218039
 20
-1.81692798106389
 10
5.02250346038727
 20
-1.805692046773168
 10
5.077215153997628
 20
-1.792176282399599
 10
5.131233078542546
 20
-1.776265970644566
 10
5.184367465515453
 20
-1.757846394209449
 10
5.184367465515453
 20
-1.757846394209449
 10
5.242378669647576
 20
-1.734506040949683
 10
5.299316310523582
 20
-1.708445652922257
 10
5.355077248605254
 20
-1.679857023116187
 10
5.409558344354369
 20
-1.648931944520485
 10
5.462656458232707
 20
-1.615862210124168
 10
5.462656458232708
 20
-1.615862210124168
 10
5.513437864779694
 20
-1.581073393544958
 10
5.562719363532853
 20
-1.544138209926969
 10
5.610731865549195
 20
-1.505460376428055
 10
5.657706281885731
 20
-1.46544361020607
 10
5.703873523599474
 20
-1.424491628418869
 10
5.749464501747434
 20
-1.383008148224307
 10
5.749464501747432
 20
-1.383008148224307
 10
5.79236778728563
 20
-1.342186828132526
 10
5.83402700401151
 20
-1.300088274744406
 10
5.874856841529179
 20
-1.257138232492061
 10
5.915271989442742
 20
-1.213762445807604
 10
5.955687137356306
 20
-1.170386659123147
 10
5.996516974873975
 20
-1.127436616870802
 10
5.996516974873975
 20
-1.127436616870802
 10
6.04389997038578
 20
-1.076375731709218
 10
6.090780951808807
 20
-1.024811015142232
 10
6.137661933231834
 20
-0.9732462985752466
 10
6.185044928743639
 20
-0.9221854134136622
 10
6.233431952433002
 20
-0.8721321910628802
 10
6.283325018388699
 20
-0.8235904629283018
 10
6.283325018388699
 20
-0.8235904629283018
 10
6.318065995756056
 20
-0.7915965516121997
 10
6.353494349417478
 20
-0.7603131934560674
 10
6.389726189429817
 20
-0.7299764674449465
 10
6.426877625849926
 20
-0.7008224525638784
 10
6.465064768734661
 20
-0.6730872277979046
 10
6.465064768734661
 20
-0.6730872277979043
 10
6.491168371845165
 20
-0.6563190252427143
 10
6.518144993657512
 20
-0.640925697414978
 10
6.545470822950595
 20
-0.6260823194782233
 10
6.57262204850331
 20
-0.6109639665959778
  0
LWPOLYLINE
  5
87
330
70
100
AcDbEntity
  8
Vector Layer 1
 62
    18
420
        0
370
    30
100
AcDbPolyline
 90
       72
 70
     0
 43
0.0
 10
4.449224330857465
 20
-1.817297370209637
 10
4.464197704676386
 20
-1.83189543916426
 10
4.478877144383456
 20
-1.846856682401851
 10
4.493703551146452
 20
-1.861636338497957
 10
4.509117826133152
 20
-1.875689646028127
 10
4.525560870511337
 20
-1.888471843567907
 10
4.525560870511337
 20
-1.888471843567907
 10
4.551627245961281
 20
-1.906009663467342
 10
4.578471163941564
 20
-1.92254436708423
 10
4.606066621536958
 20
-1.937826471183211
 10
4.634387615832234
 20
-1.95160649252892
 10
4.663408143912164
 20
-1.963634947885996
 10
4.69310220286152
 20
-1.973662354019076
 10
4.693102202861521
 20
-1.973662354019076
 10
4.736530387479375
 20
-1.985373850888579
 10
4.780655581090038
 20
-1.994855981987602
 10
4.825298661257314
 20
-2.002077673238259
 10
4.870280505545008
 20
-2.007007850562666
 10
4.915421991516925
 20
-2.009615439882938
 10
4.960543996736869
 20
-2.009869367121192
 10
5.005467398768645
 20
-2.007738558199543
 10
5.005467398768645
 20
-2.007738558199543
 10
5.061007816033621
 20
-2.002102252828854
 10
5.116290229694418
 20
-1.993614697842309
 10
5.171217008855838
 20
-1.982478359042429
 10
5.225690522622682
 20
-1.968895702231739
 10
5.279613140099749
 20
-1.95306919321276
 10
5.332887230391842
 20
-1.935201297788015
 10
5.385415162603761
 20
-1.915494481760027
 10
5.437099305840307
 20
-1.894151210931318
 10
5.437099305840308
 20
-1.894151210931319
 10
5.486756030826635
 20
-1.871512911387643
 10
5.535557693539251
 20
-1.84676955282392
 10
5.583335241496654
 20
-1.819951329378025
 10
5.629919622217339
 20
-1.791088435187833
 10
5.675141783219803
 20
-1.760211064391218
 10
5.718832672022543
 20
-1.727349411126055
 10
5.760823236144053
 20
-1.69253366953022
 10
5.760823236144054
 20
-1.692533669530219
 10
5.795242538383954
 20
-1.660867685648308
 10
5.828033491445592
 20
-1.627539981963585
 10
5.859417723807279
 20
-1.592801651668001
 10
5.889616863947327
 20
-1.55690378795351
 10
5.918852540344045
 20
-1.520097484012064
 10
5.947346381475745
 20
-1.482633833035616
 10
5.975320015820737
 20
-1.444763928216118
 10
6.002995071857332
 20
-1.406738862745521
 10
6.030593178063841
 20
-1.36880972981578
 10
6.030593178063843
 20
-1.36880972981578
 10
6.062429177616182
 20
-1.322994860773762
 10
6.092511067063687
 20
-1.275982617951968
 10
6.121528015025578
 20
-1.228242876367301
 10
6.150169190121073
 20
-1.180245511036661
 10
6.17912376096939
 20
-1.132460396976951
 10
6.209080896189748
 20
-1.085357409205073
 10
6.240729764401365
 20
-1.039406422737928
 10
6.240729764401364
 20
-1.039406422737928
 10
6.262640042174042
 20
-1.008745384482848
 10
6.284494663917914
 20
-0.9778786230151782
 10
6.306588896557419
 20
-0.9471310400151566
 10
6.329218007016994
 20
-0.9168275371630199
 10
6.352677262221082
 20
-0.8872930161390058
 10
6.377261929094117
 20
-0.8588523786233508
 10
6.403267274560541
 20
-0.8318305262962926
 10
6.430988565544792
 20
-0.8065523608380679
 10
6.430988565544793
 20
-0.8065523608380681
 10
6.450925217254199
 20
-0.7914863413378683
 10
6.472176076698376
 20
-0.7782946581915624
 10
6.494303074632401
 20
-0.7663525326145188
 10
6.516868141811348
 20
-0.7550351858221064
 10
6.539433208990296
 20
-0.743717839029694
 10
6.56156020692432
 20
-0.7317757134526504
  0
LWPOLYLINE
  5
88
330
70
100
AcDbEntity
  8
Vector Layer 1
 62
    18
420
        0
370
    30
100
AcDbPolyline
 90
       69
 70
     0
 43
0.0
 10
-2.804526033546464
 20
0.4179754020835896
 10
-2.81037672523448
 20
0.4492972072682397
 10
-2.81585722486743
 20
0.4807138036360695
 10
-2.822078108610512
 20
0.51194081763754
 10
-2.830149952628923
 20
0.5426938757231119
 10
-2.830149952628923
 20
0.5426938757231118
 10
-2.841338911660197
 20
0.5758062481503911
 10
-2.854184410006489
 20
0.6083525388931598
 10
-2.868450573578517
 20
0.6403204454313521
 10
-2.883901528287001
 20
0.6716976652449019
 10
-2.883901528287001
 20
0.6716976652449019
 10
-2.890513508110709
 20
0.6850092698341359
 10
-2.897108193052498
 20
0.6984727252937109
 10
-2.90404419527188
 20
0.7117432726218198
 10
-2.911680126928363
 20
0.7244761528166557
 10
-2.920374600181457
 20
0.7363266068764113
 10
-2.93048622719067
 20
0.7469498757992796
 10
-2.93048622719067
 20
0.7469498757992794
 10
-2.949103209829585
 20
0.7618173421630195
 10
-2.969242237037759
 20
0.7745805964730107
 10
-2.990566811598499
 20
0.7856275438674817
 10
-3.012740436295114
 20
0.7953460894846617
 10
-3.035426613910912
 20
0.8041241384627792
 10
-3.058288847229201
 20
0.8123495959400633
 10
-3.08099063903329
 20
0.820410367054743
 10
-3.08099063903329
 20
0.820410367054743
 10
-3.124400147444391
 20
0.8347668505588536
 10
-3.168492275113829
 20
0.8470389467110289
 10
-3.213096966516389
 20
0.85750795900789
 10
-3.258044166126856
 20
0.8664551909460584
 10
-3.303163818420015
 20
0.8741619460221558
 10
-3.303163818420015
 20
0.8741619460221558
 10
-3.366890373715228
 20
0.8832111467234549
 10
-3.430923095733442
 20
0.8901866652010914
 10
-3.495164313580037
 20
0.8951459903465577
 10
-3.559516356360391
 20
0.898146611051346
 10
-3.623881553179885
 20
0.8992460162069484
 10
-3.623881553179885
 20
0.8992460162069482
 10
-3.70762062127939
 20
0.8981400785310114
 10
-3.791338657898924
 20
0.8944475816370369
 10
-3.874934217563147
 20
0.8882621307728776
 10
-3.958305854796718
 20
0.8796773311863859
 10
-4.041352124124296
 20
0.8687867881254145
 10
-4.041352124124296
 20
0.8687867881254145
 10
-4.122825785901323
 20
0.8556686859556371
 10
-4.203916957938941
 20
0.8402490727404609
 10
-4.284658618054735
 20
0.8229039404830727
 10
-4.365083744066287
 20
0.8040092811866589
 10
-4.445225313791182
 20
0.7839410868544069
 10
-4.525116305047002
 20
0.7630753494895031
 10
-4.525116305047003
 20
0.763075349489503
 10
-4.635326490881227
 20
0.7327358819338473
 10
-4.745007166540024
 20
0.7005278067058626
 10
-4.854257350882941
 20
0.6668196365589001
 10
-4.963176062769525
 20
0.6319798842463113
 10
-5.071862321059322
 20
0.5963770625214473
 10
-5.180415144611878
 20
0.5603796841376596
 10
-5.28893355228674
 20
0.5243562618482997
 10
-5.288933552286741
 20
0.5243562618482995
 10
-5.421301356240052
 20
0.4791619207519663
 10
-5.553134644004317
 20
0.4323977600784973
 10
-5.684912673270533
 20
0.3854679904622131
 10
-5.817114701729695
 20
0.3397768225374345
 10
-5.817114701729695
 20
0.3397768225374345
 10
-5.913499339241148
 20
0.3080414614050312
 10
-6.010130884042362
 20
0.2770543612230901
 10
-6.106762428843574
 20
0.2460672610411491
 10
-6.106762428843575
 20
0.2460672610411491
 10
-6.32602037481601
 20
0.1716618004586161
210
0.0
220
0.0
230
-1.0
  0
LWPOLYLINE
  5
89
330
70
100
AcDbEntity
  8
Vector Layer 1
 62
    18
420
        0
370
    30
100
AcDbPolyline
 90
       28
 70
     0
 43
0.0
 10
-2.851097728280709
 20
0.3281625002292942
 10
-2.902589911118413
 20
0.3315063105353049
 10
-2.954069835332135
 20
0.3353607989462088
 10
-3.005555888857848
 20
0.3389599483046661
 10
-3.057066459631524
 20
0.3415377414533367
 10
-3.108619935589135
 20
0.3423281612348805
 10
-3.108619935589135
 20
0.3423281612348806
 10
-3.202031072492064
 20
0.3404327580217015
 10
-3.29537511745661
 20
0.336325912311634
 10
-3.38865542167086
 20
0.330427685914469
 10
-3.481875336322902
 20
0.3231581406399968
 10
-3.575038212600824
 20
0.314937338298008
 10
-3.668147401692712
 20
0.3061853406982933
 10
-3.761206254786655
 20
0.2973222096506433
 10
-3.761206254786656
 20
0.2973222096506433
 10
-3.939882847719722
 20
0.2791383682829806
 10
-4.118322203955171
 20
0.2587603485081429
 10
-4.296594298416102
 20
0.2368289558675965
 10
-4.474769106025618
 20
0.2139849959028071
 10
-4.652916601706822
 20
0.1908692741552409
 10
-4.831106760382815
 20
0.1681225961663638
 10
-5.0094095569767
 20
0.1463857674776419
 10
-5.187894966411577
 20
0.1262995936305412
 10
-5.187894966411579
 20
0.1262995936305412
 10
-5.42513454640864
 20
0.1023520144909594
 10
-5.662594781056445
 20
0.0803264467661541
 10
-5.900190686494876
 20
0.059089995434564
 10
-6.137837278863815
 20
0.0375097654746278
210
0.0
220
0.0
230
-1.0
  0
LWPOLYLINE
  5
8A
330
70
100
AcDbEntity
  8
Vector Layer 1
 62
    18
420
        0
370
    30
100
AcDbPolyline
 90
       51
 70
     0
 43
0.0
 10
-2.865875341657497
 20
0.4610877941728599
 10
-2.904282726735321
 20
0.4781254510599053
 10
-2.942477799942454
 20
0.4957305994801033
 10
-2.980779029084932
 20
0.5130520021337249
 10
-3.019504881968796
 20
0.5292384217210412
 10
-3.058973826400082
 20
0.5434386209423231
 10
-3.058973826400082
 20
0.5434386209423231
 10
-3.118081407930164
 20
0.5613350662265633
 10
-3.177862946109684
 20
0.5770546876231581
 10
-3.238191339675214
 20
0.5906413272137263
 10
-3.298939487363324
 20
0.6021388270798866
 10
-3.359980287910585
 20
0.6115910293032579
 10
-3.359980287910584
 20
0.6115910293032576
 10
-3.436244544301532
 20
0.6207416295826695
 10
-3.512844172065741
 20
0.6272343833363438
 10
-3.589647400223078
 20
0.6311396155275059
 10
-3.666522457793409
 20
0.6325276511193817
 10
-3.743337573796599
 20
0.6314688150751968
 10
-3.743337573796599
 20
0.6314688150751968
 10
-3.820399043538316
 20
0.6278993221807166
 10
-3.897343951386526
 20
0.6219368066490563
 10
-3.974142714992006
 20
0.61389116801291
 10
-4.050765752005531
 20
0.6040723058049719
 10
-4.127183480077877
 20
0.5927901195579359
 10
-4.20336631685982
 20
0.580354508804496
 10
-4.20336631685982
 20
0.580354508804496
 10
-4.290699611769166
 20
0.5640791952583064
 10
-4.37756872279359
 20
0.5454498473077276
 10
-4.464104904306253
 20
0.5251512490883262
 10
-4.550439410680318
 20
0.5038681847356698
 10
-4.636703496288949
 20
0.4822854383853253
 10
-4.723028415505307
 20
0.4610877941728598
 10
-4.723028415505308
 20
0.4610877941728599
 10
-4.881283972559649
 20
0.4220633284609619
 10
-5.039269774561977
 20
0.3819422040010931
 10
-5.197255576564304
 20
0.3418210795412243
 10
-5.197255576564305
 20
0.3418210795412243
 10
-5.294261065040971
 20
0.3163694986422318
 10
-5.391154862903178
 20
0.2904555532432564
 10
-5.488104506072614
 20
0.2647727900942725
 10
-5.585277530470968
 20
0.2400147559452546
 10
-5.682841472019926
 20
0.216874997546177
 10
-5.682841472019926
 20
0.216874997546177
 10
-5.795191196829849
 20
0.1922387475944852
 10
-5.907891084159308
 20
0.1691863292888574
 10
-6.020943588485513
 20
0.1479706965786709
 10
-6.134351164285677
 20
0.1288448034133031
 10
-6.134351164285678
 20
0.128844803413303
 10
-6.167589132522768
 20
0.1242469727890948
 10
-6.200937219800936
 20
0.1204338193550416
 10
-6.234285307079105
 20
0.1166206659209883
210
0.0
220
0.0
230
-1.0
  0
LWPOLYLINE
  5
8B
330
70
100
AcDbEntity
  8
Vector Layer 1
 62
    18
420
        0
370
    30
100
AcDbPolyline
 90
       52
 70
     0
 43
0.0
 10
-3.198993221734763
 20
1.138084589900002
 10
-3.248684886357124
 20
1.143366207204888
 10
-3.298343314338869
 20
1.149196574979521
 10
-3.348018360640921
 20
1.15475256751928
 10
-3.397759880224208
 20
1.159211059119546
 10
-3.447617728049656
 20
1.161748924075697
 10
-3.447617728049656
 20
1.161748924075697
 10
-3.516940521874588
 20
1.163228409893612
 10
-3.586354645987565
 20
1.163898886972568
 10
-3.655799362945205
 20
1.163530927169204
 10
-3.725213935304128
 20
1.161895102340161
 10
-3.794537625620951
 20
1.158761984342079
 10
-3.863709696452294
 20
1.153902145031599
 10
-3.932669410354775
 20
1.14708615626536
 10
-4.001356029885013
 20
1.138084589900002
 10
-4.001356029885013
 20
1.138084589900002
 10
-4.082323097510416
 20
1.12458296103196
 10
-4.162815602538352
 20
1.108411242560059
 10
-4.242862836717692
 20
1.08990909075279
 10
-4.322494091797304
 20
1.069416161878646
 10
-4.40173865952606
 20
1.047272112206116
 10
-4.480625831652828
 20
1.023816598003692
 10
-4.559184899926479
 20
0.9993892755398658
 10
-4.637445156095882
 20
0.9743298010831274
 10
-4.637445156095883
 20
0.9743298010831271
 10
-4.719562914508624
 20
0.9465484795006544
 10
-4.80100016417212
 20
0.9168247062565402
 10
-4.881887288259998
 20
0.8855517787450343
 10
-4.962354669945885
 20
0.8531229943603866
 10
-5.042532692403407
 20
0.8199316504968468
 10
-5.12255173880619
 20
0.7863710445486644
 10
-5.202542192327861
 20
0.7528344739100891
 10
-5.202542192327862
 20
0.7528344739100891
 10
-5.307611561108839
 20
0.7087211261935873
 10
-5.413587858190174
 20
0.6635048746075522
 10
-5.519882664762078
 20
0.6171433418369383
 10
-5.625907562014763
 20
0.5695941505667001
 10
-5.731074131138442
 20
0.5208149234817923
 10
-5.834793953323328
 20
0.4707632832671694
 10
-5.936478609759631
 20
0.419396852607786
 10
-5.936478609759629
 20
0.4193968526077859
 10
-5.9835700228121
 20
0.3955577206014325
 10
-6.028812190466386
 20
0.3736624223843799
 10
-6.072522719802704
 20
0.3533712746781882
 10
-6.115019217901275
 20
0.3343445942044172
 10
-6.156619291842319
 20
0.3162426976846269
 10
-6.197640548706052
 20
0.2987259018403774
 10
-6.238400595572696
 20
0.2814545233932286
 10
-6.279217039522469
 20
0.2640888790647404
 10
-6.32040748763559
 20
0.2462892855764729
 10
-6.362289546992279
 20
0.2277160596499861
 10
-6.405180824672755
 20
0.20802951800684
210
0.0
220
0.0
230
-1.0
  0
LWPOLYLINE
  5
8C
330
70
100
AcDbEntity
  8
Vector Layer 1
 62
    18
420
        0
370
    30
100
AcDbPolyline
 90
       58
 70
     0
 43
0.0
 10
-3.183919904762932
 20
1.273237327140666
 10
-3.235457849215447
 20
1.288048100402912
 10
-3.286851496615845
 20
1.303471228518877
 10
-3.338317292542302
 20
1.318588179207982
 10
-3.390071682572994
 20
1.332480420189651
 10
-3.442331112286098
 20
1.344229419183306
 10
-3.442331112286098
 20
1.344229419183306
 10
-3.491756735523231
 20
1.353740135918605
 10
-3.541382591549833
 20
1.362615893138876
 10
-3.5911828755504
 20
1.370552530498234
 10
-3.641131782709429
 20
1.377245887650798
 10
-3.691203508211416
 20
1.382391804250684
 10
-3.741372247240856
 20
1.385686119952009
 10
-3.791612194982247
 20
1.38682467440889
 10
-3.791612194982246
 20
1.38682467440889
 10
-3.864380174403137
 20
1.385299474153366
 10
-3.937108453681319
 20
1.380974885413531
 10
-4.009709076465373
 20
1.374050637302575
 10
-4.082094086403882
 20
1.364726458933689
 10
-4.154175527145429
 20
1.353202079420065
 10
-4.225865442338593
 20
1.339677227874894
 10
-4.297075875631959
 20
1.324351633411367
 10
-4.297075875631957
 20
1.324351633411367
 10
-4.365083920898566
 20
1.307639611862883
 10
-4.432546600585181
 20
1.28879048154305
 10
-4.499503677319463
 20
1.268065584345408
 10
-4.565994913729075
 20
1.245726262163495
 10
-4.632060072441679
 20
1.222033856890851
 10
-4.697738916084937
 20
1.197249710421013
 10
-4.763071207286513
 20
1.171635164647521
 10
-4.828096708674068
 20
1.145451561463913
 10
-4.828096708674068
 20
1.145451561463913
 10
-4.920512778630598
 20
1.106424437289958
 10
-5.011980170754513
 20
1.065215066311864
 10
-5.102677718971553
 20
1.022256902762834
 10
-5.19278425720746
 20
0.9779834008760708
 10
-5.282478619387974
 20
0.9328280148847774
 10
-5.371939639438835
 20
0.8872241990221569
 10
-5.461346151285784
 20
0.8416054075214123
 10
-5.461346151285782
 20
0.8416054075214123
 10
-5.560630721224359
 20
0.7900041928394411
 10
-5.659117648780775
 20
0.736878221090332
 10
-5.756965559732607
 20
0.6825892017728154
 10
-5.756965559732607
 20
0.6825892017728155
 10
-5.839283775216238
 20
0.6352675203338734
 10
-5.920993720404189
 20
0.5868845808505359
 10
-6.002660738134919
 20
0.5384254605823953
 10
-6.084850171246889
 20
0.490875236789044
 10
-6.084850171246888
 20
0.4908752367890442
 10
-6.145712237983479
 20
0.4563471249528103
 10
-6.206718096169537
 20
0.4220590703459503
 10
-6.26815637410391
 20
0.3885843621060043
 10
-6.330315700085446
 20
0.3564962893705126
 10
-6.330315700085446
 20
0.3564962893705126
 10
-6.389472630447449
 20
0.3282521546216385
 10
-6.449307001036347
 20
0.3014357505753447
 10
-6.509412347716001
 20
0.2751904388100831
 10
-6.569382206350278
 20
0.2486595809043053
210
0.0
220
0.0
230
-1.0
  0
LWPOLYLINE
  5
8D
330
70
100
AcDbEntity
  8
Vector Layer 1
 62
    18
420
        0
370
    30
100
AcDbPolyline
 90
       78
 70
     0
 43
0.0
 10
-3.149395793504759
 20
1.234238731373187
 10
-3.153091449781119
 20
1.253359901540984
 10
-3.156115831900763
 20
1.272711823495239
 10
-3.159140214020406
 20
1.292063745449495
 10
-3.162835870296766
 20
1.311184915617291
 10
-3.16787407488656
 20
1.329844582212168
 10
-3.174926101946505
 20
1.347811993447668
 10
-3.174926101946504
 20
1.347811993447668
 10
-3.185393853461554
 20
1.368591528473003
 10
-3.197066328458222
 20
1.388939591458464
 10
-3.209966826143683
 20
1.408610180499388
 10
-3.224118645725112
 20
1.427357293691109
 10
-3.239545086409683
 20
1.444934929128965
 10
-3.256269447404572
 20
1.46109708490829
 10
-3.274315027916953
 20
1.475597759124421
 10
-3.274315027916953
 20
1.47559775912442
 10
-3.301419259511183
 20
1.49344955541026
 10
-3.329924540532259
 20
1.508955288564679
 10
-3.359605554854032
 20
1.522390923290275
 10
-3.390236986350356
 20
1.534032424289647
 10
-3.421593518895082
 20
1.544155756265395
 10
-3.453449836362062
 20
1.553036883920117
 10
-3.485580622625149
 20
1.560951771956412
 10
-3.517760561558195
 20
1.568176385076879
 10
-3.549764337035052
 20
1.574986687984117
 10
-3.549764337035053
 20
1.574986687984117
 10
-3.61415176360428
 20
1.587028711746659
 10
-3.679089279885517
 20
1.596307783788785
 10
-3.744431891293829
 20
1.602965742404487
 10
-3.810034603244281
 20
1.607144425887756
 10
-3.875752421151936
 20
1.608985672532584
 10
-3.94144035043186
 20
1.608631320632961
 10
-4.006953396499117
 20
1.606223208482879
 10
-4.006953396499117
 20
1.606223208482879
 10
-4.07740593853074
 20
1.601304466820337
 10
-4.147699436837563
 20
1.593977941549867
 10
-4.21778765701737
 20
1.584426108191903
 10
-4.287624364667945
 20
1.57283144226688
 10
-4.357163325387074
 20
1.559376419295232
 10
-4.426358304772541
 20
1.544243514797394
 10
-4.495163068422131
 20
1.527615204293801
 10
-4.563531381933629
 20
1.509673963304888
 10
-4.563531381933629
 20
1.509673963304888
 10
-4.635928923748956
 20
1.488704174715815
 10
-4.707682482894104
 20
1.465406058538822
 10
-4.778711426640819
 20
1.439865682732796
 10
-4.848935122260846
 20
1.412169115256622
 10
-4.918272937025933
 20
1.382402424069186
 10
-4.986644238207824
 20
1.350651677129373
 10
-4.986644238207825
 20
1.350651677129373
 10
-5.058285559203443
 20
1.314594017424695
 10
-5.12877952377331
 20
1.27634633105493
 10
-5.198302811028003
 20
1.236272523684044
 10
-5.267032100078099
 20
1.194736500976
 10
-5.335144070034172
 20
1.152102168594762
 10
-5.402815400006801
 20
1.108733432204293
 10
-5.47022276910656
 20
1.064994197468559
 10
-5.537542856444026
 20
1.021248370051522
 10
-5.537542856444025
 20
1.021248370051522
 10
-5.627969403304241
 20
0.9612366081970684
 10
-5.717304015599389
 20
0.899604250026347
 10
-5.805910671517825
 20
0.8368914943114475
 10
-5.894153349247904
 20
0.7736385398244588
 10
-5.982396026977983
 20
0.71038558533747
 10
-6.071002682896418
 20
0.6476728296225704
 10
-6.071002682896417
 20
0.6476728296225705
 10
-6.132009765300491
 20
0.6058955658453586
 10
-6.192691457318129
 20
0.5636096847914525
 10
-6.253373149335766
 20
0.5213238037375464
 10
-6.31438023173984
 20
0.4795465399603345
 10
-6.376038094916785
 20
0.4387865107365113
 10
-6.438672129253038
 20
0.3995523333427713
 10
-6.438672129253037
 20
0.3995523333427712
 10
-6.490485544381589
 20
0.3694029713004527
 10
-6.543116793901775
 20
0.3406815587446527
 10
-6.596215377360039
 20
0.312776117324006
 10
-6.649430794302821
 20
0.2850746686871476
 10
-6.702412544276564
 20
0.2569652344827126
210
0.0
220
0.0
230
-1.0
  0
LWPOLYLINE
  5
8E
330
70
100
AcDbEntity
  8
Vector Layer 1
 62
    18
420
        0
370
    30
100
AcDbPolyline
 90
       55
 70
     0
 43
0.0
 10
-4.450706552769218
 20
1.791648704557056
 10
-4.477722727522575
 20
1.787537332282435
 10
-4.504829135246994
 20
1.783839301779679
 10
-4.531890426485881
 20
1.77993460039099
 10
-4.558771251782646
 20
1.77520321545857
 10
-4.585336261680695
 20
1.769025134324618
 10
-4.585336261680696
 20
1.769025134324618
 10
-4.656700279327097
 20
1.748316660368432
 10
-4.727327189287583
 20
1.725054957534982
 10
-4.7972183126451
 20
1.699510525871543
 10
-4.866374970482594
 20
1.671953865425389
 10
-4.934798483883009
 20
1.642655476243795
 10
-5.00249017392929
 20
1.611885858374036
 10
-5.002490173929292
 20
1.611885858374036
 10
-5.072953667381216
 20
1.5777937849403
 10
-5.142445365075281
 20
1.541625569328758
 10
-5.210785791505504
 20
1.503309944740272
 10
-5.277795471165899
 20
1.462775644375702
 10
-5.343294928550482
 20
1.41995140143591
 10
-5.343294928550481
 20
1.41995140143591
 10
-5.402675495176648
 20
1.378096617159187
 10
-5.460773005228865
 20
1.334486788796448
 10
-5.51780872198083
 20
1.289437279092019
 10
-5.574003908706238
 20
1.243263450790224
 10
-5.629579828678786
 20
1.196280666635389
 10
-5.68475774517217
 20
1.148804289371837
 10
-5.739758921460087
 20
1.101149681743895
 10
-5.794804620816233
 20
1.053632206495886
 10
-5.794804620816233
 20
1.053632206495886
 10
-5.851231435106228
 20
1.003958438095112
 10
-5.906764091284328
 20
0.9532738683228066
 10
-5.961912239589155
 20
0.902152997983708
 10
-6.017185530259334
 20
0.8511703278825548
 10
-6.073093613533488
 20
0.8009003588240863
 10
-6.073093613533488
 20
0.8009003588240863
 10
-6.124733554656197
 20
0.7548635032473982
 10
-6.176189936581715
 20
0.7085603630340592
 10
-6.227868690346437
 20
0.6625132108464622
 10
-6.280175746986757
 20
0.6172443193470003
 10
-6.33351703753907
 20
0.5732759611980664
 10
-6.388298493039768
 20
0.5311304090620532
 10
-6.388298493039768
 20
0.531130409062053
 10
-6.429390259746898
 20
0.5010126977745289
 10
-6.470893457227957
 20
0.4713025634858756
 10
-6.512943058291748
 20
0.4423430363492964
 10
-6.555674035747072
 20
0.4144771465179939
 10
-6.599221362402732
 20
0.3880479241451712
 10
-6.64372001106753
 20
0.3633983993840312
 10
-6.689304954550268
 20
0.3408716023877768
 10
-6.68930495455027
 20
0.3408716023877768
 10
-6.708614013461146
 20
0.3330210921389183
 10
-6.728471732486703
 20
0.3265941875362483
 10
-6.748642971577791
 20
0.3209807718742573
 10
-6.768892590685263
 20
0.3155707284474362
 10
-6.788985449759969
 20
0.3097539405502754
210
0.0
220
0.0
230
-1.0
  0
LWPOLYLINE
  5
8F
330
70
100
AcDbEntity
  8
Vector Layer 1
 62
    18
420
        0
370
    30
100
AcDbPolyline
 90
       55
 70
     0
 43
0.0
 10
-4.505683085317247
 20
1.825998802570383
 10
-4.539028220112956
 20
1.829235129677677
 10
-4.572359256579085
 20
1.832735885735363
 10
-4.605718489704374
 20
1.835707783892265
 10
-4.639148214477563
 20
1.837357537297206
 10
-4.639148214477564
 20
1.837357537297206
 10
-4.693774183828638
 20
1.838178546584749
 10
-4.748462745582896
 20
1.837949952887561
 10
-4.803099285213511
 20
1.836174981073919
 10
-4.857569188193657
 20
1.832356856012101
 10
-4.911757839996507
 20
1.825998802570383
 10
-4.911757839996508
 20
1.825998802570383
 10
-4.967287766218039
 20
1.81692798106389
 10
-5.02250346038727
 20
1.805692046773168
 10
-5.077215153997628
 20
1.792176282399599
 10
-5.131233078542546
 20
1.776265970644566
 10
-5.184367465515453
 20
1.757846394209449
 10
-5.184367465515453
 20
1.757846394209449
 10
-5.242378669647576
 20
1.734506040949683
 10
-5.299316310523582
 20
1.708445652922257
 10
-5.355077248605254
 20
1.679857023116187
 10
-5.409558344354369
 20
1.648931944520485
 10
-5.462656458232707
 20
1.615862210124168
 10
-5.462656458232708
 20
1.615862210124168
 10
-5.513437864779694
 20
1.581073393544958
 10
-5.562719363532853
 20
1.544138209926969
 10
-5.610731865549195
 20
1.505460376428055
 10
-5.657706281885731
 20
1.46544361020607
 10
-5.703873523599474
 20
1.424491628418869
 10
-5.749464501747434
 20
1.383008148224307
 10
-5.749464501747432
 20
1.383008148224307
 10
-5.79236778728563
 20
1.342186828132526
 10
-5.83402700401151
 20
1.300088274744406
 10
-5.874856841529179
 20
1.257138232492061
 10
-5.915271989442742
 20
1.213762445807604
 10
-5.955687137356306
 20
1.170386659123147
 10
-5.996516974873975
 20
1.127436616870802
 10
-5.996516974873975
 20
1.127436616870802
 10
-6.04389997038578
 20
1.076375731709218
 10
-6.090780951808807
 20
1.024811015142232
 10
-6.137661933231834
 20
0.9732462985752466
 10
-6.185044928743639
 20
0.9221854134136622
 10
-6.233431952433002
 20
0.8721321910628802
 10
-6.283325018388699
 20
0.8235904629283018
 10
-6.283325018388699
 20
0.8235904629283018
 10
-6.318065995756056
 20
0.7915965516121997
 10
-6.353494349417478
 20
0.7603131934560674
 10
-6.389726189429817
 20
0.7299764674449465
 10
-6.426877625849926
 20
0.7008224525638784
 10
-6.465064768734661
 20
0.6730872277979046
 10
-6.465064768734661
 20
0.6730872277979043
 10
-6.491168371845165
 20
0.6563190252427143
 10
-6.518144993657512
 20
0.640925697414978
 10
-6.545470822950595
 20
0.6260823194782233
 10
-6.57262204850331
 20
0.6109639665959778
210
0.0
220
0.0
230
-1.0
  0
LWPOLYLINE
  5
90
330
70
100
AcDbEntity
  8
Vector Layer 1
 62
    18
420
        0
370
    30
100
AcDbPolyline
 90
       72
 70
     0
 43
0.0
 10
-4.449224330857465
 20
1.817297370209637
 10
-4.464197704676386
 20
1.83189543916426
 10
-4.478877144383456
 20
1.846856682401851
 10
-4.493703551146452
 20
1.861636338497957
 10
-4.509117826133152
 20
1.875689646028127
 10
-4.525560870511337
 20
1.888471843567907
 10
-4.525560870511337
 20
1.888471843567907
 10
-4.551627245961281
 20
1.906009663467342
 10
-4.578471163941564
 20
1.92254436708423
 10
-4.606066621536958
 20
1.937826471183211
 10
-4.634387615832234
 20
1.95160649252892
 10
-4.663408143912164
 20
1.963634947885996
 10
-4.69310220286152
 20
1.973662354019076
 10
-4.693102202861521
 20
1.973662354019076
 10
-4.736530387479375
 20
1.985373850888579
 10
-4.780655581090038
 20
1.994855981987602
 10
-4.825298661257314
 20
2.002077673238259
 10
-4.870280505545008
 20
2.007007850562666
 10
-4.915421991516925
 20
2.009615439882938
 10
-4.960543996736869
 20
2.009869367121192
 10
-5.005467398768645
 20
2.007738558199543
 10
-5.005467398768645
 20
2.007738558199543
 10
-5.061007816033621
 20
2.002102252828854
 10
-5.116290229694418
 20
1.993614697842309
 10
-5.171217008855838
 20
1.982478359042429
 10
-5.225690522622682
 20
1.968895702231739
 10
-5.279613140099749
 20
1.95306919321276
 10
-5.332887230391842
 20
1.935201297788015
 10
-5.385415162603761
 20
1.915494481760027
 10
-5.437099305840307
 20
1.894151210931318
 10
-5.437099305840308
 20
1.894151210931319
 10
-5.486756030826635
 20
1.871512911387643
 10
-5.535557693539251
 20
1.84676955282392
 10
-5.583335241496654
 20
1.819951329378025
 10
-5.629919622217339
 20
1.791088435187833
 10
-5.675141783219803
 20
1.760211064391218
 10
-5.718832672022543
 20
1.727349411126055
 10
-5.760823236144053
 20
1.69253366953022
 10
-5.760823236144054
 20
1.692533669530219
 10
-5.795242538383954
 20
1.660867685648308
 10
-5.828033491445592
 20
1.627539981963585
 10
-5.859417723807279
 20
1.592801651668001
 10
-5.889616863947327
 20
1.55690378795351
 10
-5.918852540344045
 20
1.520097484012064
 10
-5.947346381475745
 20
1.482633833035616
 10
-5.975320015820737
 20
1.444763928216118
 10
-6.002995071857332
 20
1.406738862745521
 10
-6.030593178063841
 20
1.36880972981578
 10
-6.030593178063843
 20
1.36880972981578
 10
-6.062429177616182
 20
1.322994860773762
 10
-6.092511067063687
 20
1.275982617951968
 10
-6.121528015025578
 20
1.228242876367301
 10
-6.150169190121073
 20
1.180245511036661
 10
-6.17912376096939
 20
1.132460396976951
 10
-6.209080896189748
 20
1.085357409205073
 10
-6.240729764401365
 20
1.039406422737928
 10
-6.240729764401364
 20
1.039406422737928
 10
-6.262640042174042
 20
1.008745384482848
 10
-6.284494663917914
 20
0.9778786230151782
 10
-6.306588896557419
 20
0.9471310400151566
 10
-6.329218007016994
 20
0.9168275371630199
 10
-6.352677262221082
 20
0.8872930161390058
 10
-6.377261929094117
 20
0.8588523786233508
 10
-6.403267274560541
 20
0.8318305262962926
 10
-6.430988565544792
 20
0.8065523608380679
 10
-6.430988565544793
 20
0.8065523608380681
 10
-6.450925217254199
 20
0.7914863413378683
 10
-6.472176076698376
 20
0.7782946581915624
 10
-6.494303074632401
 20
0.7663525326145188
 10
-6.516868141811348
 20
0.7550351858221064
 10
-6.539433208990296
 20
0.743717839029694
 10
-6.56156020692432
 20
0.7317757134526504
210
0.0
220
0.0
230
-1.0
  0
LWPOLYLINE
  5
91
330
70
100
AcDbEntity
  8
Vector Layer 1
 62
    18
420
        0
370
    30
100
AcDbPolyline
 90
       37
 70
     0
 43
0.0
 10
-2.349761984784839
 20
-0.0000942798097958
 10
-6.131166950544663
 20
0.0025246560868995
 10
-6.131166950544663
 20
0.0025246560868995
 10
-6.132423686035476
 20
-0.0066583847828091
 10
-6.133436859080004
 20
-0.0162762499942738
 10
-6.135075376919714
 20
-0.0256744147902367
 10
-6.138208146796075
 20
-0.0341983544134399
 10
-6.138208146796075
 20
-0.0341983544134399
 10
-6.145785083840255
 20
-0.0458817629851159
 10
-6.15521826642062
 20
-0.0568043695892744
 10
-6.165691074197637
 20
-0.0668761428310529
 10
-6.176386886831774
 20
-0.0760070513155889
 10
-6.176386886831774
 20
-0.0760070513155889
 10
-6.199072360387388
 20
-0.0932846085714155
 10
-6.2227231691651
 20
-0.1092747558847393
 10
-6.246946303326883
 20
-0.1244580283473595
 10
-6.271348753034704
 20
-0.1393149610510753
 10
-6.271348753034705
 20
-0.1393149610510753
 10
-6.30125210338766
 20
-0.1574239932630784
 10
-6.331629285730015
 20
-0.1747193406614903
 10
-6.362919124016104
 20
-0.1901873885170911
 10
-6.362919124016104
 20
-0.1901873885170912
 10
-6.396512899420929
 20
-0.204552707277404
 10
-6.430688994717256
 20
-0.2176045932817965
 10
-6.465460356081929
 20
-0.22881810997924
 10
-6.500839929691792
 20
-0.2376683208187059
 10
-6.500839929691792
 20
-0.2376683208187059
 10
-6.541382892437345
 20
-0.2449326462999008
 10
-6.582274085297098
 20
-0.250073925839919
 10
-6.623411879499971
 20
-0.2535225947996048
 10
-6.664694646274888
 20
-0.2557090885398026
 10
-6.706020756850771
 20
-0.257063842421357
 10
-6.747288582456544
 20
-0.2580172918051121
 10
-6.747288582456545
 20
-0.2580172918051122
 10
-6.782586625127866
 20
-0.2575958810075054
 10
-6.817872437553589
 20
-0.2557471592833742
 10
-6.853158249979314
 20
-0.253898437559243
210
0.0
220
0.0
230
-1.0
  0
LINE
  5
92
330
70
100
AcDbEntity
  8
Vector Layer 1
 62
    18
420
        0
370
    30
100
AcDbLine
 10
6.160828219463541
 20
0.004303693968303
 30
0.0
 11
7.285066217948466
 21
0.004303693968303
 31
0.0
  0
LWPOLYLINE
  5
93
330
70
100
AcDbEntity
  8
Vector Layer 1
 62
    18
420
        0
370
    30
100
AcDbPolyline
 90
       65
 70
     0
 43
0.0
 10
7.592744896181457
 20
-0.0420575796854232
 10
7.577865822277883
 20
-0.0552461896794352
 10
7.562806379772631
 20
-0.0682579256267808
 10
7.548107674470735
 20
-0.081623409667459
 10
7.534310812177228
 20
-0.0958732639414688
 10
7.534310812177227
 20
-0.0958732639414688
 10
7.509206192064405
 20
-0.1262372895067332
 10
7.485767769341086
 20
-0.1579401334734846
 10
7.463377888720689
 20
-0.1904760148720271
 10
7.441418894916631
 20
-0.223339152732665
 10
7.419273132642333
 20
-0.2560237660857028
 10
7.419273132642334
 20
-0.2560237660857028
 10
7.416087318132515
 20
-0.261288331956033
 10
7.413121326715067
 20
-0.2667389693751287
 10
7.409847777098461
 20
-0.2719071971188711
 10
7.405739287991168
 20
-0.276324533963141
 10
7.405739287991169
 20
-0.276324533963141
 10
7.398079640766217
 20
-0.2814504084673114
 10
7.389648714828644
 20
-0.2853143573138398
 10
7.380761895030679
 20
-0.2884198816084997
 10
7.371734566224549
 20
-0.2912704824570647
 10
7.362882113262483
 20
-0.2943696609653081
 10
7.362882113262483
 20
-0.2943696609653083
 10
7.324591663635496
 20
-0.3084742156897924
 10
7.285882817000481
 20
-0.3215265806832129
 10
7.247052738048066
 20
-0.3342574674457733
 10
7.208398591468879
 20
-0.3473975874776773
 10
7.170217541953547
 20
-0.3616776522791288
 10
7.1328067541927
 20
-0.3778283733503313
 10
7.132806754192698
 20
-0.3778283733503314
 10
7.084829593342324
 20
-0.4017557693643447
 10
7.037958700210526
 20
-0.4278941690391252
 10
6.992271198178337
 20
-0.4560673613727597
 10
6.947844210626791
 20
-0.486099135363335
 10
6.947844210626792
 20
-0.4860991353633349
 10
6.925476721638783
 20
-0.5029455469944529
 10
6.903940373826762
 20
-0.5208806713612146
 10
6.882927357050414
 20
-0.5394701547312036
 10
6.86212986116942
 20
-0.5582796433720039
 10
6.86212986116942
 20
-0.5582796433720038
 10
6.843958702453422
 20
-0.5745117010758922
 10
6.825901634525131
 20
-0.5909009984210308
 10
6.808477463911231
 20
-0.6078969248061875
 10
6.792204997138405
 20
-0.6259488696301308
 10
6.792204997138407
 20
-0.6259488696301307
 10
6.78025102930768
 20
-0.6402116050912886
 10
6.768301729372292
 20
-0.6546988814120693
 10
6.756894671713444
 20
-0.6695875361037134
 10
6.74656743071234
 20
-0.6850544066774623
 10
6.73785758075018
 20
-0.7012763306445567
 10
6.731302696208168
 20
-0.7184301455162377
 10
6.731302696208168
 20
-0.7184301455162378
 10
6.726985781702767
 20
-0.7367405697634425
 10
6.724683547022396
 20
-0.7555220625975763
 10
6.724180056649903
 20
-0.7745672974924581
 10
6.725259375068136
 20
-0.7936689479219071
 10
6.727705566759943
 20
-0.8126196873597423
 10
6.731302696208169
 20
-0.8312121892797827
 10
6.731302696208168
 20
-0.8312121892797829
 10
6.737269742617684
 20
-0.8514313240753347
 10
6.745436761044906
 20
-0.8708972039747472
 10
6.755070427483935
 20
-0.8898609139433999
 10
6.765437417928866
 20
-0.9085735389466728
 10
6.775804408373796
 20
-0.927286163949946
 10
6.785438074812825
 20
-0.9462498739185988
  0
LWPOLYLINE
  5
94
330
70
100
AcDbEntity
  8
Vector Layer 1
 62
    18
420
        0
370
    30
100
AcDbPolyline
 90
       65
 70
     0
 43
0.0
 10
-7.592744896181457
 20
0.0420575796854232
 10
-7.577865822277883
 20
0.0552461896794352
 10
-7.562806379772631
 20
0.0682579256267808
 10
-7.548107674470735
 20
0.081623409667459
 10
-7.534310812177228
 20
0.0958732639414688
 10
-7.534310812177227
 20
0.0958732639414688
 10
-7.509206192064405
 20
0.1262372895067332
 10
-7.485767769341086
 20
0.1579401334734846
 10
-7.463377888720689
 20
0.1904760148720271
 10
-7.441418894916631
 20
0.223339152732665
 10
-7.419273132642333
 20
0.2560237660857028
 10
-7.419273132642334
 20
0.2560237660857028
 10
-7.416087318132515
 20
0.261288331956033
 10
-7.413121326715067
 20
0.2667389693751287
 10
-7.409847777098461
 20
0.2719071971188711
 10
-7.405739287991168
 20
0.276324533963141
 10
-7.405739287991169
 20
0.276324533963141
 10
-7.398079640766217
 20
0.2814504084673114
 10
-7.389648714828644
 20
0.2853143573138398
 10
-7.380761895030679
 20
0.2884198816084997
 10
-7.371734566224549
 20
0.2912704824570647
 10
-7.362882113262483
 20
0.2943696609653081
 10
-7.362882113262483
 20
0.2943696609653083
 10
-7.324591663635496
 20
0.3084742156897924
 10
-7.285882817000481
 20
0.3215265806832129
 10
-7.247052738048066
 20
0.3342574674457733
 10
-7.208398591468879
 20
0.3473975874776773
 10
-7.170217541953547
 20
0.3616776522791288
 10
-7.1328067541927
 20
0.3778283733503313
 10
-7.132806754192698
 20
0.3778283733503314
 10
-7.084829593342324
 20
0.4017557693643447
 10
-7.037958700210526
 20
0.4278941690391252
 10
-6.992271198178337
 20
0.4560673613727597
 10
-6.947844210626791
 20
0.486099135363335
 10
-6.947844210626792
 20
0.4860991353633349
 10
-6.925476721638783
 20
0.5029455469944529
 10
-6.903940373826762
 20
0.5208806713612146
 10
-6.882927357050414
 20
0.5394701547312036
 10
-6.86212986116942
 20
0.5582796433720039
 10
-6.86212986116942
 20
0.5582796433720038
 10
-6.843958702453422
 20
0.5745117010758922
 10
-6.825901634525131
 20
0.5909009984210308
 10
-6.808477463911231
 20
0.6078969248061875
 10
-6.792204997138405
 20
0.6259488696301308
 10
-6.792204997138407
 20
0.6259488696301307
 10
-6.78025102930768
 20
0.6402116050912886
 10
-6.768301729372292
 20
0.6546988814120693
 10
-6.756894671713444
 20
0.6695875361037134
 10
-6.74656743071234
 20
0.6850544066774623
 10
-6.73785758075018
 20
0.7012763306445567
 10
-6.731302696208168
 20
0.7184301455162377
 10
-6.731302696208168
 20
0.7184301455162378
 10
-6.726985781702767
 20
0.7367405697634425
 10
-6.724683547022396
 20
0.7555220625975763
 10
-6.724180056649903
 20
0.7745672974924581
 10
-6.725259375068136
 20
0.7936689479219071
 10
-6.727705566759943
 20
0.8126196873597423
 10
-6.731302696208169
 20
0.8312121892797827
 10
-6.731302696208168
 20
0.8312121892797829
 10
-6.737269742617684
 20
0.8514313240753347
 10
-6.745436761044906
 20
0.8708972039747472
 10
-6.755070427483935
 20
0.8898609139433999
 10
-6.765437417928866
 20
0.9085735389466728
 10
-6.775804408373796
 20
0.927286163949946
 10
-6.785438074812825
 20
0.9462498739185988
210
0.0
220
0.0
230
-1.0
  0
LWPOLYLINE
  5
95
330
70
100
AcDbEntity
  8
Vector Layer 1
 62
    18
420
        0
370
    30
100
AcDbPolyline
 90
       20
 70
     0
 43
0.0
 10
-7.41089097603272
 20
0.5702305718397364
 10
-7.416651475492107
 20
0.5666782703004986
 10
-7.420876366744622
 20
0.5639895294327007
 10
-7.423842049515129
 20
0.5620320642685354
 10
-7.425824923528491
 20
0.5606735898401956
 10
-7.427101388509571
 20
0.5597818211798741
 10
-7.427101388509573
 20
0.5597818211798743
 10
-7.446469351736272
 20
0.5458882691195709
 10
-7.465548955402868
 20
0.5309666252026083
 10
-7.484137490832424
 20
0.5147966127360636
 10
-7.484137490832424
 20
0.5147966127360636
 10
-7.495660703252167
 20
0.5042939720150185
 10
-7.507076032333571
 20
0.4936399464186219
 10
-7.517925687516912
 20
0.4824819093023042
 10
-7.527751878242471
 20
0.4704672340214956
 10
-7.527751878242471
 20
0.4704672340214956
 10
-7.53052837152372
 20
0.4662940195366158
 10
-7.532206251630312
 20
0.4630337602888103
 10
-7.533692121483836
 20
0.4596540114849729
 10
-7.53589258400588
 20
0.4551223283319978
210
0.0
220
0.0
230
-1.0
  0
LWPOLYLINE
  5
96
330
70
100
AcDbEntity
  8
Vector Layer 1
 62
    18
420
        0
370
    30
100
AcDbPolyline
 90
       16
 70
     0
 43
0.0
 10
7.393836110206861
 20
-0.582841825668102
 10
7.41058830434525
 20
-0.573075501280384
 10
7.426938294229083
 20
-0.5627009413469681
 10
7.426938294229085
 20
-0.562700941346968
 10
7.446690299585354
 20
-0.5475902562345904
 10
7.46567755091413
 20
-0.5314932720748854
 10
7.484137490832424
 20
-0.5147966127360635
 10
7.484137490832424
 20
-0.5147966127360636
 10
7.495660703252167
 20
-0.5042939720150185
 10
7.507076032333571
 20
-0.4936399464186219
 10
7.517925687516912
 20
-0.4824819093023042
 10
7.527751878242471
 20
-0.4704672340214956
 10
7.527751878242471
 20
-0.4704672340214956
 10
7.532285000816323
 20
-0.462960214381315
 10
7.536362312312968
 20
-0.454581609254226
 10
7.540212731764799
 20
-0.4466497378592657
  0
LWPOLYLINE
  5
97
330
70
100
AcDbEntity
  8
Vector Layer 1
 62
    18
420
        0
370
    30
100
AcDbPolyline
 90
       63
 70
     0
 43
0.0
 10
-7.687627050536618
 20
0.3727854974691913
 10
-7.677036911932613
 20
0.3946461661697524
 10
-7.666446773328607
 20
0.4165068348703133
 10
-7.657012714269595
 20
0.4388497925604748
 10
-7.657012714269596
 20
0.4388497925604748
 10
-7.644190652182002
 20
0.4766488447683881
 10
-7.633090844479329
 20
0.5150206462514725
 10
-7.622951632863313
 20
0.5536959561834617
 10
-7.613011359035689
 20
0.5924055337380896
 10
-7.613011359035689
 20
0.5924055337380896
 10
-7.595271980136174
 20
0.6648089389691878
 10
-7.578836616398295
 20
0.7375371161742138
 10
-7.562344857903815
 20
0.8102504648204927
 10
-7.544436294734497
 20
0.8826093843753501
 10
-7.544436294734496
 20
0.8826093843753501
 10
-7.535270330196921
 20
0.9185956301916442
 10
-7.526360734727605
 20
0.9547150943873855
 10
-7.517133951845916
 20
0.9907460883508568
 10
-7.507016425071223
 20
1.02646692347034
 10
-7.495434597922897
 20
1.061655911134119
 10
-7.481814913920305
 20
1.096091362730475
 10
-7.481814913920303
 20
1.096091362730476
 10
-7.46702291275618
 20
1.127214818948267
 10
-7.450449880508998
 20
1.157477082182383
 10
-7.432448927001876
 20
1.186979034473559
 10
-7.413373162057939
 20
1.215821557862529
 10
-7.393575695500307
 20
1.24410553439003
 10
-7.393575695500305
 20
1.24410553439003
 10
-7.36874948374414
 20
1.276832996017052
 10
-7.342462137487095
 20
1.308415827128054
 10
-7.315278140225965
 20
1.339299813483034
 10
-7.287761975457539
 20
1.369930740841993
 10
-7.260478126678609
 20
1.400754394964929
 10
-7.233991077385967
 20
1.432216561611842
 10
-7.233991077385968
 20
1.432216561611842
 10
-7.183630807869744
 20
1.494342550060886
 10
-7.133733053860347
 20
1.556858056401391
 10
-7.084979769528326
 20
1.620235777265071
 10
-7.038052909044225
 20
1.684948409283641
 10
-7.038052909044226
 20
1.684948409283641
 10
-7.015445667361491
 20
1.717456863089904
 10
-6.993210618744179
 20
1.750267405609245
 10
-6.971772361651359
 20
1.783577854947519
 10
-6.951555494542098
 20
1.817586029210577
 10
-6.932984615875468
 20
1.852489746504273
 10
-6.932984615875467
 20
1.852489746504273
 10
-6.917623147605652
 20
1.884295498107759
 10
-6.903220321533375
 20
1.916638177532071
 10
-6.890250925677863
 20
1.949548146508534
 10
-6.879189748058342
 20
1.983055766768468
 10
-6.87051157669404
 20
2.017191400043198
 10
-6.87051157669404
 20
2.017191400043198
 10
-6.865229275581136
 20
2.046908308790368
 10
-6.861849555944644
 20
2.076975034288961
 10
-6.860259081784857
 20
2.107233628927009
 10
-6.860344517102069
 20
2.137526145092544
 10
-6.861992525896575
 20
2.167694635173596
 10
-6.861992525896575
 20
2.167694635173596
 10
-6.864368184731888
 20
2.18610612985039
 10
-6.868143754495267
 20
2.204309795302541
 10
-6.8727192733604
 20
2.222394701197752
 10
-6.877494779500969
 20
2.24044991720373
 10
-6.881870311090664
 20
2.258564512988177
210
0.0
220
0.0
230
-1.0
  0
LWPOLYLINE
  5
98
330
70
100
AcDbEntity
  8
Vector Layer 1
 62
    18
420
        0
370
    30
100
AcDbPolyline
 90
       63
 70
     0
 43
0.0
 10
7.687627050536618
 20
-0.3727854974691913
 10
7.677036911932613
 20
-0.3946461661697524
 10
7.666446773328607
 20
-0.4165068348703133
 10
7.657012714269595
 20
-0.4388497925604748
 10
7.657012714269596
 20
-0.4388497925604748
 10
7.644190652182002
 20
-0.4766488447683881
 10
7.633090844479329
 20
-0.5150206462514725
 10
7.622951632863313
 20
-0.5536959561834617
 10
7.613011359035689
 20
-0.5924055337380896
 10
7.613011359035689
 20
-0.5924055337380896
 10
7.595271980136174
 20
-0.6648089389691878
 10
7.578836616398295
 20
-0.7375371161742138
 10
7.562344857903815
 20
-0.8102504648204927
 10
7.544436294734497
 20
-0.8826093843753501
 10
7.544436294734496
 20
-0.8826093843753501
 10
7.535270330196921
 20
-0.9185956301916442
 10
7.526360734727605
 20
-0.9547150943873855
 10
7.517133951845916
 20
-0.9907460883508568
 10
7.507016425071223
 20
-1.02646692347034
 10
7.495434597922897
 20
-1.061655911134119
 10
7.481814913920305
 20
-1.096091362730475
 10
7.481814913920303
 20
-1.096091362730476
 10
7.46702291275618
 20
-1.127214818948267
 10
7.450449880508998
 20
-1.157477082182383
 10
7.432448927001876
 20
-1.186979034473559
 10
7.413373162057939
 20
-1.215821557862529
 10
7.393575695500307
 20
-1.24410553439003
 10
7.393575695500305
 20
-1.24410553439003
 10
7.36874948374414
 20
-1.276832996017052
 10
7.342462137487095
 20
-1.308415827128054
 10
7.315278140225965
 20
-1.339299813483034
 10
7.287761975457539
 20
-1.369930740841993
 10
7.260478126678609
 20
-1.400754394964929
 10
7.233991077385967
 20
-1.432216561611842
 10
7.233991077385968
 20
-1.432216561611842
 10
7.183630807869744
 20
-1.494342550060886
 10
7.133733053860347
 20
-1.556858056401391
 10
7.084979769528326
 20
-1.620235777265071
 10
7.038052909044225
 20
-1.684948409283641
 10
7.038052909044226
 20
-1.684948409283641
 10
7.015445667361491
 20
-1.717456863089904
 10
6.993210618744179
 20
-1.750267405609245
 10
6.971772361651359
 20
-1.783577854947519
 10
6.951555494542098
 20
-1.817586029210577
 10
6.932984615875468
 20
-1.852489746504273
 10
6.932984615875467
 20
-1.852489746504273
 10
6.917623147605652
 20
-1.884295498107759
 10
6.903220321533375
 20
-1.916638177532071
 10
6.890250925677863
 20
-1.949548146508534
 10
6.879189748058342
 20
-1.983055766768468
 10
6.87051157669404
 20
-2.017191400043198
 10
6.87051157669404
 20
-2.017191400043198
 10
6.865229275581136
 20
-2.046908308790368
 10
6.861849555944644
 20
-2.076975034288961
 10
6.860259081784857
 20
-2.107233628927009
 10
6.860344517102069
 20
-2.137526145092544
 10
6.861992525896575
 20
-2.167694635173596
 10
6.861992525896575
 20
-2.167694635173596
 10
6.864368184731888
 20
-2.18610612985039
 10
6.868143754495267
 20
-2.204309795302541
 10
6.8727192733604
 20
-2.222394701197752
 10
6.877494779500969
 20
-2.24044991720373
 10
6.881870311090664
 20
-2.258564512988177
  0
LINE
  5
99
330
70
100
AcDbEntity
  8
Vector Layer 1
 62
    18
420
        0
370
    30
100
AcDbLine
 10
0.6036567570649689
 20
3.312499999999997
 30
0.0
 11
0.6036567570649689
 21
-3.312499999999998
 31
0.0
  0
LINE
  5
9A
330
70
100
AcDbEntity
  8
Vector Layer 1
 62
    18
420
        0
370
    30
100
AcDbLine
 10
0.7383547745802109
 20
3.312499999999997
 30
0.0
 11
0.7383547745802109
 21
-3.312499999999998
 31
0.0
  0
LINE
  5
9B
330
70
100
AcDbEntity
  8
Vector Layer 1
 62
    18
420
        0
370
    30
100
AcDbLine
 10
0.9448917347702472
 20
3.312499999999998
 30
0.0
 11
0.9448917347702472
 21
-3.312499999999998
 31
0.0
  0
LINE
  5
9C
330
70
100
AcDbEntity
  8
Vector Layer 1
 62
    18
420
        0
370
    30
100
AcDbLine
 10
1.187348166297681
 20
3.312499999999998
 30
0.0
 11
1.187348166297681
 21
-3.312499999999999
 31
0.0
  0
LINE
  5
9D
330
70
100
AcDbEntity
  8
Vector Layer 1
 62
    18
420
        0
370
    30
100
AcDbLine
 10
1.304086448144224
 20
3.312499999999998
 30
0.0
 11
1.304086448144224
 21
-3.312499999999999
 31
0.0
  0
LINE
  5
9E
330
70
100
AcDbEntity
  8
Vector Layer 1
 62
    18
420
        0
370
    30
100
AcDbLine
 10
1.540382576429139
 20
3.312499999999999
 30
0.0
 11
1.540382576429139
 21
-3.312499999999999
 31
0.0
  0
LINE
  5
9F
330
70
100
AcDbEntity
  8
Vector Layer 1
 62
    18
420
        0
370
    30
100
AcDbLine
 10
8.70350878265614
 20
3.312500000000001
 30
0.0
 11
8.70350878265614
 21
-3.3125
 31
0.0
  0
LINE
  5
A0
330
70
100
AcDbEntity
  8
Vector Layer 1
 62
    18
420
        0
370
    30
100
AcDbLine
 10
8.936985346349224
 20
3.312500000000001
 30
0.0
 11
8.936985346349224
 21
-3.312499999999999
 31
0.0
  0
LINE
  5
A1
330
70
100
AcDbEntity
  8
Vector Layer 1
 62
    18
420
        0
370
    30
100
AcDbLine
 10
9.038076401489249
 20
3.312500000000001
 30
0.0
 11
9.038076401489249
 21
-3.312499999999999
 31
0.0
  0
LINE
  5
A2
330
70
100
AcDbEntity
  8
Vector Layer 1
 62
    18
420
        0
370
    30
100
AcDbLine
 10
9.304528253707472
 20
3.312500000000001
 30
0.0
 11
9.304528253707472
 21
-3.3125
 31
0.0
  0
LINE
  5
A3
330
70
100
AcDbEntity
  8
Vector Layer 1
 62
    18
420
        0
370
    30
100
AcDbLine
 10
9.474103014784134
 20
3.312500000000001
 30
0.0
 11
9.474103014784134
 21
-3.312499999999999
 31
0.0
  0
LINE
  5
A4
330
70
100
AcDbEntity
  8
Vector Layer 1
 62
    18
420
        0
370
    30
100
AcDbLine
 10
9.564542887358355
 20
3.312500000000001
 30
0.0
 11
9.564542887358355
 21
-3.312499999999999
 31
0.0
  0
LINE
  5
A5
330
70
100
AcDbEntity
  8
Vector Layer 1
 62
    18
420
        0
370
    30
100
AcDbLine
 10
9.801947552865685
 20
3.312500000000001
 30
0.0
 11
9.801947552865685
 21
-3.312499999999998
 31
0.0
  0
LINE
  5
A6
330
70
100
AcDbEntity
  8
Vector Layer 1
 62
    18
420
        0
370
    30
100
AcDbLine
 10
9.892387425439904
 20
3.312500000000001
 30
0.0
 11
9.892387425439904
 21
-3.312500000000001
 31
0.0
  0
LWPOLYLINE
  5
A7
330
70
100
AcDbEntity
  8
Vector Layer 1
 62
    18
420
        0
370
    30
100
AcDbPolyline
 90
        8
 70
     0
 43
0.0
 10
-10.06195132791692
 20
3.66055033470895
 10
-10.06195132791692
 20
3.616586431713611
 10
-10.06195132791692
 20
3.616586431713611
 10
-0.061951327916924
 20
3.616586431713611
 10
-0.061951327916924
 20
3.616586431713611
 10
-0.061951327916924
 20
3.617771122842529
 10
-0.061951327916924
 20
3.617771122842529
 10
-0.061951327916924
 20
3.622346276760502
210
0.0
220
0.0
230
-1.0
  0
LWPOLYLINE
  5
A8
330
70
100
AcDbEntity
  8
Vector Layer 1
 62
    18
420
        0
370
    30
100
AcDbPolyline
 90
      624
 70
     0
 43
0.0
 10
-0.0619513279169239
 20
3.872346276760501
 10
-0.0619513279169239
 20
3.872217568311315
 10
-0.0619513279169239
 20
3.872217568311315
 10
-0.061992852592407
 20
3.872359516511537
 10
-0.061992852592407
 20
3.872359516511537
 10
-0.0629710077374603
 20
3.87570324793778
 10
-0.0629710077374603
 20
3.87570324793778
 10
-0.0663699404725815
 20
3.933765980157476
 10
-0.0663699404725815
 20
3.933765980157476
 10
-0.0701087664812148
 20
3.955106946382146
 10
-0.0701087664812148
 20
3.955106946382146
 10
-0.0765667386779452
 20
3.97905174151383
 10
-0.0765667386779452
 20
3.97905174151383
 10
-0.084384283968724
 20
4.000230463895421
 10
-0.084384283968724
 20
4.000230463895421
 10
-0.0928816158065271
 20
4.018803688439946
 10
-0.0928816158065271
 20
4.018803688439946
 10
-0.1030784140118908
 20
4.037224265489202
 10
-0.1030784140118908
 20
4.037224265489202
 10
-0.1142948920377909
 20
4.054338427934269
 10
-0.1142948920377909
 20
4.054338427934269
 10
-0.1268709431577393
 20
4.070633026513677
 10
-0.1268709431577393
 20
4.070633026513677
 10
-0.1411464606452479
 20
4.086519154462438
 10
-0.1411464606452479
 20
4.086519154462438
 10
-0.1547421915857323
 20
4.099544378671269
 10
-0.1547421915857323
 20
4.099544378671269
 10
-0.1696974956202651
 20
4.11203137293778
 10
-0.1696974956202651
 20
4.11203137293778
 10
-0.1860123727488463
 20
4.123720022592167
 10
-0.1860123727488463
 20
4.123720022592167
 10
-0.2023272498774276
 20
4.133734914216619
 10
-0.2023272498774276
 20
4.133734914216619
 10
-0.2196618068265452
 20
4.142782899293523
 10
-0.2196618068265452
 20
4.142782899293523
 10
-0.2373362570491749
 20
4.15045282498322
 10
-0.2373362570491749
 20
4.15045282498322
 10
-0.2539910274512687
 20
4.156365486535649
 10
-0.2539910274512687
 20
4.156365486535649
 10
-0.2726851574944362
 20
4.161638053807836
 10
-0.2726851574944362
 20
4.161638053807836
 10
-0.2903596077170673
 20
4.165322336110692
 10
-0.2903596077170673
 20
4.165322336110692
 10
-0.3080340579396985
 20
4.167831214818578
 10
-0.3080340579396985
 20
4.167831214818578
 10
-0.3284276543504267
 20
4.169293435964207
 10
-0.3284276543504267
 20
4.169293435964207
 10
-0.3478015709406184
 20
4.16922781125031
 10
-0.3478015709406184
 20
4.16922781125031
 10
-0.3664957009837861
 20
4.167870851907354
 10
-0.3664957009837861
 20
4.167870851907354
 10
-0.3845100444799294
 20
4.16534289971314
 10
-0.3845100444799294
 20
4.16534289971314
 10
-0.4025243879760727
 20
4.16158393279038
 10
-0.4025243879760727
 20
4.16158393279038
 10
-0.4208786247457282
 20
4.156427356156926
 10
-0.4208786247457282
 20
4.156427356156926
 10
-0.4392328615153835
 20
4.149821075353246
 10
-0.4392328615153835
 20
4.149821075353246
 10
-0.4569073117380147
 20
4.142009886655431
 10
-0.4569073117380147
 20
4.142009886655431
 10
-0.4739019754136215
 20
4.133026214990239
 10
-0.4739019754136215
 20
4.133026214990239
 10
-0.4912365323627406
 20
4.122215184125524
 10
-0.4912365323627406
 20
4.122215184125524
 10
-0.5072115162178117
 20
4.11049852028809
 10
-0.5072115162178117
 20
4.11049852028809
 10
-0.5221668202523457
 20
4.097816082391362
 10
-0.5221668202523457
 20
4.097816082391362
 10
-0.5357625511928312
 20
4.084482046517949
 10
-0.5357625511928312
 20
4.084482046517949
 10
-0.5490183888598049
 20
4.069548937234501
 10
-0.5490183888598049
 20
4.069548937234501
 10
-0.5615944399797539
 20
4.053022178563695
 10
-0.5615944399797539
 20
4.053022178563695
 10
-0.5728109180056544
 20
4.035730394277196
 10
-0.5728109180056544
 20
4.035730394277196
 10
-0.5830077162110185
 20
4.017021330747228
 10
-0.5830077162110185
 20
4.017021330747228
 10
-0.5921848345958463
 20
3.996271761808019
 10
-0.5921848345958463
 20
3.996271761808019
 10
-0.5969433404250162
 20
3.983672591600042
 10
-0.5969433404250162
 20
3.983672591600042
 10
-0.6003422731601376
 20
3.97904363528214
 10
-0.6003422731601376
 20
3.97904363528214
 10
-0.7291618238212375
 20
3.97904363528214
 10
-0.7291618238212375
 20
3.97904363528214
 10
-0.7329006498298711
 20
3.978076788339238
 10
-0.7329006498298711
 20
3.978076788339238
 10
-0.7396985153001139
 20
3.966731103810888
 10
-0.7396985153001139
 20
3.966731103810888
 10
-0.7478559538644051
 20
3.956713649186712
 10
-0.7478559538644051
 20
3.956713649186712
 10
-0.7560133924286965
 20
3.948882969770055
 10
-0.7560133924286965
 20
3.948882969770055
 10
-0.7655304040870363
 20
3.941844972524267
 10
-0.7655304040870363
 20
3.941844972524267
 10
-0.7760670955659127
 20
3.935929032716375
 10
-0.7760670955659127
 20
3.935929032716375
 10
-0.7872835735918131
 20
3.931414278897863
 10
-0.7872835735918131
 20
3.931414278897863
 10
-0.7988399448912258
 20
3.92847070351563
 10
-0.7988399448912258
 20
3.92847070351563
 10
-0.8103963161906385
 20
3.926991793069463
 10
-0.8103963161906385
 20
3.926991793069463
 10
-0.8226324740370753
 20
3.927027019414526
 10
-0.8226324740370753
 20
3.927027019414526
 10
-0.83452873861
 20
3.928605052384954
 10
-0.83452873861
 20
3.928605052384954
 10
-0.846425003182925
 20
3.931834730062109
 10
-0.846425003182925
 20
3.931834730062109
 10
-0.8576414812088255
 20
3.936500402841192
 10
-0.8576414812088255
 20
3.936500402841192
 10
-0.8685180659612139
 20
3.942799183282476
 10
-0.8685180659612139
 20
3.942799183282476
 10
-0.8780350776195536
 20
3.950229438695532
 10
-0.8780350776195536
 20
3.950229438695532
 10
-0.8868723027308693
 20
3.959162684831243
 10
-0.8868723027308693
 20
3.959162684831243
 10
-0.894010061474624
 20
3.968662175092321
 10
-0.894010061474624
 20
3.968662175092321
 10
-0.9001281403978426
 20
3.979367705735784
 10
-0.9001281403978426
 20
3.979367705735784
 10
-0.9045467529535004
 20
3.990526887330632
 10
-0.9045467529535004
 20
3.990526887330632
 10
-0.9065861125945732
 20
3.999491008672338
 10
-0.9065861125945732
 20
3.999491008672338
 10
-0.9120244049707673
 20
4.047595056447605
 10
-0.9120244049707673
 20
4.047595056447605
 10
-0.9137238713383283
 20
4.057414564046483
 10
-0.9137238713383283
 20
4.057414564046483
 10
-0.9174626973469615
 20
4.067277642640691
 10
-0.9174626973469615
 20
4.067277642640691
 10
-0.9222212031761316
 20
4.075617941770177
 10
-0.9222212031761316
 20
4.075617941770177
 10
-0.9273196022788136
 20
4.081829818639379
 10
-0.9273196022788136
 20
4.081829818639379
 10
-0.9341174677490561
 20
4.087421807202916
 10
-0.9341174677490561
 20
4.087421807202916
 10
-0.9415951197663233
 20
4.091538401994329
 10
-0.9415951197663233
 20
4.091538401994329
 10
-0.9507722381511509
 20
4.094671162519079
 10
-0.9507722381511509
 20
4.094671162519079
 10
-0.9623286094505635
 20
4.096569928083043
 10
-0.9623286094505635
 20
4.096569928083043
 10
-0.9749046605705126
 20
4.096917840394597
 10
-0.9749046605705126
 20
4.096917840394597
 10
-0.989859964605047
 20
4.095689090642553
 10
-0.989859964605047
 20
4.095689090642553
 10
-1.007194521554165
 20
4.092763277444463
 10
-1.007194521554165
 20
4.092763277444463
 10
-1.029627477605966
 20
4.087367507371526
 10
-1.029627477605966
 20
4.087367507371526
 10
-1.066335951145277
 20
4.076534541997533
 10
-1.066335951145277
 20
4.076534541997533
 10
-1.098285918855418
 20
4.066763671788793
 10
-1.098285918855418
 20
4.066763671788793
 10
-1.122078448001268
 20
4.060371848497014
 10
-1.122078448001268
 20
4.060371848497014
 10
-1.13839332512985
 20
4.057107540521245
 10
-1.13839332512985
 20
4.057107540521245
 10
-1.151649162796824
 20
4.055607768449407
 10
-1.151649162796824
 20
4.055607768449407
 10
-1.1621858542757
 20
4.055668386373143
 10
-1.1621858542757
 20
4.055668386373143
 10
-1.173742225575112
 20
4.05730006352387
 10
-1.173742225575112
 20
4.05730006352387
 10
-1.184958703601013
 20
4.060379775914769
 10
-1.184958703601013
 20
4.060379775914769
 10
-1.196175181626914
 20
4.065097781571965
 10
-1.196175181626914
 20
4.065097781571965
 10
-1.205352300011741
 20
4.070320638570409
 10
-1.205352300011741
 20
4.070320638570409
 10
-1.243080453371589
 20
4.070763143453222
 10
-1.243080453371589
 20
4.070763143453222
 10
-1.254636824671001
 20
4.071785780343633
 10
-1.254636824671001
 20
4.071785780343633
 10
-1.266533089243926
 20
4.074429007920842
 10
-1.266533089243926
 20
4.074429007920842
 10
-1.277749567269827
 20
4.078605922612767
 10
-1.277749567269827
 20
4.078605922612767
 10
-1.287946365475191
 20
4.083957644853215
 10
-1.287946365475191
 20
4.083957644853215
 10
-1.297463377133531
 20
4.090639444741825
 10
-1.297463377133531
 20
4.090639444741825
 10
-1.306300602244846
 20
4.09878114119492
 10
-1.306300602244846
 20
4.09878114119492
 10
-1.314458040809137
 20
4.108696254644017
 10
-1.314458040809137
 20
4.108696254644017
 10
-1.321595799552892
 20
4.120471807870488
 10
-1.321595799552892
 20
4.120471807870488
 10
-1.328393665023135
 20
4.132658037099461
 10
-1.328393665023135
 20
4.132658037099461
 10
-1.335871317040402
 20
4.143137248906713
 10
-1.335871317040402
 20
4.143137248906713
 10
-1.345388328698742
 20
4.153574677857976
 10
-1.345388328698742
 20
4.153574677857976
 10
-1.355245233630594
 20
4.162144395265203
 10
-1.355245233630594
 20
4.162144395265203
 10
-1.36578192510947
 20
4.169378491792302
 10
-1.36578192510947
 20
4.169378491792302
 10
-1.378018082955907
 20
4.175858708772283
 10
-1.378018082955907
 20
4.175858708772283
 10
-1.389914347528832
 20
4.180504413995366
 10
-1.389914347528832
 20
4.180504413995366
 10
-1.401810612101757
 20
4.183728250417333
 10
-1.401810612101757
 20
4.183728250417333
 10
-1.414726556495218
 20
4.185709687623601
 10
-1.414726556495218
 20
4.185709687623601
 10
-1.427302607615167
 20
4.18625512972794
 10
-1.427302607615167
 20
4.18625512972794
 10
-1.440218552008628
 20
4.185361536893468
 10
-1.440218552008628
 20
4.185361536893468
 10
-1.452454709855065
 20
4.183149548921209
 10
-1.452454709855065
 20
4.183149548921209
 10
-1.46435097442799
 20
4.179670485410314
 10
-1.46435097442799
 20
4.179670485410314
 10
-1.476247239000915
 20
4.174703213128667
 10
-1.476247239000915
 20
4.174703213128667
 10
-1.487463717026815
 20
4.168508562001806
 10
-1.487463717026815
 20
4.168508562001806
 10
-1.498340301779204
 20
4.160726877603154
 10
-1.498340301779204
 20
4.160726877603154
 10
-1.50887699325808
 20
4.151105138215642
 10
-1.50887699325808
 20
4.151105138215642
 10
-1.518054111642908
 20
4.140421601686101
 10
-1.518054111642908
 20
4.140421601686101
 10
-1.526211550207199
 20
4.128059359941106
 10
-1.526211550207199
 20
4.128059359941106
 10
-1.532329629130417
 20
4.118460389527898
 10
-1.532329629130417
 20
4.118460389527898
 10
-1.540147174421197
 20
4.109142872247319
 10
-1.540147174421197
 20
4.109142872247319
 10
-1.548984399532512
 20
4.100990208539586
 10
-1.548984399532512
 20
4.100990208539586
 10
-1.558501411190852
 20
4.094260188493352
 10
-1.558501411190852
 20
4.094260188493352
 10
-1.569038102669728
 20
4.088683041486364
 10
-1.569038102669728
 20
4.088683041486364
 10
-1.580594473969141
 20
4.084436568173986
 10
-1.580594473969141
 20
4.084436568173986
 10
-1.591810951995041
 20
4.081832560453038
 10
-1.591810951995041
 20
4.081832560453038
 10
-1.603367323294454
 20
4.080692323598484
 10
-1.603367323294454
 20
4.080692323598484
 10
-1.614923694593867
 20
4.081009599122625
 10
-1.614923694593867
 20
4.081009599122625
 10
-1.744423031801991
 20
4.100290271195989
 10
-1.744423031801991
 20
4.100290271195989
 10
-1.822258591436271
 20
4.111629101190191
 10
-1.822258591436271
 20
4.111629101190191
 10
-1.92558614658396
 20
4.126299294385534
 10
-1.92558614658396
 20
4.126299294385534
 10
-2.045228578860203
 20
4.142692777070622
 10
-2.045228578860203
 20
4.142692777070622
 10
-2.161472078401278
 20
4.15800407782517
 10
-2.161472078401278
 20
4.15800407782517
 10
-2.230810306197709
 20
4.166847022924047
 10
-2.230810306197709
 20
4.166847022924047
 10
-2.333458074798307
 20
4.179563256654363
 10
-2.333458074798307
 20
4.179563256654363
 10
-2.426588831740572
 20
4.190718027505497
 10
-2.426588831740572
 20
4.190718027505497
 10
-2.517000442494742
 20
4.201172145757299
 10
-2.517000442494742
 20
4.201172145757299
 10
-2.657036471181651
 20
4.216685029420476
 10
-2.657036471181651
 20
4.216685029420476
 10
-2.756625200320641
 20
4.227173062715154
 10
-2.756625200320641
 20
4.227173062715154
 10
-2.854854356365585
 20
4.237117084416967
 10
-2.854854356365585
 20
4.237117084416967
 10
-2.958861698060231
 20
4.247195216569523
 10
-2.958861698060231
 20
4.247195216569523
 10
-3.081903063071544
 20
4.258504959497075
 10
-3.081903063071544
 20
4.258504959497075
 10
-3.187949764407262
 20
4.267713877114873
 10
-3.187949764407262
 20
4.267713877114873
 10
-3.266805003862026
 20
4.274259122762304
 10
-3.266805003862026
 20
4.274259122762304
 10
-3.366733626274529
 20
4.282155188474279
 10
-3.366733626274529
 20
4.282155188474279
 10
-3.506769654961438
 20
4.292528542432409
 10
-3.506769654961438
 20
4.292528542432409
 10
-3.610776996656084
 20
4.299654158506016
 10
-3.610776996656084
 20
4.299654158506016
 10
-3.694730635213528
 20
4.305096599015813
 10
-3.694730635213528
 20
4.305096599015813
 10
-3.795339044173054
 20
4.311186643991094
 10
-3.795339044173054
 20
4.311186643991094
 10
-3.904784678243891
 20
4.31735363856278
 10
-3.904784678243891
 20
4.31735363856278
 10
-3.9934968226305
 20
4.321961256417852
 10
-3.9934968226305
 20
4.321961256417852
 10
-4.106681282710102
 20
4.327354463491063
 10
-4.106681282710102
 20
4.327354463491063
 10
-4.196413106917365
 20
4.331225963983159
 10
-4.196413106917365
 20
4.331225963983159
 10
-4.339508175066068
 20
4.33672425404511
 10
-4.339508175066068
 20
4.33672425404511
 10
-4.426860746358744
 20
4.339625033292393
 10
-4.426860746358744
 20
4.339625033292393
 10
-4.557379763387491
 20
4.343389007005315
 10
-4.557379763387491
 20
4.343389007005315
 10
-4.67260358310818
 20
4.346095057878118
 10
-4.67260358310818
 20
4.346095057878118
 10
-4.749079569648461
 20
4.347560140046697
 10
-4.749079569648461
 20
4.347560140046697
 10
-4.845269366052458
 20
4.349079641255956
 10
-4.845269366052458
 20
4.349079641255956
 10
-4.940779375909431
 20
4.350187751206975
 10
-4.940779375909431
 20
4.350187751206975
 10
-5.025412801014009
 20
4.350843998345952
 10
-5.025412801014009
 20
4.350843998345952
 10
-5.150493525666558
 20
4.351261528882604
 10
-5.150493525666558
 20
4.351261528882604
 10
-5.239205670053283
 20
4.35113242522202
 10
-5.239205670053283
 20
4.35113242522202
 10
-5.391137963313307
 20
4.350165876302343
 10
-5.391137963313307
 20
4.350165876302343
 10
-5.498204344469701
 20
4.348881694230657
 10
-5.498204344469701
 20
4.348881694230657
 10
-5.611388804549317
 20
4.34701010838471
 10
-5.611388804549317
 20
4.34701010838471
 10
-5.706558921132778
 20
4.345006975087743
 10
-5.706558921132778
 20
4.345006975087743
 10
-5.835718365067474
 20
4.341674896630864
 10
-5.835718365067474
 20
4.341674896630864
 10
-5.935646987480108
 20
4.338574501428227
 10
-5.935646987480108
 20
4.338574501428227
 10
-6.026398491507908
 20
4.335430714044194
 10
-6.026398491507908
 20
4.335430714044194
 10
-6.123607967732442
 20
4.331639977845769
 10
-6.123607967732442
 20
4.331639977845769
 10
-6.267042929154658
 20
4.325352820310216
 10
-6.267042929154658
 20
4.325352820310216
 10
-6.368671017934853
 20
4.320317062291723
 10
-6.368671017934853
 20
4.320317062291723
 10
-6.455003909406993
 20
4.315734537992101
 10
-6.455003909406993
 20
4.315734537992101
 10
-6.561730397289874
 20
4.309607657346349
 10
-6.561730397289874
 20
4.309607657346349
 10
-6.685451548848373
 20
4.301906498822789
 10
-6.685451548848373
 20
4.301906498822789
 10
-6.798636008927988
 20
4.294250997457127
 10
-6.798636008927988
 20
4.294250997457127
 10
-6.880550287844466
 20
4.288386973294835
 10
-6.880550287844466
 20
4.288386973294835
 10
-6.983877842992225
 20
4.280571195039373
 10
-6.983877842992225
 20
4.280571195039373
 10
-7.056954896797381
 20
4.274781378659826
 10
-7.056954896797381
 20
4.274781378659826
 10
-7.14328778826952
 20
4.267600449475866
 10
-7.14328778826952
 20
4.267600449475866
 10
-7.265309473460457
 20
4.256957146081548
 10
-7.265309473460457
 20
4.256957146081548
 10
-7.353681724573671
 20
4.248842152509313
 10
-7.353681724573671
 20
4.248842152509313
 10
-7.46312735864465
 20
4.238321873101811
 10
-7.46312735864465
 20
4.238321873101811
 10
-7.544021957740592
 20
4.23020741597138
 10
-7.544021957740592
 20
4.23020741597138
 10
-7.661964923649381
 20
4.21786734715424
 10
-7.661964923649381
 20
4.21786734715424
 10
-7.731643044719415
 20
4.210290821942907
 10
-7.731643044719415
 20
4.210290821942907
 10
-7.83191156040556
 20
4.199026378545385
 10
-7.83191156040556
 20
4.199026378545385
 10
-7.910426906586915
 20
4.18991223231278
 10
-7.910426906586915
 20
4.18991223231278
 10
-8.006956596264426
 20
4.178305658254246
 10
-8.006956596264426
 20
4.178305658254246
 10
-8.143593692216395
 20
4.161237272176365
 10
-8.143593692216395
 20
4.161237272176365
 10
-8.24080316844093
 20
4.148539754304509
 10
-8.24080316844093
 20
4.148539754304509
 10
-8.331214779195217
 20
4.136421235952001
 10
-8.331214779195217
 20
4.136421235952001
 10
-8.428764148693264
 20
4.122885378751378
 10
-8.428764148693264
 20
4.122885378751378
 10
-8.528012984558873
 20
4.108730050477604
 10
-8.528012984558873
 20
4.108730050477604
 10
-8.615705449125062
 20
4.09582898274384
 10
-8.615705449125062
 20
4.09582898274384
 10
-8.68742292983617
 20
4.085051449689489
 10
-8.68742292983617
 20
4.085051449689489
 10
-8.690821862571294
 20
4.091167839917759
 10
-8.690821862571294
 20
4.091167839917759
 10
-8.694220795306417
 20
4.112079116258245
 10
-8.694220795306417
 20
4.112079116258245
 10
-8.697959621315053
 20
4.124464842233281
 10
-8.697959621315053
 20
4.124464842233281
 10
-8.704417593511788
 20
4.138843091878515
 10
-8.704417593511788
 20
4.138843091878515
 10
-8.71189524552906
 20
4.150954576882939
 10
-8.71189524552906
 20
4.150954576882939
 10
-8.720392577366869
 20
4.161649497899633
 10
-8.720392577366869
 20
4.161649497899633
 10
-8.729569695751701
 20
4.170798334035497
 10
-8.729569695751701
 20
4.170798334035497
 10
-8.740106387230586
 20
4.179116043004613
 10
-8.740106387230586
 20
4.179116043004613
 10
-8.751662758530006
 20
4.186310681256872
 10
-8.751662758530006
 20
4.186310681256872
 10
-8.763559023102937
 20
4.191845628175359
 10
-8.763559023102937
 20
4.191845628175359
 10
-8.776135074222896
 20
4.196029695424656
 10
-8.776135074222896
 20
4.196029695424656
 10
-8.789051018616365
 20
4.198757621202092
 10
-8.789051018616365
 20
4.198757621202092
 10
-8.802306856283347
 20
4.199988993558507
 10
-8.802306856283347
 20
4.199988993558507
 10
-8.815562693950329
 20
4.199698003682714
 10
-8.815562693950329
 20
4.199698003682714
 10
-8.828818531617312
 20
4.19788488999329
 10
-8.828818531617312
 20
4.19788488999329
 10
-8.841734476010781
 20
4.194537969979863
 10
-8.841734476010781
 20
4.194537969979863
 10
-8.853970633857226
 20
4.189840051087956
 10
-8.853970633857226
 20
4.189840051087956
 10
-8.865866898430157
 20
4.183591755780797
 10
-8.865866898430157
 20
4.183591755780797
 10
-8.876403589909042
 20
4.176437648686985
 10
-8.876403589909042
 20
4.176437648686985
 10
-8.886600388114411
 20
4.167707237157445
 10
-8.886600388114411
 20
4.167707237157445
 10
-8.896117399772759
 20
4.157312127503972
 10
-8.896117399772759
 20
4.157312127503972
 10
-8.903934945063543
 20
4.146422180089574
 10
-8.903934945063543
 20
4.146422180089574
 10
-8.910392917260278
 20
4.134772869500737
 10
-8.910392917260278
 20
4.134772869500737
 10
-8.915491316362963
 20
4.122489901933294
 10
-8.915491316362963
 20
4.122489901933294
 10
-8.918890249098087
 20
4.109915646466832
 10
-8.918890249098087
 20
4.109915646466832
 10
-8.921949288559698
 20
4.089084717187505
 10
-8.921949288559698
 20
4.089084717187505
 10
-8.925348221294822
 20
4.084596189412694
 10
-8.925348221294822
 20
4.084596189412694
 10
-9.040911934289024
 20
4.084554525765996
 10
-9.040911934289024
 20
4.084554525765996
 10
-9.046350226665222
 20
4.078365835103612
 10
-9.046350226665222
 20
4.078365835103612
 10
-9.051788519041419
 20
4.074256333264928
 10
-9.051788519041419
 20
4.074256333264928
 10
-9.058926277785179
 20
4.071220609101873
 10
-9.058926277785179
 20
4.071220609101873
 10
-9.068103396170013
 20
4.069460901174169
 10
-9.068103396170013
 20
4.069460901174169
 10
-9.079659767469433
 20
4.069377752694707
 10
-9.079659767469433
 20
4.069377752694707
 10
-9.093595391683439
 20
4.071085366162877
 10
-9.093595391683439
 20
4.071085366162877
 10
-9.111609735179595
 20
4.075051041993718
 10
-9.111609735179595
 20
4.075051041993718
 10
-9.135742157598972
 20
4.082044574174505
 10
-9.135742157598972
 20
4.082044574174505
 10
-9.180608069702604
 20
4.09643295660935
 10
-9.180608069702604
 20
4.09643295660935
 10
-9.204740492121979
 20
4.103355559262853
 10
-9.204740492121979
 20
4.103355559262853
 10
-9.224454301985698
 20
4.107775303277593
 10
-9.224454301985698
 20
4.107775303277593
 10
-9.23940960602024
 20
4.109851571473699
 10
-9.23940960602024
 20
4.109851571473699
 10
-9.252665443687222
 20
4.110391172322851
 10
-9.252665443687222
 20
4.110391172322851
 10
-9.263542028439619
 20
4.109492632302861
 10
-9.263542028439619
 20
4.109492632302861
 10
-9.273059040097964
 20
4.107297631654363
 10
-9.273059040097964
 20
4.107297631654363
 10
-9.281896265209287
 20
4.103494140061956
 10
-9.281896265209287
 20
4.103494140061956
 10
-9.289373917226559
 20
4.098274918946843
 10
-9.289373917226559
 20
4.098274918946843
 10
-9.295831889423293
 20
4.09140935793839
 10
-9.295831889423293
 20
4.09140935793839
 10
-9.300590395252465
 20
4.0835408295723
 10
-9.300590395252465
 20
4.0835408295723
 10
-9.305009007808127
 20
4.072045596990209
 10
-9.305009007808127
 20
4.072045596990209
 10
-9.307388260722712
 20
4.058100911531072
 10
-9.307388260722712
 20
4.058100911531072
 10
-9.312826553098911
 20
4.014502080831151
 10
-9.312826553098911
 20
4.014502080831151
 10
-9.316565379107547
 20
4.003260346803289
 10
-9.316565379107547
 20
4.003260346803289
 10
-9.323023351304282
 20
3.990629228505712
 10
-9.323023351304282
 20
3.990629228505712
 10
-9.330501003321554
 20
3.980149480256658
 10
-9.330501003321554
 20
3.980149480256658
 10
-9.338998335159363
 20
3.971210512075048
 10
-9.338998335159363
 20
3.971210512075048
 10
-9.348175453544195
 20
3.963753374967199
 10
-9.348175453544195
 20
3.963753374967199
 10
-9.35871214502308
 20
3.957284900102239
 10
-9.35871214502308
 20
3.957284900102239
 10
-9.369248836501961
 20
3.952562722119909
 10
-9.369248836501961
 20
3.952562722119909
 10
-9.381484994348406
 20
3.948962124738317
 10
-9.381484994348406
 20
3.948962124738317
 10
-9.393381258921341
 20
3.947183104905706
 10
-9.393381258921341
 20
3.947183104905706
 10
-9.405277523494273
 20
3.946924003514867
 10
-9.405277523494273
 20
3.946924003514867
 10
-9.416833894793692
 20
3.948178383264165
 10
-9.416833894793692
 20
3.948178383264165
 10
-9.428050372819601
 20
3.950882944020849
 10
-9.428050372819601
 20
3.950882944020849
 10
-9.438926957571997
 20
3.954976114186864
 10
-9.438926957571997
 20
3.954976114186864
 10
-9.44980354232439
 20
3.960840436372381
 10
-9.44980354232439
 20
3.960840436372381
 10
-9.459660447256251
 20
3.967982324514013
 10
-9.459660447256251
 20
3.967982324514013
 10
-9.468837565641084
 20
3.976751836690526
 10
-9.468837565641084
 20
3.976751836690526
 10
-9.476655110931867
 20
3.986656519326788
 10
-9.476655110931867
 20
3.986656519326788
 10
-9.47971415039348
 20
3.991162511262518
 10
-9.47971415039348
 20
3.991162511262518
 10
-9.483113083128603
 20
3.992724093350988
 10
-9.483113083128603
 20
3.992724093350988
 10
-9.495009347701536
 20
3.99300757304154
 10
-9.495009347701536
 20
3.99300757304154
 10
-9.506905612274469
 20
3.994840773496251
 10
-9.506905612274469
 20
3.994840773496251
 10
-9.518122090300375
 20
3.998123439702612
 10
-9.518122090300375
 20
3.998123439702612
 10
-9.528998675052772
 20
4.002892764958958
 10
-9.528998675052772
 20
4.002892764958958
 10
-9.539535366531653
 20
4.009308430108648
 10
-9.539535366531653
 20
4.009308430108648
 10
-9.548712484916489
 20
4.016729923638921
 10
-9.548712484916489
 20
4.016729923638921
 10
-9.55754971002781
 20
4.026089402589421
 10
-9.55754971002781
 20
4.026089402589421
 10
-9.56502736204508
 20
4.036726447496037
 10
-9.56502736204508
 20
4.036726447496037
 10
-9.571145440968304
 20
4.048923703584295
 10
-9.571145440968304
 20
4.048923703584295
 10
-9.578283199712062
 20
4.068781944665532
 10
-9.578283199712062
 20
4.068781944665532
 10
-9.584741171908799
 20
4.081981572064976
 10
-9.584741171908799
 20
4.081981572064976
 10
-9.592558717199581
 20
4.093879732045751
 10
-9.592558717199581
 20
4.093879732045751
 10
-9.602075728857929
 20
4.105142327699285
 10
-9.602075728857929
 20
4.105142327699285
 10
-9.612612420336811
 20
4.114709588441471
 10
-9.612612420336811
 20
4.114709588441471
 10
-9.623489005089208
 20
4.122477802190404
 10
-9.623489005089208
 20
4.122477802190404
 10
-9.635725162935653
 20
4.129229458722692
 10
-9.635725162935653
 20
4.129229458722692
 10
-9.648981000602635
 20
4.134557339105229
 10
-9.648981000602635
 20
4.134557339105229
 10
-9.662236838269617
 20
4.138096484098058
 10
-9.662236838269617
 20
4.138096484098058
 10
-9.675492675936597
 20
4.139991732987981
 10
-9.675492675936597
 20
4.139991732987981
 10
-9.688748513603579
 20
4.140357049855809
 10
-9.688748513603579
 20
4.140357049855809
 10
-9.702004351270561
 20
4.139230879697423
 10
-9.702004351270561
 20
4.139230879697423
 10
-9.715260188937543
 20
4.136510106477361
 10
-9.715260188937543
 20
4.136510106477361
 10
-9.727156453510477
 20
4.132652195844274
 10
-9.727156453510477
 20
4.132652195844274
 10
-9.739392611356922
 20
4.127093526277166
 10
-9.739392611356922
 20
4.127093526277166
 10
-9.75060908938283
 20
4.120364042672735
 10
-9.75060908938283
 20
4.120364042672735
 10
-9.760126101041176
 20
4.113131317052465
 10
-9.760126101041176
 20
4.113131317052465
 10
-9.769983005973033
 20
4.103800329122167
 10
-9.769983005973033
 20
4.103800329122167
 10
-9.778820231084356
 20
4.093207034024816
 10
-9.778820231084356
 20
4.093207034024816
 10
-9.786297883101628
 20
4.081616970452886
 10
-9.786297883101628
 20
4.081616970452886
 10
-9.792755855298363
 20
4.068268510255437
 10
-9.792755855298363
 20
4.068268510255437
 10
-9.797174467854022
 20
4.054547699842077
 10
-9.797174467854022
 20
4.054547699842077
 10
-9.802272866956709
 20
4.035174282941442
 10
-9.802272866956709
 20
4.035174282941442
 10
-9.803292546777244
 20
4.034465404901128
 10
-9.803292546777244
 20
4.034465404901128
 10
-9.887246185334799
 20
4.034465404901128
 10
-9.887246185334799
 20
4.034465404901128
 10
-9.890985011343433
 20
4.033072444352727
 10
-9.890985011343433
 20
4.033072444352727
 10
-9.89914244990773
 20
4.018955084237676
 10
-9.89914244990773
 20
4.018955084237676
 10
-9.90899935483959
 20
4.004731985482793
 10
-9.90899935483959
 20
4.004731985482793
 10
-9.92055572613901
 20
3.990881534967046
 10
-9.92055572613901
 20
3.990881534967046
 10
-9.932451990711941
 20
3.978954407128912
 10
-9.932451990711941
 20
3.978954407128912
 10
-9.945707828378923
 20
3.967720481309514
 10
-9.945707828378923
 20
3.967720481309514
 10
-9.959303559319417
 20
3.958160134706121
 10
-9.959303559319417
 20
3.958160134706121
 10
-9.972899290259912
 20
3.950158509168249
 10
-9.972899290259912
 20
3.950158509168249
 10
-9.988194487567968
 20
3.942746552381139
 10
-9.988194487567968
 20
3.942746552381139
 10
-10.00314979160251
 20
3.93699053183518
 10
-10.00314979160251
 20
3.93699053183518
 10
-10.01980456200462
 20
3.932154508981329
 10
-10.01980456200462
 20
3.932154508981329
 10
-10.03679922568023
 20
3.928775044831854
 10
-10.03679922568023
 20
3.928775044831854
 10
-10.05379388935585
 20
3.926936420354467
 10
-10.05379388935585
 20
3.926936420354467
 10
-10.0605917548261
 20
3.926620038899999
 10
-10.0605917548261
 20
3.926620038899999
 10
-10.06186799990727
 20
3.910601688021167
 10
-10.06186799990727
 20
3.910601688021167
 10
-10.06195132792015
 20
3.909555825147253
 10
-10.06195132792015
 20
3.909555825147253
 10
-10.06195132792015
 20
3.91055033470696
210
0.0
220
0.0
230
-1.0
  0
LINE
  5
A9
330
70
100
AcDbEntity
  8
Vector Layer 1
 62
    18
420
        0
370
    30
100
AcDbLine
 10
0.061992852592407
 20
3.586807108579524
 30
0.0
 11
0.0619513279169239
 21
3.58679386882849
 31
0.0
  0
LINE
  5
AA
330
70
100
AcDbEntity
  8
Vector Layer 1
 62
    18
420
        0
370
    30
100
AcDbLine
 10
10.06186799990727
 20
3.625049280089154
 30
0.0
 11
10.06195132791692
 21
3.624997926776937
 31
0.0
  0
LINE
  5
AB
330
70
100
AcDbEntity
  8
Vector Layer 1
 62
    18
420
        0
370
    30
100
AcDbLine
 10
0.0619513279169239
 20
3.872346276760501
 30
0.0
 11
0.061951327916924
 21
3.616586431713611
 31
0.0
  0
POLYLINE
  5
AC
330
70
100
AcDbEntity
  8
Vector Layer 1
 62
    18
420
        0
370
    30
100
AcDb3dPolyline
 66
     1
 10
0.0
 20
0.0
 30
0.0
 70
     8
  0
VERTEX
  5
AD
330
AC
100
AcDbEntity
  8
0
 62
    18
420
        0
100
AcDbVertex
100
AcDb3dPolylineVertex
 10
10.06195132791692
 20
3.616586431713611
 30
0.0
 70
    32
  0
VERTEX
  5
AE
330
AC
100
AcDbEntity
  8
0
 62
    18
420
        0
100
AcDbVertex
100
AcDb3dPolylineVertex
 10
10.06195132791692
 20
3.624997926776937
 30
0.0
 70
    32
  0
VERTEX
  5
AF
330
AC
100
AcDbEntity
  8
0
 62
    18
420
        0
100
AcDbVertex
100
AcDb3dPolylineVertex
 10
10.06195132791692
 20
3.66055033470895
 30
0.0
 70
    32
  0
VERTEX
  5
B0
330
AC
100
AcDbEntity
  8
0
 62
    18
420
        0
100
AcDbVertex
100
AcDb3dPolylineVertex
 10
10.06195132791692
 20
3.90955582518783
 30
0.0
 70
    32
  0
VERTEX
  5
B1
330
AC
100
AcDbEntity
  8
0
 62
    18
420
        0
100
AcDbVertex
100
AcDb3dPolylineVertex
 10
10.06195132791692
 20
3.91055033470696
 30
0.0
 70
    32
  0
SEQEND
  5
B2
330
AC
100
AcDbEntity
  8
Vector Layer 1
 62
    18
420
        0
370
    30
  0
ENDSEC
  0
SECTION
  2
OBJECTS
  0
DICTIONARY
  5
C
330
0
100
AcDbDictionary
281
     1
  3
ACAD_COLOR
350
63
  3
ACAD_DETAILVIEWSTYLE
350
6A
  3
ACAD_GROUP
350
D
  3
ACAD_LAYOUT
350
62
  3
ACAD_MATERIAL
350
10
  3
ACAD_MLEADERSTYLE
350
66
  3
ACAD_MLINESTYLE
350
5F
  3
ACAD_PLOTSETTINGS
350
61
  3
ACAD_PLOTSTYLENAME
350
E
  3
ACAD_SCALELIST
350
42
  3
ACAD_SECTIONVIEWSTYLE
350
68
  3
ACAD_TABLESTYLE
350
64
  3
ACAD_VISUALSTYLE
350
29
  3
ACDB_RECOMPOSE_DATA
350
BC
  3
AcDbVariableDictionary
350
B3
  0
DICTIONARY
  5
63
102
{ACAD_REACTORS
330
C
102
}
330
C
100
AcDbDictionary
281
     1
  0
DICTIONARY
  5
6A
102
{ACAD_REACTORS
330
C
102
}
330
C
100
AcDbDictionary
281
     1
  3
Imperial24
350
6B
  0
DICTIONARY
  5
D
102
{ACAD_REACTORS
330
C
102
}
330
C
100
AcDbDictionary
281
     1
  0
DICTIONARY
  5
62
102
{ACAD_REACTORS
330
C
102
}
330
C
100
AcDbDictionary
281
     1
  3
Layout1
350
6F
  3
Layout2
350
77
  3
Model
350
73
  0
DICTIONARY
  5
10
102
{ACAD_REACTORS
330
C
102
}
330
C
100
AcDbDictionary
281
     1
  3
ByBlock
350
19
  3
ByLayer
350
11
  3
Global
350
21
  0
DICTIONARY
  5
66
102
{ACAD_REACTORS
330
C
102
}
330
C
100
AcDbDictionary
281
     1
  3
Standard
350
67
  0
DICTIONARY
  5
5F
102
{ACAD_REACTORS
330
C
102
}
330
C
100
AcDbDictionary
281
     1
  3
Standard
350
60
  0
DICTIONARY
  5
61
102
{ACAD_REACTORS
330
C
102
}
330
C
100
AcDbDictionary
281
     1
  0
ACDBDICTIONARYWDFLT
  5
E
102
{ACAD_REACTORS
330
C
102
}
330
C
100
AcDbDictionary
281
     1
  3
Normal
350
F
100
AcDbDictionaryWithDefault
340
F
  0
DICTIONARY
  5
42
102
{ACAD_REACTORS
330
C
102
}
330
C
100
AcDbDictionary
281
     1
  3
A0
350
43
  3
A1
350
44
  3
A2
350
45
  3
A3
350
46
  3
A4
350
47
  3
A5
350
48
  3
A6
350
49
  3
A7
350
4A
  3
A8
350
4B
  3
A9
350
4C
  3
B0
350
4D
  3
B1
350
4E
  3
B2
350
4F
  3
B3
350
50
  3
B4
350
51
  3
B5
350
52
  3
B6
350
53
  0
DICTIONARY
  5
68
102
{ACAD_REACTORS
330
C
102
}
330
C
100
AcDbDictionary
281
     1
  3
Imperial24
350
69
  0
DICTIONARY
  5
64
102
{ACAD_REACTORS
330
C
102
}
330
C
100
AcDbDictionary
281
     1
  3
Standard
350
65
  0
DICTIONARY
  5
29
102
{ACAD_REACTORS
330
C
102
}
330
C
100
AcDbDictionary
281
     1
  3
2dWireframe
350
2F
  3
Basic
350
2E
  3
Brighten
350
35
  3
ColorChange
350
39
  3
Conceptual
350
32
  3
Dim
350
34
  3
EdgeColorOff
350
41
  3
Facepattern
350
38
  3
Flat
350
2A
  3
FlatWithEdges
350
2B
  3
Gouraud
350
2C
  3
GouraudWithEdges
350
2D
  3
Hidden
350
31
  3
JitterOff
350
3F
  3
Linepattern
350
37
  3
OverhangOff
350
40
  3
Realistic
350
33
  3
Shaded
350
3E
  3
Shaded with edges
350
3D
  3
Shades of Gray
350
3A
  3
Sketchy
350
3B
  3
Thicken
350
36
  3
Wireframe
350
30
  3
X-Ray
350
3C
  0
XRECORD
  5
BC
102
{ACAD_REACTORS
330
C
102
}
330
C
100
AcDbXrecord
280
     1
 90
        1
330
65
  0
DICTIONARY
  5
B3
102
{ACAD_REACTORS
330
C
102
}
330
C
100
AcDbDictionary
281
     1
  3
CANNOSCALE
350
B8
  3
CMLEADERSTYLE
350
B5
  3
CTABLESTYLE
350
B4
  3
CVIEWDETAILSTYLE
350
B6
  3
CVIEWSECTIONSTYLE
350
B7
  3
XCLIPFRAME
350
B9
  0
ACDBDETAILVIEWSTYLE
  5
6B
102
{ACAD_XDICTIONARY
360
F2
102
}
102
{ACAD_REACTORS
330
6A
102
}
330
6A
100
AcDbModelDocViewStyle
 70
     0
  3
Imperial24
290
     0
100
AcDbDetailViewStyle
 70
     0
 71
     0
 90
        3
 71
     1
340
55
 62
   256
 40
0.24
340
0
 62
   256
 40
0.24
300

 40
0.36
280
     3
 71
     2
340
5D
 90
       25
 62
   256
 71
     3
340
55
 62
   256
 40
0.24
 90
        1
 40
0.75
 90
        1
300
%<\AcVar ViewType \f "%tc1">% %<\AcVar ViewDetailId>%\PSCALE %<\AcVar ViewScale \f "%sn">%
 71
     4
340
5D
 90
       25
 62
   256
340
5D
 90
       25
 62
   256
280
     0
  0
LAYOUT
  5
6F
102
{ACAD_REACTORS
330
62
102
}
330
62
100
AcDbPlotSettings
  1

  2

  4

  6

 40
0.0
 41
0.0
 42
0.0
 43
0.0
 44
0.0
 45
0.0
 46
0.0
 47
0.0
 48
0.0
 49
0.0
140
0.0
141
0.0
142
1.0
143
1.0
 70
   688
 72
     0
 73
     0
 74
     5
  7

 75
    16
147
1.0
 76
     0
 77
     2
 78
   300
148
0.0
149
0.0
100
AcDbLayout
  1
Layout1
 70
     1
 71
     1
 10
0.0
 20
0.0
 11
12.0
 21
9.0
 12
0.0
 22
0.0
 32
0.0
 14
0.0
 24
0.0
 34
0.0
 15
0.0
 25
0.0
 35
0.0
146
0.0
 13
0.0
 23
0.0
 33
0.0
 16
1.0
 26
0.0
 36
0.0
 17
0.0
 27
1.0
 37
0.0
 76
     0
330
6C
  0
LAYOUT
  5
77
102
{ACAD_REACTORS
330
62
102
}
330
62
100
AcDbPlotSettings
  1

  2

  4

  6

 40
0.0
 41
0.0
 42
0.0
 43
0.0
 44
0.0
 45
0.0
 46
0.0
 47
0.0
 48
0.0
 49
0.0
140
0.0
141
0.0
142
1.0
143
1.0
 70
   688
 72
     0
 73
     0
 74
     5
  7

 75
    16
147
1.0
 76
     0
 77
     2
 78
   300
148
0.0
149
0.0
100
AcDbLayout
  1
Layout2
 70
     1
 71
     2
 10
0.0
 20
0.0
 11
12.0
 21
9.0
 12
0.0
 22
0.0
 32
0.0
 14
0.0
 24
0.0
 34
0.0
 15
0.0
 25
0.0
 35
0.0
146
0.0
 13
0.0
 23
0.0
 33
0.0
 16
1.0
 26
0.0
 36
0.0
 17
0.0
 27
1.0
 37
0.0
 76
     0
330
74
  0
LAYOUT
  5
73
102
{ACAD_REACTORS
330
62
102
}
330
62
100
AcDbPlotSettings
  1

  2

  4

  6

 40
0.0
 41
0.0
 42
0.0
 43
0.0
 44
0.0
 45
0.0
 46
0.0
 47
0.0
 48
0.0
 49
0.0
140
0.0
141
0.0
142
1.0
143
1.0
 70
  1712
 72
     0
 73
     0
 74
     0
  7

 75
     0
147
1.0
 76
     0
 77
     2
 78
   300
148
0.0
149
0.0
100
AcDbLayout
  1
Model
 70
     1
 71
     0
 10
0.0
 20
0.0
 11
12.0
 21
9.0
 12
0.0
 22
0.0
 32
0.0
 14
0.0
 24
0.0
 34
0.0
 15
0.0
 25
0.0
 35
0.0
146
0.0
 13
0.0
 23
0.0
 33
0.0
 16
1.0
 26
0.0
 36
0.0
 17
0.0
 27
1.0
 37
0.0
 76
     0
330
70
  0
MATERIAL
  5
19
102
{ACAD_XDICTIONARY
360
1A
102
}
102
{ACAD_REACTORS
330
10
102
}
330
10
100
AcDbMaterial
  1
ByBlock
 72
     0
 43
0.0208333333333333
 43
0.0
 43
0.0
 43
0.0
 43
0.0
 43
0.0208333333333333
 43
0.0
 43
0.0
 43
0.0
 43
0.0
 43
1.0
 43
0.0
 43
0.0
 43
0.0
 43
0.0
 43
1.0
 77
     0
 47
0.0208333333333333
 47
0.0
 47
0.0
 47
0.0
 47
0.0
 47
0.0208333333333333
 47
0.0
 47
0.0
 47
0.0
 47
0.0
 47
1.0
 47
0.0
 47
0.0
 47
0.0
 47
0.0
 47
1.0
171
     0
 49
0.0208333333333333
 49
0.0
 49
0.0
 49
0.0
 49
0.0
 49
0.0208333333333333
 49
0.0
 49
0.0
 49
0.0
 49
0.0
 49
1.0
 49
0.0
 49
0.0
 49
0.0
 49
0.0
 49
1.0
175
     0
142
0.0208333333333333
142
0.0
142
0.0
142
0.0
142
0.0
142
0.0208333333333333
142
0.0
142
0.0
142
0.0
142
0.0
142
1.0
142
0.0
142
0.0
142
0.0
142
0.0
142
1.0
179
     0
144
0.0208333333333333
144
0.0
144
0.0
144
0.0
144
0.0
144
0.0208333333333333
144
0.0
144
0.0
144
0.0
144
0.0
144
1.0
144
0.0
144
0.0
144
0.0
144
0.0
144
1.0
147
0.0208333333333333
147
0.0
147
0.0
147
0.0
147
0.0
147
0.0208333333333333
147
0.0
147
0.0
147
0.0
147
0.0
147
1.0
147
0.0
147
0.0
147
0.0
147
0.0
147
1.0
  0
MATERIAL
  5
11
102
{ACAD_XDICTIONARY
360
12
102
}
102
{ACAD_REACTORS
330
10
102
}
330
10
100
AcDbMaterial
  1
ByLayer
 72
     0
 43
0.0208333333333333
 43
0.0
 43
0.0
 43
0.0
 43
0.0
 43
0.0208333333333333
 43
0.0
 43
0.0
 43
0.0
 43
0.0
 43
1.0
 43
0.0
 43
0.0
 43
0.0
 43
0.0
 43
1.0
 77
     0
 47
0.0208333333333333
 47
0.0
 47
0.0
 47
0.0
 47
0.0
 47
0.0208333333333333
 47
0.0
 47
0.0
 47
0.0
 47
0.0
 47
1.0
 47
0.0
 47
0.0
 47
0.0
 47
0.0
 47
1.0
171
     0
 49
0.0208333333333333
 49
0.0
 49
0.0
 49
0.0
 49
0.0
 49
0.0208333333333333
 49
0.0
 49
0.0
 49
0.0
 49
0.0
 49
1.0
 49
0.0
 49
0.0
 49
0.0
 49
0.0
 49
1.0
175
     0
142
0.0208333333333333
142
0.0
142
0.0
142
0.0
142
0.0
142
0.0208333333333333
142
0.0
142
0.0
142
0.0
142
0.0
142
1.0
142
0.0
142
0.0
142
0.0
142
0.0
142
1.0
179
     0
144
0.0208333333333333
144
0.0
144
0.0
144
0.0
144
0.0
144
0.0208333333333333
144
0.0
144
0.0
144
0.0
144
0.0
144
1.0
144
0.0
144
0.0
144
0.0
144
0.0
144
1.0
147
0.0208333333333333
147
0.0
147
0.0
147
0.0
147
0.0
147
0.0208333333333333
147
0.0
147
0.0
147
0.0
147
0.0
147
1.0
147
0.0
147
0.0
147
0.0
147
0.0
147
1.0
  0
MATERIAL
  5
21
102
{ACAD_XDICTIONARY
360
22
102
}
102
{ACAD_REACTORS
330
10
102
}
330
10
100
AcDbMaterial
  1
Global
 72
     0
 43
0.0208333333333333
 43
0.0
 43
0.0
 43
0.0
 43
0.0
 43
0.0208333333333333
 43
0.0
 43
0.0
 43
0.0
 43
0.0
 43
1.0
 43
0.0
 43
0.0
 43
0.0
 43
0.0
 43
1.0
 77
     0
 47
0.0208333333333333
 47
0.0
 47
0.0
 47
0.0
 47
0.0
 47
0.0208333333333333
 47
0.0
 47
0.0
 47
0.0
 47
0.0
 47
1.0
 47
0.0
 47
0.0
 47
0.0
 47
0.0
 47
1.0
171
     0
 49
0.0208333333333333
 49
0.0
 49
0.0
 49
0.0
 49
0.0
 49
0.0208333333333333
 49
0.0
 49
0.0
 49
0.0
 49
0.0
 49
1.0
 49
0.0
 49
0.0
 49
0.0
 49
0.0
 49
1.0
175
     0
142
0.0208333333333333
142
0.0
142
0.0
142
0.0
142
0.0
142
0.0208333333333333
142
0.0
142
0.0
142
0.0
142
0.0
142
1.0
142
0.0
142
0.0
142
0.0
142
0.0
142
1.0
179
     0
144
0.0208333333333333
144
0.0
144
0.0
144
0.0
144
0.0
144
0.0208333333333333
144
0.0
144
0.0
144
0.0
144
0.0
144
1.0
144
0.0
144
0.0
144
0.0
144
0.0
144
1.0
147
0.0208333333333333
147
0.0
147
0.0
147
0.0
147
0.0
147
0.0208333333333333
147
0.0
147
0.0
147
0.0
147
0.0
147
1.0
147
0.0
147
0.0
147
0.0
147
0.0
147
1.0
  0
MLEADERSTYLE
  5
67
102
{ACAD_XDICTIONARY
360
EE
102
}
102
{ACAD_REACTORS
330
66
102
}
330
66
100
AcDbMLeaderStyle
170
     2
171
     1
172
     0
 90
        2
 40
0.0
 41
0.0
173
     1
 91
-1056964608
340
5B
 92
       -2
290
     1
 42
0.09
291
     1
 43
0.36
  3
Standard
 44
0.18
300

342
55
174
     1
178
     6
175
     1
176
     0
 93
-1056964608
 45
0.18
292
     0
297
     0
 46
0.18
 94
-1056964608
 47
1.0
 49
1.0
140
1.0
293
     1
141
0.0
294
     1
177
     0
142
1.0
295
     0
296
     0
143
0.125
1001
ACAD_MLEADERVER
1070
     2
  0
MLINESTYLE
  5
60
102
{ACAD_REACTORS
330
5F
102
}
330
5F
100
AcDbMlineStyle
  2
STANDARD
 70
     0
  3

 62
   256
 51
90.0
 52
90.0
 71
     2
 49
0.5
 62
   256
  6
BYLAYER
 49
-0.5
 62
   256
  6
BYLAYER
  0
ACDBPLACEHOLDER
  5
F
102
{ACAD_REACTORS
330
E
102
}
330
E
  0
SCALE
  5
43
102
{ACAD_REACTORS
330
42
102
}
330
42
100
AcDbScale
 70
     0
300
1:1
140
1.0
141
1.0
290
     1
  0
SCALE
  5
44
102
{ACAD_REACTORS
330
42
102
}
330
42
100
AcDbScale
 70
     0
300
1/128" = 1'-0"
140
0.0078125
141
12.0
290
     0
  0
SCALE
  5
45
102
{ACAD_REACTORS
330
42
102
}
330
42
100
AcDbScale
 70
     0
300
1/64" = 1'-0"
140
0.015625
141
12.0
290
     0
  0
SCALE
  5
46
102
{ACAD_REACTORS
330
42
102
}
330
42
100
AcDbScale
 70
     0
300
1/32" = 1'-0"
140
0.03125
141
12.0
290
     0
  0
SCALE
  5
47
102
{ACAD_REACTORS
330
42
102
}
330
42
100
AcDbScale
 70
     0
300
1/16" = 1'-0"
140
0.0625
141
12.0
290
     0
  0
SCALE
  5
48
102
{ACAD_REACTORS
330
42
102
}
330
42
100
AcDbScale
 70
     0
300
3/32" = 1'-0"
140
0.09375
141
12.0
290
     0
  0
SCALE
  5
49
102
{ACAD_REACTORS
330
42
102
}
330
42
100
AcDbScale
 70
     0
300
1/8" = 1'-0"
140
0.125
141
12.0
290
     0
  0
SCALE
  5
4A
102
{ACAD_REACTORS
330
42
102
}
330
42
100
AcDbScale
 70
     0
300
3/16" = 1'-0"
140
0.1875
141
12.0
290
     0
  0
SCALE
  5
4B
102
{ACAD_REACTORS
330
42
102
}
330
42
100
AcDbScale
 70
     0
300
1/4" = 1'-0"
140
0.25
141
12.0
290
     0
  0
SCALE
  5
4C
102
{ACAD_REACTORS
330
42
102
}
330
42
100
AcDbScale
 70
     0
300
3/8" = 1'-0"
140
0.375
141
12.0
290
     0
  0
SCALE
  5
4D
102
{ACAD_REACTORS
330
42
102
}
330
42
100
AcDbScale
 70
     0
300
1/2" = 1'-0"
140
0.5
141
12.0
290
     0
  0
SCALE
  5
4E
102
{ACAD_REACTORS
330
42
102
}
330
42
100
AcDbScale
 70
     0
300
3/4" = 1'-0"
140
0.75
141
12.0
290
     0
  0
SCALE
  5
4F
102
{ACAD_REACTORS
330
42
102
}
330
42
100
AcDbScale
 70
     0
300
1" = 1'-0"
140
1.0
141
12.0
290
     0
  0
SCALE
  5
50
102
{ACAD_REACTORS
330
42
102
}
330
42
100
AcDbScale
 70
     0
300
1-1/2" = 1'-0"
140
1.5
141
12.0
290
     0
  0
SCALE
  5
51
102
{ACAD_REACTORS
330
42
102
}
330
42
100
AcDbScale
 70
     0
300
3" = 1'-0"
140
3.0
141
12.0
290
     0
  0
SCALE
  5
52
102
{ACAD_REACTORS
330
42
102
}
330
42
100
AcDbScale
 70
     0
300
6" = 1'-0"
140
6.0
141
12.0
290
     0
  0
SCALE
  5
53
102
{ACAD_REACTORS
330
42
102
}
330
42
100
AcDbScale
 70
     0
300
1'-0" = 1'-0"
140
12.0
141
12.0
290
     0
  0
ACDBSECTIONVIEWSTYLE
  5
69
102
{ACAD_XDICTIONARY
360
F0
102
}
102
{ACAD_REACTORS
330
68
102
}
330
68
100
AcDbModelDocViewStyle
 70
     0
  3
Imperial24
290
     0
100
AcDbSectionViewStyle
 70
     0
 71
     0
 90
       78
 71
     1
340
55
 62
   256
 40
0.24
340
0
340
0
 62
   256
 40
0.24
300
I, O, Q, S, X, Z
 40
0.48
 90
        3
 40
0.18
 90
        1
 71
     2
340
5D
 90
       25
 62
   256
340
5D
 90
       50
 62
   256
 40
0.24
 40
0.0
 40
0.24
 71
     3
340
55
 62
   256
 40
0.24
 90
        1
 40
0.75
 90
        1
300
%<\AcVar ViewType \f "%tc1">% %<\AcVar ViewSectionStartId>%-%<\AcVar ViewSectionEndId>%\PSCALE %<\AcVar ViewScale \f "%sn">%
 71
     4
 62
   256
 62
   257
300
ANSI31
 40
1.0
 90
        0
290
     0
290
     0
 90
        6
 40
0.0
 40
1.570796326794896
 40
0.2617993877991494
 40
1.308996938995747
 40
-0.2617993877991494
 40
1.832595714594046
  0
TABLESTYLE
  5
65
102
{ACAD_XDICTIONARY
360
BA
102
}
102
{ACAD_REACTORS
330
64
102
}
330
64
100
AcDbTableStyle
  3
Standard
 70
     0
 71
     0
 40
0.06
 41
0.06
280
     0
281
     0
  7
Standard
140
0.18
170
     2
 62
     0
 63
     7
283
     0
 90
      512
 91
        0
  1

274
    -2
284
     1
 64
     0
275
    -2
285
     1
 65
     0
276
    -2
286
     1
 66
     0
277
    -2
287
     1
 67
     0
278
    -2
288
     1
 68
     0
279
    -2
289
     1
 69
     0
  7
Standard
140
0.25
170
     5
 62
     0
 63
     7
283
     0
 90
      512
 91
        0
  1

274
    -2
284
     1
 64
     0
275
    -2
285
     1
 65
     0
276
    -2
286
     1
 66
     0
277
    -2
287
     1
 67
     0
278
    -2
288
     1
 68
     0
279
    -2
289
     1
 69
     0
  7
Standard
140
0.18
170
     5
 62
     0
 63
     7
283
     0
 90
      512
 91
        0
  1

274
    -2
284
     1
 64
     0
275
    -2
285
     1
 65
     0
276
    -2
286
     1
 66
     0
277
    -2
287
     1
 67
     0
278
    -2
288
     1
 68
     0
279
    -2
289
     1
 69
     0
  0
VISUALSTYLE
  5
2F
102
{ACAD_XDICTIONARY
360
C7
102
}
102
{ACAD_REACTORS
330
29
102
}
330
29
100
AcDbVisualStyle
  2
2dWireframe
 70
     4
 71
     0
 72
     2
 73
     0
 90
        0
 40
-0.6
 41
-30.0
 62
     5
 63
     7
421
 16777215
 74
     1
 91
        4
 64
     7
 65
   257
 75
     1
175
     1
 42
1.0
 92
        0
 66
   257
 43
1.0
 76
     1
 77
     6
 78
     2
 67
     7
 79
     5
170
     0
171
     0
290
     0
174
     0
 93
        1
 44
0.0
173
     0
291
     0
 45
0.0
1001
ACAD
1000
AcDbSavedByObjectVersion
1070
     0
  0
VISUALSTYLE
  5
2E
102
{ACAD_XDICTIONARY
360
C5
102
}
102
{ACAD_REACTORS
330
29
102
}
330
29
100
AcDbVisualStyle
  2
Basic
 70
     7
 71
     1
 72
     0
 73
     1
 90
        0
 40
-0.6
 41
-30.0
 62
     5
 63
     7
421
 16777215
 74
     0
 91
        4
 64
     7
 65
   257
 75
     1
175
     1
 42
1.0
 92
        8
 66
     7
 43
1.0
 76
     1
 77
     6
 78
     2
 67
     7
 79
     5
170
     0
171
     0
290
     0
174
     0
 93
        1
 44
0.0
173
     0
291
     1
 45
0.0
1001
ACAD
1000
AcDbSavedByObjectVersion
1070
     0
  0
VISUALSTYLE
  5
35
102
{ACAD_XDICTIONARY
360
D3
102
}
102
{ACAD_REACTORS
330
29
102
}
330
29
100
AcDbVisualStyle
  2
Brighten
 70
    12
 71
     2
 72
     2
 73
     0
 90
        0
 40
-0.6
 41
-30.0
 62
     5
 63
     7
421
 16777215
 74
     1
 91
        4
 64
     7
 65
   257
 75
     1
175
     1
 42
1.0
 92
        8
 66
     7
 43
1.0
 76
     1
 77
     6
 78
     2
 67
     7
 79
     5
170
     0
171
     0
290
     0
174
     0
 93
        1
 44
50.0
173
     0
291
     1
 45
0.0
1001
ACAD
1000
AcDbSavedByObjectVersion
1070
     0
  0
VISUALSTYLE
  5
39
102
{ACAD_XDICTIONARY
360
DB
102
}
102
{ACAD_REACTORS
330
29
102
}
330
29
100
AcDbVisualStyle
  2
ColorChange
 70
    16
 71
     2
 72
     2
 73
     3
 90
        0
 40
-0.6
 41
-30.0
 62
     5
 63
     8
421
  8421504
 74
     1
 91
        4
 64
     7
 65
   257
 75
     1
175
     1
 42
1.0
 92
        8
 66
     8
424
  8421504
 43
1.0
 76
     1
 77
     6
 78
     2
 67
     7
 79
     5
170
     0
171
     0
290
     0
174
     0
 93
        1
 44
0.0
173
     0
291
     1
 45
0.0
1001
ACAD
1000
AcDbSavedByObjectVersion
1070
     0
  0
VISUALSTYLE
  5
32
102
{ACAD_XDICTIONARY
360
CD
102
}
102
{ACAD_REACTORS
330
29
102
}
330
29
100
AcDbVisualStyle
  2
Conceptual
 70
     9
 71
     3
 72
     2
 73
     0
 90
        0
 40
-0.6
 41
-30.0
 62
     5
 63
     7
421
 16777215
 74
     2
 91
        2
 64
     7
 65
   257
 75
     1
175
     1
 42
179.0
 92
        8
 66
     7
 43
1.0
 76
     1
 77
     6
 78
     2
 67
     7
 79
     3
170
     0
171
     0
290
     0
174
     0
 93
        1
 44
0.0
173
     0
291
     0
 45
0.0
1001
ACAD
1000
AcDbSavedByObjectVersion
1070
     0
  0
VISUALSTYLE
  5
34
102
{ACAD_XDICTIONARY
360
D1
102
}
102
{ACAD_REACTORS
330
29
102
}
330
29
100
AcDbVisualStyle
  2
Dim
 70
    11
 71
     2
 72
     2
 73
     0
 90
        0
 40
-0.6
 41
-30.0
 62
     5
 63
     7
421
 16777215
 74
     1
 91
        4
 64
     7
 65
   257
 75
     1
175
     1
 42
1.0
 92
        8
 66
     7
 43
1.0
 76
     1
 77
     6
 78
     2
 67
     7
 79
     5
170
     0
171
     0
290
     0
174
     0
 93
        1
 44
-50.0
173
     0
291
     1
 45
0.0
1001
ACAD
1000
AcDbSavedByObjectVersion
1070
     0
  0
VISUALSTYLE
  5
41
102
{ACAD_XDICTIONARY
360
EB
102
}
102
{ACAD_REACTORS
330
29
102
}
330
29
100
AcDbVisualStyle
  2
EdgeColorOff
 70
    22
 71
     2
 72
     2
 73
     0
 90
        0
 40
-0.6
 41
-30.0
 62
     5
 63
     7
421
 16777215
 74
     1
 91
        4
 64
     7
 65
   257
 75
     1
175
     1
 42
1.0
 92
        8
 66
     7
 43
1.0
 76
     1
 77
     6
 78
     2
 67
     7
 79
     5
170
     0
171
     0
290
     0
174
     0
 93
        1
 44
0.0
173
     0
291
     1
 45
0.0
1001
ACAD
1000
AcDbSavedByObjectVersion
1070
     0
  0
VISUALSTYLE
  5
38
102
{ACAD_XDICTIONARY
360
D9
102
}
102
{ACAD_REACTORS
330
29
102
}
330
29
100
AcDbVisualStyle
  2
Facepattern
 70
    15
 71
     2
 72
     2
 73
     0
 90
        0
 40
-0.6
 41
-30.0
 62
     5
 63
     7
421
 16777215
 74
     1
 91
        4
 64
     7
 65
   257
 75
     1
175
     1
 42
1.0
 92
        8
 66
     7
 43
1.0
 76
     1
 77
     6
 78
     2
 67
     7
 79
     5
170
     0
171
     0
290
     0
174
     0
 93
        1
 44
0.0
173
     0
291
     1
 45
0.0
1001
ACAD
1000
AcDbSavedByObjectVersion
1070
     0
  0
VISUALSTYLE
  5
2A
102
{ACAD_XDICTIONARY
360
BD
102
}
102
{ACAD_REACTORS
330
29
102
}
330
29
100
AcDbVisualStyle
  2
Flat
 70
     0
 71
     2
 72
     1
 73
     1
 90
        2
 40
-0.6
 41
30.0
 62
     5
 63
     7
421
 16777215
 74
     0
 91
        0
 64
     7
 65
   257
 75
     1
175
     1
 42
1.0
 92
        8
 66
     7
 43
1.0
 76
     1
 77
     6
 78
     2
 67
     7
 79
     5
170
     0
171
     0
290
     0
174
     0
 93
       13
 44
0.0
173
     0
291
     1
 45
0.0
1001
ACAD
1000
AcDbSavedByObjectVersion
1070
     0
  0
VISUALSTYLE
  5
2B
102
{ACAD_XDICTIONARY
360
BF
102
}
102
{ACAD_REACTORS
330
29
102
}
330
29
100
AcDbVisualStyle
  2
FlatWithEdges
 70
     1
 71
     2
 72
     1
 73
     1
 90
        2
 40
-0.6
 41
30.0
 62
     5
 63
     7
421
 16777215
 74
     1
 91
        0
 64
     7
 65
   257
 75
     1
175
     1
 42
1.0
 92
        0
 66
   257
 43
1.0
 76
     1
 77
     6
 78
     2
 67
     7
 79
     5
170
     0
171
     0
290
     0
174
     0
 93
       13
 44
0.0
173
     0
291
     1
 45
0.0
1001
ACAD
1000
AcDbSavedByObjectVersion
1070
     0
  0
VISUALSTYLE
  5
2C
102
{ACAD_XDICTIONARY
360
C1
102
}
102
{ACAD_REACTORS
330
29
102
}
330
29
100
AcDbVisualStyle
  2
Gouraud
 70
     2
 71
     2
 72
     2
 73
     1
 90
        2
 40
-0.6
 41
30.0
 62
     5
 63
     7
421
 16777215
 74
     0
 91
        0
 64
     7
 65
   257
 75
     1
175
     1
 42
1.0
 92
        0
 66
     7
 43
1.0
 76
     1
 77
     6
 78
     2
 67
     7
 79
     5
170
     0
171
     0
290
     0
174
     0
 93
       13
 44
0.0
173
     0
291
     1
 45
0.0
1001
ACAD
1000
AcDbSavedByObjectVersion
1070
     0
  0
VISUALSTYLE
  5
2D
102
{ACAD_XDICTIONARY
360
C3
102
}
102
{ACAD_REACTORS
330
29
102
}
330
29
100
AcDbVisualStyle
  2
GouraudWithEdges
 70
     3
 71
     2
 72
     2
 73
     1
 90
        2
 40
-0.6
 41
30.0
 62
     5
 63
     7
421
 16777215
 74
     1
 91
        0
 64
     7
 65
   257
 75
     1
175
     1
 42
1.0
 92
        0
 66
   257
 43
1.0
 76
     1
 77
     6
 78
     2
 67
     7
 79
     5
170
     0
171
     0
290
     0
174
     0
 93
       13
 44
0.0
173
     0
291
     1
 45
0.0
1001
ACAD
1000
AcDbSavedByObjectVersion
1070
     0
  0
VISUALSTYLE
  5
31
102
{ACAD_XDICTIONARY
360
CB
102
}
102
{ACAD_REACTORS
330
29
102
}
330
29
100
AcDbVisualStyle
  2
Hidden
 70
     6
 71
     1
 72
     2
 73
     2
 90
        0
 40
-0.6
 41
-30.0
 62
     5
 63
     7
421
 16777215
 74
     2
 91
        2
 64
     7
 65
   257
 75
     2
175
     1
 42
40.0
 92
        0
 66
   257
 43
1.0
 76
     1
 77
     6
 78
     2
 67
     7
 79
     3
170
     0
171
     0
290
     0
174
     0
 93
        1
 44
0.0
173
     0
291
     0
 45
0.0
1001
ACAD
1000
AcDbSavedByObjectVersion
1070
     0
  0
VISUALSTYLE
  5
3F
102
{ACAD_XDICTIONARY
360
E7
102
}
102
{ACAD_REACTORS
330
29
102
}
330
29
100
AcDbVisualStyle
  2
JitterOff
 70
    20
 71
     2
 72
     2
 73
     0
 90
        0
 40
-0.6
 41
-30.0
 62
     5
 63
     7
421
 16777215
 74
     1
 91
        4
 64
     7
 65
   257
 75
     1
175
     1
 42
1.0
 92
       10
 66
     7
 43
1.0
 76
     1
 77
     6
 78
     2
 67
     7
 79
     5
170
     0
171
     0
290
     0
174
     0
 93
        1
 44
0.0
173
     0
291
     1
 45
0.0
1001
ACAD
1000
AcDbSavedByObjectVersion
1070
     0
  0
VISUALSTYLE
  5
37
102
{ACAD_XDICTIONARY
360
D7
102
}
102
{ACAD_REACTORS
330
29
102
}
330
29
100
AcDbVisualStyle
  2
Linepattern
 70
    14
 71
     2
 72
     2
 73
     0
 90
        0
 40
-0.6
 41
-30.0
 62
     5
 63
     7
421
 16777215
 74
     1
 91
        4
 64
     7
 65
   257
 75
     7
175
     7
 42
1.0
 92
        8
 66
     7
 43
1.0
 76
     1
 77
     6
 78
     2
 67
     7
 79
     5
170
     0
171
     0
290
     0
174
     0
 93
        1
 44
0.0
173
     0
291
     1
 45
0.0
1001
ACAD
1000
AcDbSavedByObjectVersion
1070
     0
  0
VISUALSTYLE
  5
40
102
{ACAD_XDICTIONARY
360
E9
102
}
102
{ACAD_REACTORS
330
29
102
}
330
29
100
AcDbVisualStyle
  2
OverhangOff
 70
    21
 71
     2
 72
     2
 73
     0
 90
        0
 40
-0.6
 41
-30.0
 62
     5
 63
     7
421
 16777215
 74
     1
 91
        4
 64
     7
 65
   257
 75
     1
175
     1
 42
1.0
 92
        9
 66
     7
 43
1.0
 76
     1
 77
     6
 78
     2
 67
     7
 79
     5
170
     0
171
     0
290
     0
174
     0
 93
        1
 44
0.0
173
     0
291
     1
 45
0.0
1001
ACAD
1000
AcDbSavedByObjectVersion
1070
     0
  0
VISUALSTYLE
  5
33
102
{ACAD_XDICTIONARY
360
CF
102
}
102
{ACAD_REACTORS
330
29
102
}
330
29
100
AcDbVisualStyle
  2
Realistic
 70
     8
 71
     2
 72
     3
 73
     0
 90
        2
 40
-0.6
 41
30.0
 62
     5
 63
     7
421
 16777215
 74
     0
 91
        0
 64
     7
 65
   257
 75
     1
175
     1
 42
1.0
 92
        8
 66
   257
 43
1.0
 76
     1
 77
     6
 78
     2
 67
     7
 79
     3
170
     0
171
     0
290
     0
174
     0
 93
       13
 44
0.0
173
     0
291
     0
 45
0.0
1001
ACAD
1000
AcDbSavedByObjectVersion
1070
     0
  0
VISUALSTYLE
  5
3E
102
{ACAD_XDICTIONARY
360
E5
102
}
102
{ACAD_REACTORS
330
29
102
}
330
29
100
AcDbVisualStyle
  2
Shaded
 70
    27
 71
     2
 72
     2
 73
     1
 90
        2
 40
-0.6
 41
30.0
 62
     5
 63
     7
421
 16777215
 74
     0
 91
        4
 64
     7
 65
   257
 75
     1
175
     1
 42
1.0
 92
        8
 66
   257
 43
1.0
 76
     1
 77
     6
 78
     2
 67
     8
425
  7895160
 79
     3
170
     0
171
     0
290
     0
174
     0
 93
        5
 44
0.0
173
     0
291
     0
 45
0.0
1001
ACAD
1000
AcDbSavedByObjectVersion
1070
     0
  0
VISUALSTYLE
  5
3D
102
{ACAD_XDICTIONARY
360
E3
102
}
102
{ACAD_REACTORS
330
29
102
}
330
29
100
AcDbVisualStyle
  2
Shaded with edges
 70
    26
 71
     2
 72
     2
 73
     1
 90
        2
 40
-0.6
 41
30.0
 62
     5
 63
     7
421
 16777215
 74
     1
 91
        2
 64
     7
 65
   257
 75
     2
175
     1
 42
1.0
 92
        8
 66
   257
 43
1.0
 76
     1
 77
     6
 78
     2
 67
     7
 79
     3
170
     0
171
     0
290
     0
174
     0
 93
        5
 44
0.0
173
     0
291
     0
 45
0.0
1001
ACAD
1000
AcDbSavedByObjectVersion
1070
     0
  0
VISUALSTYLE
  5
3A
102
{ACAD_XDICTIONARY
360
DD
102
}
102
{ACAD_REACTORS
330
29
102
}
330
29
100
AcDbVisualStyle
  2
Shades of Gray
 70
    23
 71
     2
 72
     2
 73
     3
 90
        0
 40
-0.6
 41
-30.0
 62
     5
 63
     7
421
 16777215
 74
     2
 91
        2
 64
     7
 65
     7
 75
     1
175
     1
 42
40.0
 92
        8
 66
     7
 43
1.0
 76
     1
 77
     6
 78
     2
 67
     7
 79
     3
170
     0
171
     0
290
     0
174
     0
 93
        1
 44
0.0
173
     0
291
     0
 45
0.0
1001
ACAD
1000
AcDbSavedByObjectVersion
1070
     0
  0
VISUALSTYLE
  5
3B
102
{ACAD_XDICTIONARY
360
DF
102
}
102
{ACAD_REACTORS
330
29
102
}
330
29
100
AcDbVisualStyle
  2
Sketchy
 70
    24
 71
     1
 72
     2
 73
     2
 90
        0
 40
-0.6
 41
-30.0
 62
     5
 63
     7
421
 16777215
 74
     2
 91
        2
 64
     7
 65
     7
 75
     1
175
     1
 42
40.0
 92
       11
 66
     7
 43
1.0
 76
     1
 77
     6
 78
     2
 67
     7
 79
     6
170
     0
171
     0
290
     0
174
     0
 93
        1
 44
0.0
173
     0
291
     0
 45
0.0
1001
ACAD
1000
AcDbSavedByObjectVersion
1070
     0
  0
VISUALSTYLE
  5
36
102
{ACAD_XDICTIONARY
360
D5
102
}
102
{ACAD_REACTORS
330
29
102
}
330
29
100
AcDbVisualStyle
  2
Thicken
 70
    13
 71
     2
 72
     2
 73
     0
 90
        0
 40
-0.6
 41
-30.0
 62
     5
 63
     7
421
 16777215
 74
     1
 91
        4
 64
     7
 65
   257
 75
     1
175
     1
 42
1.0
 92
       12
 66
     7
 43
1.0
 76
     1
 77
     6
 78
     2
 67
     7
 79
     5
170
     0
171
     0
290
     0
174
     0
 93
        1
 44
0.0
173
     0
291
     1
 45
0.0
1001
ACAD
1000
AcDbSavedByObjectVersion
1070
     0
  0
VISUALSTYLE
  5
30
102
{ACAD_XDICTIONARY
360
C9
102
}
102
{ACAD_REACTORS
330
29
102
}
330
29
100
AcDbVisualStyle
  2
Wireframe
 70
     5
 71
     0
 72
     2
 73
     0
 90
        0
 40
-0.6
 41
-30.0
 62
     5
 63
     7
421
 16777215
 74
     1
 91
        4
 64
     7
 65
   257
 75
     1
175
     1
 42
1.0
 92
        0
 66
   257
 43
1.0
 76
     1
 77
     6
 78
     2
 67
     7
 79
     3
170
     0
171
     0
290
     0
174
     0
 93
        1
 44
0.0
173
     0
291
     0
 45
0.0
1001
ACAD
1000
AcDbSavedByObjectVersion
1070
     0
  0
VISUALSTYLE
  5
3C
102
{ACAD_XDICTIONARY
360
E1
102
}
102
{ACAD_REACTORS
330
29
102
}
330
29
100
AcDbVisualStyle
  2
X-Ray
 70
    25
 71
     2
 72
     2
 73
     1
 90
        1
 40
0.5
 41
-30.0
 62
     5
 63
     7
421
 16777215
 74
     1
 91
        0
 64
     7
 65
   257
 75
     1
175
     1
 42
1.0
 92
        8
 66
     7
 43
1.0
 76
     1
 77
     6
 78
     2
 67
     7
 79
     3
170
     0
171
     0
290
     0
174
     0
 93
       13
 44
0.0
173
     0
291
     0
 45
0.0
1001
ACAD
1000
AcDbSavedByObjectVersion
1070
     0
  0
DICTIONARYVAR
  5
B8
102
{ACAD_REACTORS
330
B3
102
}
330
B3
100
DictionaryVariables
280
     0
  1
1:1
  0
DICTIONARYVAR
  5
B5
102
{ACAD_REACTORS
330
B3
102
}
330
B3
100
DictionaryVariables
280
     0
  1
STANDARD
  0
DICTIONARYVAR
  5
B4
102
{ACAD_REACTORS
330
B3
102
}
330
B3
100
DictionaryVariables
280
     0
  1
STANDARD
  0
DICTIONARYVAR
  5
B6
102
{ACAD_REACTORS
330
B3
102
}
330
B3
100
DictionaryVariables
280
     0
  1
Imperial24
  0
DICTIONARYVAR
  5
B7
102
{ACAD_REACTORS
330
B3
102
}
330
B3
100
DictionaryVariables
280
     0
  1
Imperial24
  0
DICTIONARYVAR
  5
B9
102
{ACAD_REACTORS
330
B3
102
}
330
B3
100
DictionaryVariables
280
     0
  1
2
  0
DICTIONARY
  5
F2
330
6B
100
AcDbDictionary
280
     1
281
     1
  3
ACAD_XREC_ROUNDTRIP
360
F3
  0
DICTIONARY
  5
1A
330
19
100
AcDbDictionary
280
     1
281
     1
  3
BUMPTILE
360
1C
  3
DIFFUSETILE
360
1B
  3
OPACITYTILE
360
1F
  3
REFLECTIONTILE
360
1E
  3
REFRACTIONTILE
360
20
  3
SPECULARTILE
360
1D
  0
DICTIONARY
  5
12
330
11
100
AcDbDictionary
280
     1
281
     1
  3
BUMPTILE
360
14
  3
DIFFUSETILE
360
13
  3
OPACITYTILE
360
17
  3
REFLECTIONTILE
360
16
  3
REFRACTIONTILE
360
18
  3
SPECULARTILE
360
15
  0
DICTIONARY
  5
22
330
21
100
AcDbDictionary
280
     1
281
     1
  3
BUMPTILE
360
24
  3
DIFFUSETILE
360
23
  3
OPACITYTILE
360
27
  3
REFLECTIONTILE
360
26
  3
REFRACTIONTILE
360
28
  3
SPECULARTILE
360
25
  0
DICTIONARY
  5
EE
330
67
100
AcDbDictionary
280
     1
281
     1
  3
ACAD_XREC_ROUNDTRIP
360
EF
  0
DICTIONARY
  5
F0
330
69
100
AcDbDictionary
280
     1
281
     1
  3
ACAD_XREC_ROUNDTRIP
360
F1
  0
DICTIONARY
  5
BA
330
65
100
AcDbDictionary
280
     1
281
     1
  3
ACAD_ROUNDTRIP_2008_TABLESTYLE_CELLSTYLEMAP
360
BB
  0
DICTIONARY
  5
C7
330
2F
100
AcDbDictionary
280
     1
281
     1
  3
ACAD_XREC_ROUNDTRIP
360
C8
  0
DICTIONARY
  5
C5
330
2E
100
AcDbDictionary
280
     1
281
     1
  3
ACAD_XREC_ROUNDTRIP
360
C6
  0
DICTIONARY
  5
D3
330
35
100
AcDbDictionary
280
     1
281
     1
  3
ACAD_XREC_ROUNDTRIP
360
D4
  0
DICTIONARY
  5
DB
330
39
100
AcDbDictionary
280
     1
281
     1
  3
ACAD_XREC_ROUNDTRIP
360
DC
  0
DICTIONARY
  5
CD
330
32
100
AcDbDictionary
280
     1
281
     1
  3
ACAD_XREC_ROUNDTRIP
360
CE
  0
DICTIONARY
  5
D1
330
34
100
AcDbDictionary
280
     1
281
     1
  3
ACAD_XREC_ROUNDTRIP
360
D2
  0
DICTIONARY
  5
EB
330
41
100
AcDbDictionary
280
     1
281
     1
  3
ACAD_XREC_ROUNDTRIP
360
EC
  0
DICTIONARY
  5
D9
330
38
100
AcDbDictionary
280
     1
281
     1
  3
ACAD_XREC_ROUNDTRIP
360
DA
  0
DICTIONARY
  5
BD
330
2A
100
AcDbDictionary
280
     1
281
     1
  3
ACAD_XREC_ROUNDTRIP
360
BE
  0
DICTIONARY
  5
BF
330
2B
100
AcDbDictionary
280
     1
281
     1
  3
ACAD_XREC_ROUNDTRIP
360
C0
  0
DICTIONARY
  5
C1
330
2C
100
AcDbDictionary
280
     1
281
     1
  3
ACAD_XREC_ROUNDTRIP
360
C2
  0
DICTIONARY
  5
C3
330
2D
100
AcDbDictionary
280
     1
281
     1
  3
ACAD_XREC_ROUNDTRIP
360
C4
  0
DICTIONARY
  5
CB
330
31
100
AcDbDictionary
280
     1
281
     1
  3
ACAD_XREC_ROUNDTRIP
360
CC
  0
DICTIONARY
  5
E7
330
3F
100
AcDbDictionary
280
     1
281
     1
  3
ACAD_XREC_ROUNDTRIP
360
E8
  0
DICTIONARY
  5
D7
330
37
100
AcDbDictionary
280
     1
281
     1
  3
ACAD_XREC_ROUNDTRIP
360
D8
  0
DICTIONARY
  5
E9
330
40
100
AcDbDictionary
280
     1
281
     1
  3
ACAD_XREC_ROUNDTRIP
360
EA
  0
DICTIONARY
  5
CF
330
33
100
AcDbDictionary
280
     1
281
     1
  3
ACAD_XREC_ROUNDTRIP
360
D0
  0
DICTIONARY
  5
E5
330
3E
100
AcDbDictionary
280
     1
281
     1
  3
ACAD_XREC_ROUNDTRIP
360
E6
  0
DICTIONARY
  5
E3
330
3D
100
AcDbDictionary
280
     1
281
     1
  3
ACAD_XREC_ROUNDTRIP
360
E4
  0
DICTIONARY
  5
DD
330
3A
100
AcDbDictionary
280
     1
281
     1
  3
ACAD_XREC_ROUNDTRIP
360
DE
  0
DICTIONARY
  5
DF
330
3B
100
AcDbDictionary
280
     1
281
     1
  3
ACAD_XREC_ROUNDTRIP
360
E0
  0
DICTIONARY
  5
D5
330
36
100
AcDbDictionary
280
     1
281
     1
  3
ACAD_XREC_ROUNDTRIP
360
D6
  0
DICTIONARY
  5
C9
330
30
100
AcDbDictionary
280
     1
281
     1
  3
ACAD_XREC_ROUNDTRIP
360
CA
  0
DICTIONARY
  5
E1
330
3C
100
AcDbDictionary
280
     1
281
     1
  3
ACAD_XREC_ROUNDTRIP
360
E2
  0
XRECORD
  5
F3
102
{ACAD_REACTORS
330
F2
102
}
330
F2
100
AcDbXrecord
280
     1
102
DISPLAYNAME
  1
Imperial24
102
FLAGS
 90
        0
  0
XRECORD
  5
1C
102
{ACAD_REACTORS
330
1A
102
}
330
1A
100
AcDbXrecord
280
     1
270
     1
271
     1
  0
XRECORD
  5
1B
102
{ACAD_REACTORS
330
1A
102
}
330
1A
100
AcDbXrecord
280
     1
270
     1
271
     1
  0
XRECORD
  5
1F
102
{ACAD_REACTORS
330
1A
102
}
330
1A
100
AcDbXrecord
280
     1
270
     1
271
     1
  0
XRECORD
  5
1E
102
{ACAD_REACTORS
330
1A
102
}
330
1A
100
AcDbXrecord
280
     1
270
     1
271
     1
  0
XRECORD
  5
20
102
{ACAD_REACTORS
330
1A
102
}
330
1A
100
AcDbXrecord
280
     1
270
     1
271
     1
  0
XRECORD
  5
1D
102
{ACAD_REACTORS
330
1A
102
}
330
1A
100
AcDbXrecord
280
     1
270
     1
271
     1
  0
XRECORD
  5
14
102
{ACAD_REACTORS
330
12
102
}
330
12
100
AcDbXrecord
280
     1
270
     1
271
     1
  0
XRECORD
  5
13
102
{ACAD_REACTORS
330
12
102
}
330
12
100
AcDbXrecord
280
     1
270
     1
271
     1
  0
XRECORD
  5
17
102
{ACAD_REACTORS
330
12
102
}
330
12
100
AcDbXrecord
280
     1
270
     1
271
     1
  0
XRECORD
  5
16
102
{ACAD_REACTORS
330
12
102
}
330
12
100
AcDbXrecord
280
     1
270
     1
271
     1
  0
XRECORD
  5
18
102
{ACAD_REACTORS
330
12
102
}
330
12
100
AcDbXrecord
280
     1
270
     1
271
     1
  0
XRECORD
  5
15
102
{ACAD_REACTORS
330
12
102
}
330
12
100
AcDbXrecord
280
     1
270
     1
271
     1
  0
XRECORD
  5
24
102
{ACAD_REACTORS
330
22
102
}
330
22
100
AcDbXrecord
280
     1
270
     1
271
     1
  0
XRECORD
  5
23
102
{ACAD_REACTORS
330
22
102
}
330
22
100
AcDbXrecord
280
     1
270
     1
271
     1
  0
XRECORD
  5
27
102
{ACAD_REACTORS
330
22
102
}
330
22
100
AcDbXrecord
280
     1
270
     1
271
     1
  0
XRECORD
  5
26
102
{ACAD_REACTORS
330
22
102
}
330
22
100
AcDbXrecord
280
     1
270
     1
271
     1
  0
XRECORD
  5
28
102
{ACAD_REACTORS
330
22
102
}
330
22
100
AcDbXrecord
280
     1
270
     1
271
     1
  0
XRECORD
  5
25
102
{ACAD_REACTORS
330
22
102
}
330
22
100
AcDbXrecord
280
     1
270
     1
271
     1
  0
XRECORD
  5
EF
102
{ACAD_REACTORS
330
EE
102
}
330
EE
100
AcDbXrecord
280
     1
102
ACAD_ROUNDTRIP_2012_MLEADER_STYLE
298
     1
  0
XRECORD
  5
F1
102
{ACAD_REACTORS
330
F0
102
}
330
F0
100
AcDbXrecord
280
     1
102
DISPLAYNAME
  1
Imperial24
102
FLAGS
 90
        0
  0
CELLSTYLEMAP
  5
BB
102
{ACAD_REACTORS
330
BA
102
}
330
BA
100
AcDbCellStyleMap
 90
        3
300
CELLSTYLE
  1
TABLEFORMAT_BEGIN
 90
        5
170
     1
 91
        0
 92
    32768
 62
   257
 93
        1
300
CONTENTFORMAT
  1
CONTENTFORMAT_BEGIN
 90
        0
 91
        0
 92
      512
 93
        0
300

 40
0.0
140
1.0
 94
        5
 62
     0
340
55
144
0.25
309
CONTENTFORMAT_END
171
     0
 94
        0
309
TABLEFORMAT_END
  1
CELLSTYLE_BEGIN
 90
        1
 91
        1
300
_TITLE
309
CELLSTYLE_END
300
CELLSTYLE
  1
TABLEFORMAT_BEGIN
 90
        5
170
     1
 91
        0
 92
        0
 62
   257
 93
        1
300
CONTENTFORMAT
  1
CONTENTFORMAT_BEGIN
 90
        0
 91
        0
 92
      512
 93
        0
300

 40
0.0
140
1.0
 94
        5
 62
     0
340
55
144
0.18
309
CONTENTFORMAT_END
171
     0
 94
        0
309
TABLEFORMAT_END
  1
CELLSTYLE_BEGIN
 90
        2
 91
        1
300
_HEADER
309
CELLSTYLE_END
300
CELLSTYLE
  1
TABLEFORMAT_BEGIN
 90
        5
170
     1
 91
        0
 92
        0
 62
   257
 93
        1
300
CONTENTFORMAT
  1
CONTENTFORMAT_BEGIN
 90
        0
 91
        0
 92
      512
 93
        0
300

 40
0.0
140
1.0
 94
        2
 62
     0
340
55
144
0.18
309
CONTENTFORMAT_END
171
     0
 94
        0
309
TABLEFORMAT_END
  1
CELLSTYLE_BEGIN
 90
        3
 91
        2
300
_DATA
309
CELLSTYLE_END
  0
XRECORD
  5
C8
102
{ACAD_REACTORS
330
C7
102
}
330
C7
100
AcDbXrecord
280
     1
102
RTVSPost2010Prop28
280
     1
102
RTVSPost2010PropOp28
 70
     1
102
RTVSPost2010Prop29
280
     1
102
RTVSPost2010PropOp29
 70
     1
102
RTVSPost2010Prop30
280
     0
102
RTVSPost2010PropOp30
 70
     1
102
RTVSPost2010Prop31
280
     0
102
RTVSPost2010PropOp31
 70
     1
102
RTVSPost2010Prop32
280
     0
102
RTVSPost2010PropOp32
 70
     1
102
RTVSPost2010Prop33
280
     0
102
RTVSPost2010PropOp33
 70
     1
102
RTVSPost2010Prop34
280
     0
102
RTVSPost2010PropOp34
 70
     1
102
RTVSPost2010Prop35
280
     0
102
RTVSPost2010PropOp35
 70
     1
102
RTVSPost2010Prop36
280
     0
102
RTVSPost2010PropOp36
 70
     1
102
RTVSPost2010Prop37
 90
       50
102
RTVSPost2010PropOp37
 70
     1
102
RTVSPost2010Prop38
140
0.0
102
RTVSPost2010PropOp38
 70
     1
102
RTVSPost2010Prop39
140
1.0
102
RTVSPost2010PropOp39
 70
     1
102
RTVSPost2010Prop40
 90
        0
102
RTVSPost2010PropOp40
 70
     1
102
RTVSPost2010Prop41ColorIndex
 90
       18
102
RTVSPost2010Prop41ColorRGB
 90
        0
102
RTVSPost2010PropOp41
 70
     1
102
RTVSPost2010Prop42
 90
       50
102
RTVSPost2010PropOp42
 70
     1
102
RTVSPost2010Prop43
 90
        3
102
RTVSPost2010PropOp43
 70
     1
102
RTVSPost2010Prop44ColorIndex
 90
        5
102
RTVSPost2010Prop44ColorRGB
 90
      255
102
RTVSPost2010PropOp44
 70
     1
102
RTVSPost2010Prop45
280
     0
102
RTVSPost2010PropOp45
 70
     1
102
RTVSPost2010Prop46
 90
       50
102
RTVSPost2010PropOp46
 70
     1
102
RTVSPost2010Prop47
 90
       50
102
RTVSPost2010PropOp47
 70
     1
102
RTVSPost2010Prop48
 90
       50
102
RTVSPost2010PropOp48
 70
     1
102
RTVSPost2010Prop49
280
     0
102
RTVSPost2010PropOp49
 70
     1
102
RTVSPost2010Prop50
 90
       50
102
RTVSPost2010PropOp50
 70
     1
102
RTVSPost2010Prop51ColorIndex
 90
      256
102
RTVSPost2010Prop51ColorRGB
 90
-16777216
102
RTVSPost2010PropOp51
 70
     0
102
RTVSPost2010Prop52
140
1.0
102
RTVSPost2010PropOp52
 70
     0
102
RTVSPost2010Prop53
 90
        2
102
RTVSPost2010PropOp53
 70
     1
102
RTVSPost2010Prop54
  1
strokes_ogs.tif
102
RTVSPost2010PropOp54
 70
     1
102
RTVSPost2010Prop55
280
     0
102
RTVSPost2010PropOp55
 70
     1
102
RTVSPost2010Prop56
140
1.0
102
RTVSPost2010PropOp56
 70
     1
102
RTVSPost2010Prop57
140
1.0
102
RTVSPost2010PropOp57
 70
     1
102
RTVSPropertyOp0
 70
     1
102
RTVSPropertyOp1
 70
     1
102
RTVSPropertyOp2
 70
     1
102
RTVSPropertyOp3
 70
     1
102
RTVSPropertyOp4
 70
     1
102
RTVSPropertyOp5
 70
     1
102
RTVSPropertyOp6
 70
     1
102
RTVSPropertyOp7
 70
     1
102
RTVSPropertyOp8
 70
     1
102
RTVSPropertyOp9
 70
     1
102
RTVSPropertyOp10
 70
     1
102
RTVSPropertyOp11
 70
     1
102
RTVSPropertyOp12
 70
     1
102
RTVSPropertyOp13
 70
     1
102
RTVSPropertyOp14
 70
     1
102
RTVSPropertyOp15
 70
     1
102
RTVSPropertyOp16
 70
     1
102
RTVSPropertyOp17
 70
     1
102
RTVSPropertyOp18
 70
     1
102
RTVSPropertyOp19
 70
     1
102
RTVSPropertyOp20
 70
     1
102
RTVSPropertyOp21
 70
     1
102
RTVSPropertyOp22
 70
     1
102
RTVSPropertyOp23
 70
     1
102
RTVSPropertyOp24
 70
     1
102
RTVSPropertyOp25
 70
     1
102
RTVSPropertyOp26
 70
     1
102
RTVSPropertyOp27
 70
     1
102
RTVSPropertyOp28
 70
     1
102
RTVSPropertyOp29
 70
     1
102
RTVSPropertyOp30
 70
     1
102
RTVSPropertyOp31
 70
     1
102
RTVSPropertyOp32
 70
     1
102
RTVSPropertyOp33
 70
     1
102
RTVSPropertyOp34
 70
     1
102
RTVSPropertyOp35
 70
     1
102
RTVSPropertyOp36
 70
     1
102
RTVSPropertyOp37
 70
     1
102
RTVSPropertyOp38
 70
     1
102
RTVSPropertyOp39
 70
     1
102
RTVSPropertyOp40
 70
     1
102
RTVSPropertyOp41
 70
     1
102
RTVSPropertyOp42
 70
     1
102
RTVSPropertyOp43
 70
     1
102
RTVSPropertyOp44
 70
     1
102
RTVSPropertyOp45
 70
     1
102
RTVSPropertyOp46
 70
     1
102
RTVSPropertyOp47
 70
     1
102
RTVSPropertyOp48
 70
     1
102
RTVSPropertyOp49
 70
     1
102
RTVSPropertyOp50
 70
     1
102
RTVSPropertyOp51
 70
     0
102
RTVSPropertyOp52
 70
     0
102
RTVSPropertyOp53
 70
     1
102
RTVSPropertyOp54
 70
     1
102
RTVSPropertyOp55
 70
     1
102
RTVSPropertyOp56
 70
     1
102
RTVSPropertyOp57
 70
     1
102
RTVSPropertyOp58
 70
     1
102
RTVSPropertyOp59
 70
     1
102
RTVSPropertyOp60
 70
     1
102
RTVSPropertyOp61
 70
     1
102
RTVSPropertyOp62
 70
     1
  0
XRECORD
  5
C6
102
{ACAD_REACTORS
330
C5
102
}
330
C5
100
AcDbXrecord
280
     1
102
RTVSPost2010Prop28
280
     0
102
RTVSPost2010PropOp28
 70
     1
102
RTVSPost2010Prop29
280
     1
102
RTVSPost2010PropOp29
 70
     1
102
RTVSPost2010Prop30
280
     1
102
RTVSPost2010PropOp30
 70
     1
102
RTVSPost2010Prop31
280
     0
102
RTVSPost2010PropOp31
 70
     1
102
RTVSPost2010Prop32
280
     0
102
RTVSPost2010PropOp32
 70
     1
102
RTVSPost2010Prop33
280
     0
102
RTVSPost2010PropOp33
 70
     1
102
RTVSPost2010Prop34
280
     0
102
RTVSPost2010PropOp34
 70
     1
102
RTVSPost2010Prop35
280
     0
102
RTVSPost2010PropOp35
 70
     1
102
RTVSPost2010Prop36
280
     0
102
RTVSPost2010PropOp36
 70
     1
102
RTVSPost2010Prop37
 90
       50
102
RTVSPost2010PropOp37
 70
     1
102
RTVSPost2010Prop38
140
0.0
102
RTVSPost2010PropOp38
 70
     1
102
RTVSPost2010Prop39
140
1.0
102
RTVSPost2010PropOp39
 70
     1
102
RTVSPost2010Prop40
 90
        0
102
RTVSPost2010PropOp40
 70
     1
102
RTVSPost2010Prop41ColorIndex
 90
       18
102
RTVSPost2010Prop41ColorRGB
 90
        0
102
RTVSPost2010PropOp41
 70
     1
102
RTVSPost2010Prop42
 90
       50
102
RTVSPost2010PropOp42
 70
     1
102
RTVSPost2010Prop43
 90
        3
102
RTVSPost2010PropOp43
 70
     1
102
RTVSPost2010Prop44ColorIndex
 90
        5
102
RTVSPost2010Prop44ColorRGB
 90
      255
102
RTVSPost2010PropOp44
 70
     1
102
RTVSPost2010Prop45
280
     0
102
RTVSPost2010PropOp45
 70
     1
102
RTVSPost2010Prop46
 90
       50
102
RTVSPost2010PropOp46
 70
     1
102
RTVSPost2010Prop47
 90
       50
102
RTVSPost2010PropOp47
 70
     1
102
RTVSPost2010Prop48
 90
       50
102
RTVSPost2010PropOp48
 70
     1
102
RTVSPost2010Prop49
280
     0
102
RTVSPost2010PropOp49
 70
     1
102
RTVSPost2010Prop50
 90
       50
102
RTVSPost2010PropOp50
 70
     1
102
RTVSPost2010Prop51ColorIndex
 90
      256
102
RTVSPost2010Prop51ColorRGB
 90
-16777216
102
RTVSPost2010PropOp51
 70
     0
102
RTVSPost2010Prop52
140
1.0
102
RTVSPost2010PropOp52
 70
     0
102
RTVSPost2010Prop53
 90
        2
102
RTVSPost2010PropOp53
 70
     1
102
RTVSPost2010Prop54
  1
strokes_ogs.tif
102
RTVSPost2010PropOp54
 70
     1
102
RTVSPost2010Prop55
280
     0
102
RTVSPost2010PropOp55
 70
     1
102
RTVSPost2010Prop56
140
1.0
102
RTVSPost2010PropOp56
 70
     1
102
RTVSPost2010Prop57
140
1.0
102
RTVSPost2010PropOp57
 70
     1
102
RTVSPropertyOp0
 70
     1
102
RTVSPropertyOp1
 70
     1
102
RTVSPropertyOp2
 70
     1
102
RTVSPropertyOp3
 70
     1
102
RTVSPropertyOp4
 70
     1
102
RTVSPropertyOp5
 70
     1
102
RTVSPropertyOp6
 70
     1
102
RTVSPropertyOp7
 70
     1
102
RTVSPropertyOp8
 70
     1
102
RTVSPropertyOp9
 70
     1
102
RTVSPropertyOp10
 70
     1
102
RTVSPropertyOp11
 70
     1
102
RTVSPropertyOp12
 70
     1
102
RTVSPropertyOp13
 70
     1
102
RTVSPropertyOp14
 70
     1
102
RTVSPropertyOp15
 70
     1
102
RTVSPropertyOp16
 70
     1
102
RTVSPropertyOp17
 70
     1
102
RTVSPropertyOp18
 70
     1
102
RTVSPropertyOp19
 70
     1
102
RTVSPropertyOp20
 70
     1
102
RTVSPropertyOp21
 70
     1
102
RTVSPropertyOp22
 70
     1
102
RTVSPropertyOp23
 70
     1
102
RTVSPropertyOp24
 70
     1
102
RTVSPropertyOp25
 70
     1
102
RTVSPropertyOp26
 70
     1
102
RTVSPropertyOp27
 70
     1
102
RTVSPropertyOp28
 70
     1
102
RTVSPropertyOp29
 70
     1
102
RTVSPropertyOp30
 70
     1
102
RTVSPropertyOp31
 70
     1
102
RTVSPropertyOp32
 70
     1
102
RTVSPropertyOp33
 70
     1
102
RTVSPropertyOp34
 70
     1
102
RTVSPropertyOp35
 70
     1
102
RTVSPropertyOp36
 70
     1
102
RTVSPropertyOp37
 70
     1
102
RTVSPropertyOp38
 70
     1
102
RTVSPropertyOp39
 70
     1
102
RTVSPropertyOp40
 70
     1
102
RTVSPropertyOp41
 70
     1
102
RTVSPropertyOp42
 70
     1
102
RTVSPropertyOp43
 70
     1
102
RTVSPropertyOp44
 70
     1
102
RTVSPropertyOp45
 70
     1
102
RTVSPropertyOp46
 70
     1
102
RTVSPropertyOp47
 70
     1
102
RTVSPropertyOp48
 70
     1
102
RTVSPropertyOp49
 70
     1
102
RTVSPropertyOp50
 70
     1
102
RTVSPropertyOp51
 70
     0
102
RTVSPropertyOp52
 70
     0
102
RTVSPropertyOp53
 70
     1
102
RTVSPropertyOp54
 70
     1
102
RTVSPropertyOp55
 70
     1
102
RTVSPropertyOp56
 70
     1
102
RTVSPropertyOp57
 70
     1
102
RTVSPropertyOp58
 70
     1
102
RTVSPropertyOp59
 70
     1
102
RTVSPropertyOp60
 70
     1
102
RTVSPropertyOp61
 70
     1
102
RTVSPropertyOp62
 70
     1
  0
XRECORD
  5
D4
102
{ACAD_REACTORS
330
D3
102
}
330
D3
100
AcDbXrecord
280
     1
102
RTVSPost2010Prop28
280
     0
102
RTVSPost2010PropOp28
 70
     1
102
RTVSPost2010Prop29
280
     1
102
RTVSPost2010PropOp29
 70
     1
102
RTVSPost2010Prop30
280
     1
102
RTVSPost2010PropOp30
 70
     1
102
RTVSPost2010Prop31
280
     0
102
RTVSPost2010PropOp31
 70
     1
102
RTVSPost2010Prop32
280
     0
102
RTVSPost2010PropOp32
 70
     1
102
RTVSPost2010Prop33
280
     0
102
RTVSPost2010PropOp33
 70
     1
102
RTVSPost2010Prop34
280
     0
102
RTVSPost2010PropOp34
 70
     1
102
RTVSPost2010Prop35
280
     0
102
RTVSPost2010PropOp35
 70
     1
102
RTVSPost2010Prop36
280
     0
102
RTVSPost2010PropOp36
 70
     1
102
RTVSPost2010Prop37
 90
       50
102
RTVSPost2010PropOp37
 70
     1
102
RTVSPost2010Prop38
140
0.0
102
RTVSPost2010PropOp38
 70
     1
102
RTVSPost2010Prop39
140
1.0
102
RTVSPost2010PropOp39
 70
     1
102
RTVSPost2010Prop40
 90
        0
102
RTVSPost2010PropOp40
 70
     1
102
RTVSPost2010Prop41ColorIndex
 90
       18
102
RTVSPost2010Prop41ColorRGB
 90
        0
102
RTVSPost2010PropOp41
 70
     1
102
RTVSPost2010Prop42
 90
       50
102
RTVSPost2010PropOp42
 70
     1
102
RTVSPost2010Prop43
 90
        3
102
RTVSPost2010PropOp43
 70
     1
102
RTVSPost2010Prop44ColorIndex
 90
        5
102
RTVSPost2010Prop44ColorRGB
 90
      255
102
RTVSPost2010PropOp44
 70
     1
102
RTVSPost2010Prop45
280
     0
102
RTVSPost2010PropOp45
 70
     1
102
RTVSPost2010Prop46
 90
       50
102
RTVSPost2010PropOp46
 70
     1
102
RTVSPost2010Prop47
 90
       50
102
RTVSPost2010PropOp47
 70
     1
102
RTVSPost2010Prop48
 90
       50
102
RTVSPost2010PropOp48
 70
     1
102
RTVSPost2010Prop49
280
     0
102
RTVSPost2010PropOp49
 70
     1
102
RTVSPost2010Prop50
 90
       50
102
RTVSPost2010PropOp50
 70
     1
102
RTVSPost2010Prop51ColorIndex
 90
      256
102
RTVSPost2010Prop51ColorRGB
 90
-16777216
102
RTVSPost2010PropOp51
 70
     0
102
RTVSPost2010Prop52
140
1.0
102
RTVSPost2010PropOp52
 70
     0
102
RTVSPost2010Prop53
 90
        2
102
RTVSPost2010PropOp53
 70
     1
102
RTVSPost2010Prop54
  1
strokes_ogs.tif
102
RTVSPost2010PropOp54
 70
     1
102
RTVSPost2010Prop55
280
     0
102
RTVSPost2010PropOp55
 70
     1
102
RTVSPost2010Prop56
140
1.0
102
RTVSPost2010PropOp56
 70
     1
102
RTVSPost2010Prop57
140
1.0
102
RTVSPost2010PropOp57
 70
     1
102
RTVSPropertyOp0
 70
     1
102
RTVSPropertyOp1
 70
     1
102
RTVSPropertyOp2
 70
     1
102
RTVSPropertyOp3
 70
     1
102
RTVSPropertyOp4
 70
     1
102
RTVSPropertyOp5
 70
     1
102
RTVSPropertyOp6
 70
     1
102
RTVSPropertyOp7
 70
     1
102
RTVSPropertyOp8
 70
     1
102
RTVSPropertyOp9
 70
     1
102
RTVSPropertyOp10
 70
     1
102
RTVSPropertyOp11
 70
     1
102
RTVSPropertyOp12
 70
     1
102
RTVSPropertyOp13
 70
     1
102
RTVSPropertyOp14
 70
     1
102
RTVSPropertyOp15
 70
     1
102
RTVSPropertyOp16
 70
     1
102
RTVSPropertyOp17
 70
     1
102
RTVSPropertyOp18
 70
     1
102
RTVSPropertyOp19
 70
     1
102
RTVSPropertyOp20
 70
     1
102
RTVSPropertyOp21
 70
     1
102
RTVSPropertyOp22
 70
     1
102
RTVSPropertyOp23
 70
     1
102
RTVSPropertyOp24
 70
     1
102
RTVSPropertyOp25
 70
     1
102
RTVSPropertyOp26
 70
     1
102
RTVSPropertyOp27
 70
     1
102
RTVSPropertyOp28
 70
     1
102
RTVSPropertyOp29
 70
     1
102
RTVSPropertyOp30
 70
     1
102
RTVSPropertyOp31
 70
     1
102
RTVSPropertyOp32
 70
     1
102
RTVSPropertyOp33
 70
     1
102
RTVSPropertyOp34
 70
     1
102
RTVSPropertyOp35
 70
     1
102
RTVSPropertyOp36
 70
     1
102
RTVSPropertyOp37
 70
     1
102
RTVSPropertyOp38
 70
     1
102
RTVSPropertyOp39
 70
     1
102
RTVSPropertyOp40
 70
     1
102
RTVSPropertyOp41
 70
     1
102
RTVSPropertyOp42
 70
     1
102
RTVSPropertyOp43
 70
     1
102
RTVSPropertyOp44
 70
     1
102
RTVSPropertyOp45
 70
     1
102
RTVSPropertyOp46
 70
     1
102
RTVSPropertyOp47
 70
     1
102
RTVSPropertyOp48
 70
     1
102
RTVSPropertyOp49
 70
     1
102
RTVSPropertyOp50
 70
     1
102
RTVSPropertyOp51
 70
     0
102
RTVSPropertyOp52
 70
     0
102
RTVSPropertyOp53
 70
     1
102
RTVSPropertyOp54
 70
     1
102
RTVSPropertyOp55
 70
     1
102
RTVSPropertyOp56
 70
     1
102
RTVSPropertyOp57
 70
     1
102
RTVSPropertyOp58
 70
     1
102
RTVSPropertyOp59
 70
     1
102
RTVSPropertyOp60
 70
     1
102
RTVSPropertyOp61
 70
     1
102
RTVSPropertyOp62
 70
     1
  0
XRECORD
  5
DC
102
{ACAD_REACTORS
330
DB
102
}
330
DB
100
AcDbXrecord
280
     1
102
RTVSPost2010Prop28
280
     0
102
RTVSPost2010PropOp28
 70
     1
102
RTVSPost2010Prop29
280
     1
102
RTVSPost2010PropOp29
 70
     1
102
RTVSPost2010Prop30
280
     1
102
RTVSPost2010PropOp30
 70
     1
102
RTVSPost2010Prop31
280
     0
102
RTVSPost2010PropOp31
 70
     1
102
RTVSPost2010Prop32
280
     0
102
RTVSPost2010PropOp32
 70
     1
102
RTVSPost2010Prop33
280
     0
102
RTVSPost2010PropOp33
 70
     1
102
RTVSPost2010Prop34
280
     0
102
RTVSPost2010PropOp34
 70
     1
102
RTVSPost2010Prop35
280
     0
102
RTVSPost2010PropOp35
 70
     1
102
RTVSPost2010Prop36
280
     0
102
RTVSPost2010PropOp36
 70
     1
102
RTVSPost2010Prop37
 90
       50
102
RTVSPost2010PropOp37
 70
     1
102
RTVSPost2010Prop38
140
0.0
102
RTVSPost2010PropOp38
 70
     1
102
RTVSPost2010Prop39
140
1.0
102
RTVSPost2010PropOp39
 70
     1
102
RTVSPost2010Prop40
 90
        0
102
RTVSPost2010PropOp40
 70
     1
102
RTVSPost2010Prop41ColorIndex
 90
       18
102
RTVSPost2010Prop41ColorRGB
 90
        0
102
RTVSPost2010PropOp41
 70
     1
102
RTVSPost2010Prop42
 90
       50
102
RTVSPost2010PropOp42
 70
     1
102
RTVSPost2010Prop43
 90
        3
102
RTVSPost2010PropOp43
 70
     1
102
RTVSPost2010Prop44ColorIndex
 90
        5
102
RTVSPost2010Prop44ColorRGB
 90
      255
102
RTVSPost2010PropOp44
 70
     1
102
RTVSPost2010Prop45
280
     0
102
RTVSPost2010PropOp45
 70
     1
102
RTVSPost2010Prop46
 90
       50
102
RTVSPost2010PropOp46
 70
     1
102
RTVSPost2010Prop47
 90
       50
102
RTVSPost2010PropOp47
 70
     1
102
RTVSPost2010Prop48
 90
       50
102
RTVSPost2010PropOp48
 70
     1
102
RTVSPost2010Prop49
280
     0
102
RTVSPost2010PropOp49
 70
     1
102
RTVSPost2010Prop50
 90
       50
102
RTVSPost2010PropOp50
 70
     1
102
RTVSPost2010Prop51ColorIndex
 90
      256
102
RTVSPost2010Prop51ColorRGB
 90
-16777216
102
RTVSPost2010PropOp51
 70
     0
102
RTVSPost2010Prop52
140
1.0
102
RTVSPost2010PropOp52
 70
     0
102
RTVSPost2010Prop53
 90
        2
102
RTVSPost2010PropOp53
 70
     1
102
RTVSPost2010Prop54
  1
strokes_ogs.tif
102
RTVSPost2010PropOp54
 70
     1
102
RTVSPost2010Prop55
280
     0
102
RTVSPost2010PropOp55
 70
     1
102
RTVSPost2010Prop56
140
1.0
102
RTVSPost2010PropOp56
 70
     1
102
RTVSPost2010Prop57
140
1.0
102
RTVSPost2010PropOp57
 70
     1
102
RTVSPropertyOp0
 70
     1
102
RTVSPropertyOp1
 70
     1
102
RTVSPropertyOp2
 70
     1
102
RTVSPropertyOp3
 70
     1
102
RTVSPropertyOp4
 70
     1
102
RTVSPropertyOp5
 70
     1
102
RTVSPropertyOp6
 70
     1
102
RTVSPropertyOp7
 70
     1
102
RTVSPropertyOp8
 70
     1
102
RTVSPropertyOp9
 70
     1
102
RTVSPropertyOp10
 70
     1
102
RTVSPropertyOp11
 70
     1
102
RTVSPropertyOp12
 70
     1
102
RTVSPropertyOp13
 70
     1
102
RTVSPropertyOp14
 70
     1
102
RTVSPropertyOp15
 70
     1
102
RTVSPropertyOp16
 70
     1
102
RTVSPropertyOp17
 70
     1
102
RTVSPropertyOp18
 70
     1
102
RTVSPropertyOp19
 70
     1
102
RTVSPropertyOp20
 70
     1
102
RTVSPropertyOp21
 70
     1
102
RTVSPropertyOp22
 70
     1
102
RTVSPropertyOp23
 70
     1
102
RTVSPropertyOp24
 70
     1
102
RTVSPropertyOp25
 70
     1
102
RTVSPropertyOp26
 70
     1
102
RTVSPropertyOp27
 70
     1
102
RTVSPropertyOp28
 70
     1
102
RTVSPropertyOp29
 70
     1
102
RTVSPropertyOp30
 70
     1
102
RTVSPropertyOp31
 70
     1
102
RTVSPropertyOp32
 70
     1
102
RTVSPropertyOp33
 70
     1
102
RTVSPropertyOp34
 70
     1
102
RTVSPropertyOp35
 70
     1
102
RTVSPropertyOp36
 70
     1
102
RTVSPropertyOp37
 70
     1
102
RTVSPropertyOp38
 70
     1
102
RTVSPropertyOp39
 70
     1
102
RTVSPropertyOp40
 70
     1
102
RTVSPropertyOp41
 70
     1
102
RTVSPropertyOp42
 70
     1
102
RTVSPropertyOp43
 70
     1
102
RTVSPropertyOp44
 70
     1
102
RTVSPropertyOp45
 70
     1
102
RTVSPropertyOp46
 70
     1
102
RTVSPropertyOp47
 70
     1
102
RTVSPropertyOp48
 70
     1
102
RTVSPropertyOp49
 70
     1
102
RTVSPropertyOp50
 70
     1
102
RTVSPropertyOp51
 70
     0
102
RTVSPropertyOp52
 70
     0
102
RTVSPropertyOp53
 70
     1
102
RTVSPropertyOp54
 70
     1
102
RTVSPropertyOp55
 70
     1
102
RTVSPropertyOp56
 70
     1
102
RTVSPropertyOp57
 70
     1
102
RTVSPropertyOp58
 70
     1
102
RTVSPropertyOp59
 70
     1
102
RTVSPropertyOp60
 70
     1
102
RTVSPropertyOp61
 70
     1
102
RTVSPropertyOp62
 70
     1
  0
XRECORD
  5
CE
102
{ACAD_REACTORS
330
CD
102
}
330
CD
100
AcDbXrecord
280
     1
102
RTVSPost2010Prop28
280
     0
102
RTVSPost2010PropOp28
 70
     1
102
RTVSPost2010Prop29
280
     1
102
RTVSPost2010PropOp29
 70
     1
102
RTVSPost2010Prop30
280
     1
102
RTVSPost2010PropOp30
 70
     1
102
RTVSPost2010Prop31
280
     0
102
RTVSPost2010PropOp31
 70
     1
102
RTVSPost2010Prop32
280
     0
102
RTVSPost2010PropOp32
 70
     1
102
RTVSPost2010Prop33
280
     0
102
RTVSPost2010PropOp33
 70
     1
102
RTVSPost2010Prop34
280
     0
102
RTVSPost2010PropOp34
 70
     1
102
RTVSPost2010Prop35
280
     0
102
RTVSPost2010PropOp35
 70
     1
102
RTVSPost2010Prop36
280
     0
102
RTVSPost2010PropOp36
 70
     1
102
RTVSPost2010Prop37
 90
       50
102
RTVSPost2010PropOp37
 70
     1
102
RTVSPost2010Prop38
140
0.0
102
RTVSPost2010PropOp38
 70
     1
102
RTVSPost2010Prop39
140
1.0
102
RTVSPost2010PropOp39
 70
     1
102
RTVSPost2010Prop40
 90
        0
102
RTVSPost2010PropOp40
 70
     1
102
RTVSPost2010Prop41ColorIndex
 90
       18
102
RTVSPost2010Prop41ColorRGB
 90
        0
102
RTVSPost2010PropOp41
 70
     1
102
RTVSPost2010Prop42
 90
       50
102
RTVSPost2010PropOp42
 70
     1
102
RTVSPost2010Prop43
 90
        3
102
RTVSPost2010PropOp43
 70
     1
102
RTVSPost2010Prop44ColorIndex
 90
        5
102
RTVSPost2010Prop44ColorRGB
 90
      255
102
RTVSPost2010PropOp44
 70
     1
102
RTVSPost2010Prop45
280
     0
102
RTVSPost2010PropOp45
 70
     1
102
RTVSPost2010Prop46
 90
       50
102
RTVSPost2010PropOp46
 70
     1
102
RTVSPost2010Prop47
 90
       50
102
RTVSPost2010PropOp47
 70
     1
102
RTVSPost2010Prop48
 90
       50
102
RTVSPost2010PropOp48
 70
     1
102
RTVSPost2010Prop49
280
     0
102
RTVSPost2010PropOp49
 70
     1
102
RTVSPost2010Prop50
 90
       50
102
RTVSPost2010PropOp50
 70
     1
102
RTVSPost2010Prop51ColorIndex
 90
      256
102
RTVSPost2010Prop51ColorRGB
 90
-16777216
102
RTVSPost2010PropOp51
 70
     0
102
RTVSPost2010Prop52
140
1.0
102
RTVSPost2010PropOp52
 70
     0
102
RTVSPost2010Prop53
 90
        2
102
RTVSPost2010PropOp53
 70
     1
102
RTVSPost2010Prop54
  1
strokes_ogs.tif
102
RTVSPost2010PropOp54
 70
     1
102
RTVSPost2010Prop55
280
     0
102
RTVSPost2010PropOp55
 70
     1
102
RTVSPost2010Prop56
140
1.0
102
RTVSPost2010PropOp56
 70
     1
102
RTVSPost2010Prop57
140
1.0
102
RTVSPost2010PropOp57
 70
     1
102
RTVSPropertyOp0
 70
     1
102
RTVSPropertyOp1
 70
     1
102
RTVSPropertyOp2
 70
     1
102
RTVSPropertyOp3
 70
     1
102
RTVSPropertyOp4
 70
     1
102
RTVSPropertyOp5
 70
     1
102
RTVSPropertyOp6
 70
     1
102
RTVSPropertyOp7
 70
     1
102
RTVSPropertyOp8
 70
     1
102
RTVSPropertyOp9
 70
     1
102
RTVSPropertyOp10
 70
     1
102
RTVSPropertyOp11
 70
     1
102
RTVSPropertyOp12
 70
     1
102
RTVSPropertyOp13
 70
     1
102
RTVSPropertyOp14
 70
     1
102
RTVSPropertyOp15
 70
     1
102
RTVSPropertyOp16
 70
     1
102
RTVSPropertyOp17
 70
     1
102
RTVSPropertyOp18
 70
     1
102
RTVSPropertyOp19
 70
     1
102
RTVSPropertyOp20
 70
     1
102
RTVSPropertyOp21
 70
     1
102
RTVSPropertyOp22
 70
     1
102
RTVSPropertyOp23
 70
     1
102
RTVSPropertyOp24
 70
     1
102
RTVSPropertyOp25
 70
     1
102
RTVSPropertyOp26
 70
     1
102
RTVSPropertyOp27
 70
     1
102
RTVSPropertyOp28
 70
     1
102
RTVSPropertyOp29
 70
     1
102
RTVSPropertyOp30
 70
     1
102
RTVSPropertyOp31
 70
     1
102
RTVSPropertyOp32
 70
     1
102
RTVSPropertyOp33
 70
     1
102
RTVSPropertyOp34
 70
     1
102
RTVSPropertyOp35
 70
     1
102
RTVSPropertyOp36
 70
     1
102
RTVSPropertyOp37
 70
     1
102
RTVSPropertyOp38
 70
     1
102
RTVSPropertyOp39
 70
     1
102
RTVSPropertyOp40
 70
     1
102
RTVSPropertyOp41
 70
     1
102
RTVSPropertyOp42
 70
     1
102
RTVSPropertyOp43
 70
     1
102
RTVSPropertyOp44
 70
     1
102
RTVSPropertyOp45
 70
     1
102
RTVSPropertyOp46
 70
     1
102
RTVSPropertyOp47
 70
     1
102
RTVSPropertyOp48
 70
     1
102
RTVSPropertyOp49
 70
     1
102
RTVSPropertyOp50
 70
     1
102
RTVSPropertyOp51
 70
     0
102
RTVSPropertyOp52
 70
     0
102
RTVSPropertyOp53
 70
     1
102
RTVSPropertyOp54
 70
     1
102
RTVSPropertyOp55
 70
     1
102
RTVSPropertyOp56
 70
     1
102
RTVSPropertyOp57
 70
     1
102
RTVSPropertyOp58
 70
     1
102
RTVSPropertyOp59
 70
     1
102
RTVSPropertyOp60
 70
     1
102
RTVSPropertyOp61
 70
     1
102
RTVSPropertyOp62
 70
     1
  0
XRECORD
  5
D2
102
{ACAD_REACTORS
330
D1
102
}
330
D1
100
AcDbXrecord
280
     1
102
RTVSPost2010Prop28
280
     0
102
RTVSPost2010PropOp28
 70
     1
102
RTVSPost2010Prop29
280
     1
102
RTVSPost2010PropOp29
 70
     1
102
RTVSPost2010Prop30
280
     1
102
RTVSPost2010PropOp30
 70
     1
102
RTVSPost2010Prop31
280
     0
102
RTVSPost2010PropOp31
 70
     1
102
RTVSPost2010Prop32
280
     0
102
RTVSPost2010PropOp32
 70
     1
102
RTVSPost2010Prop33
280
     0
102
RTVSPost2010PropOp33
 70
     1
102
RTVSPost2010Prop34
280
     0
102
RTVSPost2010PropOp34
 70
     1
102
RTVSPost2010Prop35
280
     0
102
RTVSPost2010PropOp35
 70
     1
102
RTVSPost2010Prop36
280
     0
102
RTVSPost2010PropOp36
 70
     1
102
RTVSPost2010Prop37
 90
       50
102
RTVSPost2010PropOp37
 70
     1
102
RTVSPost2010Prop38
140
0.0
102
RTVSPost2010PropOp38
 70
     1
102
RTVSPost2010Prop39
140
1.0
102
RTVSPost2010PropOp39
 70
     1
102
RTVSPost2010Prop40
 90
        0
102
RTVSPost2010PropOp40
 70
     1
102
RTVSPost2010Prop41ColorIndex
 90
       18
102
RTVSPost2010Prop41ColorRGB
 90
        0
102
RTVSPost2010PropOp41
 70
     1
102
RTVSPost2010Prop42
 90
       50
102
RTVSPost2010PropOp42
 70
     1
102
RTVSPost2010Prop43
 90
        3
102
RTVSPost2010PropOp43
 70
     1
102
RTVSPost2010Prop44ColorIndex
 90
        5
102
RTVSPost2010Prop44ColorRGB
 90
      255
102
RTVSPost2010PropOp44
 70
     1
102
RTVSPost2010Prop45
280
     0
102
RTVSPost2010PropOp45
 70
     1
102
RTVSPost2010Prop46
 90
       50
102
RTVSPost2010PropOp46
 70
     1
102
RTVSPost2010Prop47
 90
       50
102
RTVSPost2010PropOp47
 70
     1
102
RTVSPost2010Prop48
 90
       50
102
RTVSPost2010PropOp48
 70
     1
102
RTVSPost2010Prop49
280
     0
102
RTVSPost2010PropOp49
 70
     1
102
RTVSPost2010Prop50
 90
       50
102
RTVSPost2010PropOp50
 70
     1
102
RTVSPost2010Prop51ColorIndex
 90
      256
102
RTVSPost2010Prop51ColorRGB
 90
-16777216
102
RTVSPost2010PropOp51
 70
     0
102
RTVSPost2010Prop52
140
1.0
102
RTVSPost2010PropOp52
 70
     0
102
RTVSPost2010Prop53
 90
        2
102
RTVSPost2010PropOp53
 70
     1
102
RTVSPost2010Prop54
  1
strokes_ogs.tif
102
RTVSPost2010PropOp54
 70
     1
102
RTVSPost2010Prop55
280
     0
102
RTVSPost2010PropOp55
 70
     1
102
RTVSPost2010Prop56
140
1.0
102
RTVSPost2010PropOp56
 70
     1
102
RTVSPost2010Prop57
140
1.0
102
RTVSPost2010PropOp57
 70
     1
102
RTVSPropertyOp0
 70
     1
102
RTVSPropertyOp1
 70
     1
102
RTVSPropertyOp2
 70
     1
102
RTVSPropertyOp3
 70
     1
102
RTVSPropertyOp4
 70
     1
102
RTVSPropertyOp5
 70
     1
102
RTVSPropertyOp6
 70
     1
102
RTVSPropertyOp7
 70
     1
102
RTVSPropertyOp8
 70
     1
102
RTVSPropertyOp9
 70
     1
102
RTVSPropertyOp10
 70
     1
102
RTVSPropertyOp11
 70
     1
102
RTVSPropertyOp12
 70
     1
102
RTVSPropertyOp13
 70
     1
102
RTVSPropertyOp14
 70
     1
102
RTVSPropertyOp15
 70
     1
102
RTVSPropertyOp16
 70
     1
102
RTVSPropertyOp17
 70
     1
102
RTVSPropertyOp18
 70
     1
102
RTVSPropertyOp19
 70
     1
102
RTVSPropertyOp20
 70
     1
102
RTVSPropertyOp21
 70
     1
102
RTVSPropertyOp22
 70
     1
102
RTVSPropertyOp23
 70
     1
102
RTVSPropertyOp24
 70
     1
102
RTVSPropertyOp25
 70
     1
102
RTVSPropertyOp26
 70
     1
102
RTVSPropertyOp27
 70
     1
102
RTVSPropertyOp28
 70
     1
102
RTVSPropertyOp29
 70
     1
102
RTVSPropertyOp30
 70
     1
102
RTVSPropertyOp31
 70
     1
102
RTVSPropertyOp32
 70
     1
102
RTVSPropertyOp33
 70
     1
102
RTVSPropertyOp34
 70
     1
102
RTVSPropertyOp35
 70
     1
102
RTVSPropertyOp36
 70
     1
102
RTVSPropertyOp37
 70
     1
102
RTVSPropertyOp38
 70
     1
102
RTVSPropertyOp39
 70
     1
102
RTVSPropertyOp40
 70
     1
102
RTVSPropertyOp41
 70
     1
102
RTVSPropertyOp42
 70
     1
102
RTVSPropertyOp43
 70
     1
102
RTVSPropertyOp44
 70
     1
102
RTVSPropertyOp45
 70
     1
102
RTVSPropertyOp46
 70
     1
102
RTVSPropertyOp47
 70
     1
102
RTVSPropertyOp48
 70
     1
102
RTVSPropertyOp49
 70
     1
102
RTVSPropertyOp50
 70
     1
102
RTVSPropertyOp51
 70
     0
102
RTVSPropertyOp52
 70
     0
102
RTVSPropertyOp53
 70
     1
102
RTVSPropertyOp54
 70
     1
102
RTVSPropertyOp55
 70
     1
102
RTVSPropertyOp56
 70
     1
102
RTVSPropertyOp57
 70
     1
102
RTVSPropertyOp58
 70
     1
102
RTVSPropertyOp59
 70
     1
102
RTVSPropertyOp60
 70
     1
102
RTVSPropertyOp61
 70
     1
102
RTVSPropertyOp62
 70
     1
  0
XRECORD
  5
EC
102
{ACAD_REACTORS
330
EB
102
}
330
EB
100
AcDbXrecord
280
     1
102
RTVSPost2010Prop28
280
     0
102
RTVSPost2010PropOp28
 70
     0
102
RTVSPost2010Prop29
280
     1
102
RTVSPost2010PropOp29
 70
     0
102
RTVSPost2010Prop30
280
     1
102
RTVSPost2010PropOp30
 70
     0
102
RTVSPost2010Prop31
280
     0
102
RTVSPost2010PropOp31
 70
     0
102
RTVSPost2010Prop32
280
     0
102
RTVSPost2010PropOp32
 70
     0
102
RTVSPost2010Prop33
280
     0
102
RTVSPost2010PropOp33
 70
     0
102
RTVSPost2010Prop34
280
     0
102
RTVSPost2010PropOp34
 70
     0
102
RTVSPost2010Prop35
280
     0
102
RTVSPost2010PropOp35
 70
     0
102
RTVSPost2010Prop36
280
     0
102
RTVSPost2010PropOp36
 70
     0
102
RTVSPost2010Prop37
 90
       50
102
RTVSPost2010PropOp37
 70
     0
102
RTVSPost2010Prop38
140
0.0
102
RTVSPost2010PropOp38
 70
     0
102
RTVSPost2010Prop39
140
1.0
102
RTVSPost2010PropOp39
 70
     0
102
RTVSPost2010Prop40
 90
        0
102
RTVSPost2010PropOp40
 70
     0
102
RTVSPost2010Prop41ColorIndex
 90
       18
102
RTVSPost2010Prop41ColorRGB
 90
        0
102
RTVSPost2010PropOp41
 70
     0
102
RTVSPost2010Prop42
 90
       50
102
RTVSPost2010PropOp42
 70
     0
102
RTVSPost2010Prop43
 90
        3
102
RTVSPost2010PropOp43
 70
     0
102
RTVSPost2010Prop44ColorIndex
 90
        5
102
RTVSPost2010Prop44ColorRGB
 90
      255
102
RTVSPost2010PropOp44
 70
     0
102
RTVSPost2010Prop45
280
     0
102
RTVSPost2010PropOp45
 70
     0
102
RTVSPost2010Prop46
 90
       50
102
RTVSPost2010PropOp46
 70
     0
102
RTVSPost2010Prop47
 90
       50
102
RTVSPost2010PropOp47
 70
     0
102
RTVSPost2010Prop48
 90
       50
102
RTVSPost2010PropOp48
 70
     0
102
RTVSPost2010Prop49
280
     0
102
RTVSPost2010PropOp49
 70
     0
102
RTVSPost2010Prop50
 90
       50
102
RTVSPost2010PropOp50
 70
     0
102
RTVSPost2010Prop51ColorIndex
 90
      256
102
RTVSPost2010Prop51ColorRGB
 90
-16777216
102
RTVSPost2010PropOp51
 70
     0
102
RTVSPost2010Prop52
140
1.0
102
RTVSPost2010PropOp52
 70
     0
102
RTVSPost2010Prop53
 90
        2
102
RTVSPost2010PropOp53
 70
     0
102
RTVSPost2010Prop54
  1
strokes_ogs.tif
102
RTVSPost2010PropOp54
 70
     0
102
RTVSPost2010Prop55
280
     0
102
RTVSPost2010PropOp55
 70
     0
102
RTVSPost2010Prop56
140
1.0
102
RTVSPost2010PropOp56
 70
     0
102
RTVSPost2010Prop57
140
1.0
102
RTVSPost2010PropOp57
 70
     0
102
RTVSPropertyOp0
 70
     0
102
RTVSPropertyOp1
 70
     0
102
RTVSPropertyOp2
 70
     0
102
RTVSPropertyOp3
 70
     0
102
RTVSPropertyOp4
 70
     0
102
RTVSPropertyOp5
 70
     0
102
RTVSPropertyOp6
 70
     0
102
RTVSPropertyOp7
 70
     0
102
RTVSPropertyOp8
 70
     0
102
RTVSPropertyOp9
 70
     0
102
RTVSPropertyOp10
 70
     0
102
RTVSPropertyOp11
 70
     0
102
RTVSPropertyOp12
 70
     0
102
RTVSPropertyOp13
 70
     0
102
RTVSPropertyOp14
 70
     2
102
RTVSPropertyOp15
 70
     0
102
RTVSPropertyOp16
 70
     0
102
RTVSPropertyOp17
 70
     0
102
RTVSPropertyOp18
 70
     0
102
RTVSPropertyOp19
 70
     0
102
RTVSPropertyOp20
 70
     0
102
RTVSPropertyOp21
 70
     0
102
RTVSPropertyOp22
 70
     0
102
RTVSPropertyOp23
 70
     0
102
RTVSPropertyOp24
 70
     0
102
RTVSPropertyOp25
 70
     0
102
RTVSPropertyOp26
 70
     0
102
RTVSPropertyOp27
 70
     0
102
RTVSPropertyOp28
 70
     0
102
RTVSPropertyOp29
 70
     0
102
RTVSPropertyOp30
 70
     0
102
RTVSPropertyOp31
 70
     0
102
RTVSPropertyOp32
 70
     0
102
RTVSPropertyOp33
 70
     0
102
RTVSPropertyOp34
 70
     0
102
RTVSPropertyOp35
 70
     0
102
RTVSPropertyOp36
 70
     0
102
RTVSPropertyOp37
 70
     0
102
RTVSPropertyOp38
 70
     0
102
RTVSPropertyOp39
 70
     0
102
RTVSPropertyOp40
 70
     0
102
RTVSPropertyOp41
 70
     0
102
RTVSPropertyOp42
 70
     0
102
RTVSPropertyOp43
 70
     0
102
RTVSPropertyOp44
 70
     0
102
RTVSPropertyOp45
 70
     0
102
RTVSPropertyOp46
 70
     0
102
RTVSPropertyOp47
 70
     0
102
RTVSPropertyOp48
 70
     0
102
RTVSPropertyOp49
 70
     0
102
RTVSPropertyOp50
 70
     0
102
RTVSPropertyOp51
 70
     0
102
RTVSPropertyOp52
 70
     0
102
RTVSPropertyOp53
 70
     0
102
RTVSPropertyOp54
 70
     0
102
RTVSPropertyOp55
 70
     0
102
RTVSPropertyOp56
 70
     0
102
RTVSPropertyOp57
 70
     0
102
RTVSPropertyOp58
 70
     0
102
RTVSPropertyOp59
 70
     0
102
RTVSPropertyOp60
 70
     0
102
RTVSPropertyOp61
 70
     0
102
RTVSPropertyOp62
 70
     0
  0
XRECORD
  5
DA
102
{ACAD_REACTORS
330
D9
102
}
330
D9
100
AcDbXrecord
280
     1
102
RTVSPost2010Prop28
280
     0
102
RTVSPost2010PropOp28
 70
     1
102
RTVSPost2010Prop29
280
     1
102
RTVSPost2010PropOp29
 70
     1
102
RTVSPost2010Prop30
280
     1
102
RTVSPost2010PropOp30
 70
     1
102
RTVSPost2010Prop31
280
     0
102
RTVSPost2010PropOp31
 70
     1
102
RTVSPost2010Prop32
280
     0
102
RTVSPost2010PropOp32
 70
     1
102
RTVSPost2010Prop33
280
     0
102
RTVSPost2010PropOp33
 70
     1
102
RTVSPost2010Prop34
280
     0
102
RTVSPost2010PropOp34
 70
     1
102
RTVSPost2010Prop35
280
     0
102
RTVSPost2010PropOp35
 70
     1
102
RTVSPost2010Prop36
280
     0
102
RTVSPost2010PropOp36
 70
     1
102
RTVSPost2010Prop37
 90
       50
102
RTVSPost2010PropOp37
 70
     1
102
RTVSPost2010Prop38
140
0.0
102
RTVSPost2010PropOp38
 70
     1
102
RTVSPost2010Prop39
140
1.0
102
RTVSPost2010PropOp39
 70
     1
102
RTVSPost2010Prop40
 90
        0
102
RTVSPost2010PropOp40
 70
     1
102
RTVSPost2010Prop41ColorIndex
 90
       18
102
RTVSPost2010Prop41ColorRGB
 90
        0
102
RTVSPost2010PropOp41
 70
     1
102
RTVSPost2010Prop42
 90
       50
102
RTVSPost2010PropOp42
 70
     1
102
RTVSPost2010Prop43
 90
        3
102
RTVSPost2010PropOp43
 70
     1
102
RTVSPost2010Prop44ColorIndex
 90
        5
102
RTVSPost2010Prop44ColorRGB
 90
      255
102
RTVSPost2010PropOp44
 70
     1
102
RTVSPost2010Prop45
280
     0
102
RTVSPost2010PropOp45
 70
     1
102
RTVSPost2010Prop46
 90
       50
102
RTVSPost2010PropOp46
 70
     1
102
RTVSPost2010Prop47
 90
       50
102
RTVSPost2010PropOp47
 70
     1
102
RTVSPost2010Prop48
 90
       50
102
RTVSPost2010PropOp48
 70
     1
102
RTVSPost2010Prop49
280
     0
102
RTVSPost2010PropOp49
 70
     1
102
RTVSPost2010Prop50
 90
       50
102
RTVSPost2010PropOp50
 70
     1
102
RTVSPost2010Prop51ColorIndex
 90
      256
102
RTVSPost2010Prop51ColorRGB
 90
-16777216
102
RTVSPost2010PropOp51
 70
     0
102
RTVSPost2010Prop52
140
1.0
102
RTVSPost2010PropOp52
 70
     0
102
RTVSPost2010Prop53
 90
        2
102
RTVSPost2010PropOp53
 70
     1
102
RTVSPost2010Prop54
  1
strokes_ogs.tif
102
RTVSPost2010PropOp54
 70
     1
102
RTVSPost2010Prop55
280
     0
102
RTVSPost2010PropOp55
 70
     1
102
RTVSPost2010Prop56
140
1.0
102
RTVSPost2010PropOp56
 70
     1
102
RTVSPost2010Prop57
140
1.0
102
RTVSPost2010PropOp57
 70
     1
102
RTVSPropertyOp0
 70
     1
102
RTVSPropertyOp1
 70
     1
102
RTVSPropertyOp2
 70
     1
102
RTVSPropertyOp3
 70
     1
102
RTVSPropertyOp4
 70
     1
102
RTVSPropertyOp5
 70
     1
102
RTVSPropertyOp6
 70
     1
102
RTVSPropertyOp7
 70
     1
102
RTVSPropertyOp8
 70
     1
102
RTVSPropertyOp9
 70
     1
102
RTVSPropertyOp10
 70
     1
102
RTVSPropertyOp11
 70
     1
102
RTVSPropertyOp12
 70
     1
102
RTVSPropertyOp13
 70
     1
102
RTVSPropertyOp14
 70
     1
102
RTVSPropertyOp15
 70
     1
102
RTVSPropertyOp16
 70
     1
102
RTVSPropertyOp17
 70
     1
102
RTVSPropertyOp18
 70
     1
102
RTVSPropertyOp19
 70
     1
102
RTVSPropertyOp20
 70
     1
102
RTVSPropertyOp21
 70
     1
102
RTVSPropertyOp22
 70
     1
102
RTVSPropertyOp23
 70
     1
102
RTVSPropertyOp24
 70
     1
102
RTVSPropertyOp25
 70
     1
102
RTVSPropertyOp26
 70
     1
102
RTVSPropertyOp27
 70
     1
102
RTVSPropertyOp28
 70
     1
102
RTVSPropertyOp29
 70
     1
102
RTVSPropertyOp30
 70
     1
102
RTVSPropertyOp31
 70
     1
102
RTVSPropertyOp32
 70
     1
102
RTVSPropertyOp33
 70
     1
102
RTVSPropertyOp34
 70
     1
102
RTVSPropertyOp35
 70
     1
102
RTVSPropertyOp36
 70
     1
102
RTVSPropertyOp37
 70
     1
102
RTVSPropertyOp38
 70
     1
102
RTVSPropertyOp39
 70
     1
102
RTVSPropertyOp40
 70
     1
102
RTVSPropertyOp41
 70
     1
102
RTVSPropertyOp42
 70
     1
102
RTVSPropertyOp43
 70
     1
102
RTVSPropertyOp44
 70
     1
102
RTVSPropertyOp45
 70
     1
102
RTVSPropertyOp46
 70
     1
102
RTVSPropertyOp47
 70
     1
102
RTVSPropertyOp48
 70
     1
102
RTVSPropertyOp49
 70
     1
102
RTVSPropertyOp50
 70
     1
102
RTVSPropertyOp51
 70
     0
102
RTVSPropertyOp52
 70
     0
102
RTVSPropertyOp53
 70
     1
102
RTVSPropertyOp54
 70
     1
102
RTVSPropertyOp55
 70
     1
102
RTVSPropertyOp56
 70
     1
102
RTVSPropertyOp57
 70
     1
102
RTVSPropertyOp58
 70
     1
102
RTVSPropertyOp59
 70
     1
102
RTVSPropertyOp60
 70
     1
102
RTVSPropertyOp61
 70
     1
102
RTVSPropertyOp62
 70
     1
  0
XRECORD
  5
BE
102
{ACAD_REACTORS
330
BD
102
}
330
BD
100
AcDbXrecord
280
     1
102
RTVSPost2010Prop28
280
     0
102
RTVSPost2010PropOp28
 70
     1
102
RTVSPost2010Prop29
280
     1
102
RTVSPost2010PropOp29
 70
     1
102
RTVSPost2010Prop30
280
     1
102
RTVSPost2010PropOp30
 70
     1
102
RTVSPost2010Prop31
280
     0
102
RTVSPost2010PropOp31
 70
     1
102
RTVSPost2010Prop32
280
     0
102
RTVSPost2010PropOp32
 70
     1
102
RTVSPost2010Prop33
280
     0
102
RTVSPost2010PropOp33
 70
     1
102
RTVSPost2010Prop34
280
     0
102
RTVSPost2010PropOp34
 70
     1
102
RTVSPost2010Prop35
280
     0
102
RTVSPost2010PropOp35
 70
     1
102
RTVSPost2010Prop36
280
     0
102
RTVSPost2010PropOp36
 70
     1
102
RTVSPost2010Prop37
 90
       50
102
RTVSPost2010PropOp37
 70
     1
102
RTVSPost2010Prop38
140
0.0
102
RTVSPost2010PropOp38
 70
     1
102
RTVSPost2010Prop39
140
1.0
102
RTVSPost2010PropOp39
 70
     1
102
RTVSPost2010Prop40
 90
        0
102
RTVSPost2010PropOp40
 70
     1
102
RTVSPost2010Prop41ColorIndex
 90
       18
102
RTVSPost2010Prop41ColorRGB
 90
        0
102
RTVSPost2010PropOp41
 70
     1
102
RTVSPost2010Prop42
 90
       50
102
RTVSPost2010PropOp42
 70
     1
102
RTVSPost2010Prop43
 90
        3
102
RTVSPost2010PropOp43
 70
     1
102
RTVSPost2010Prop44ColorIndex
 90
        5
102
RTVSPost2010Prop44ColorRGB
 90
      255
102
RTVSPost2010PropOp44
 70
     1
102
RTVSPost2010Prop45
280
     0
102
RTVSPost2010PropOp45
 70
     1
102
RTVSPost2010Prop46
 90
       50
102
RTVSPost2010PropOp46
 70
     1
102
RTVSPost2010Prop47
 90
       50
102
RTVSPost2010PropOp47
 70
     1
102
RTVSPost2010Prop48
 90
       50
102
RTVSPost2010PropOp48
 70
     1
102
RTVSPost2010Prop49
280
     0
102
RTVSPost2010PropOp49
 70
     1
102
RTVSPost2010Prop50
 90
       50
102
RTVSPost2010PropOp50
 70
     1
102
RTVSPost2010Prop51ColorIndex
 90
      256
102
RTVSPost2010Prop51ColorRGB
 90
-16777216
102
RTVSPost2010PropOp51
 70
     0
102
RTVSPost2010Prop52
140
1.0
102
RTVSPost2010PropOp52
 70
     0
102
RTVSPost2010Prop53
 90
        2
102
RTVSPost2010PropOp53
 70
     1
102
RTVSPost2010Prop54
  1
strokes_ogs.tif
102
RTVSPost2010PropOp54
 70
     1
102
RTVSPost2010Prop55
280
     0
102
RTVSPost2010PropOp55
 70
     1
102
RTVSPost2010Prop56
140
1.0
102
RTVSPost2010PropOp56
 70
     1
102
RTVSPost2010Prop57
140
1.0
102
RTVSPost2010PropOp57
 70
     1
102
RTVSPropertyOp0
 70
     1
102
RTVSPropertyOp1
 70
     1
102
RTVSPropertyOp2
 70
     1
102
RTVSPropertyOp3
 70
     1
102
RTVSPropertyOp4
 70
     1
102
RTVSPropertyOp5
 70
     1
102
RTVSPropertyOp6
 70
     1
102
RTVSPropertyOp7
 70
     1
102
RTVSPropertyOp8
 70
     1
102
RTVSPropertyOp9
 70
     1
102
RTVSPropertyOp10
 70
     1
102
RTVSPropertyOp11
 70
     1
102
RTVSPropertyOp12
 70
     1
102
RTVSPropertyOp13
 70
     1
102
RTVSPropertyOp14
 70
     1
102
RTVSPropertyOp15
 70
     1
102
RTVSPropertyOp16
 70
     1
102
RTVSPropertyOp17
 70
     1
102
RTVSPropertyOp18
 70
     1
102
RTVSPropertyOp19
 70
     1
102
RTVSPropertyOp20
 70
     1
102
RTVSPropertyOp21
 70
     1
102
RTVSPropertyOp22
 70
     1
102
RTVSPropertyOp23
 70
     1
102
RTVSPropertyOp24
 70
     1
102
RTVSPropertyOp25
 70
     1
102
RTVSPropertyOp26
 70
     1
102
RTVSPropertyOp27
 70
     1
102
RTVSPropertyOp28
 70
     1
102
RTVSPropertyOp29
 70
     1
102
RTVSPropertyOp30
 70
     1
102
RTVSPropertyOp31
 70
     1
102
RTVSPropertyOp32
 70
     1
102
RTVSPropertyOp33
 70
     1
102
RTVSPropertyOp34
 70
     1
102
RTVSPropertyOp35
 70
     1
102
RTVSPropertyOp36
 70
     1
102
RTVSPropertyOp37
 70
     1
102
RTVSPropertyOp38
 70
     1
102
RTVSPropertyOp39
 70
     1
102
RTVSPropertyOp40
 70
     1
102
RTVSPropertyOp41
 70
     1
102
RTVSPropertyOp42
 70
     1
102
RTVSPropertyOp43
 70
     1
102
RTVSPropertyOp44
 70
     1
102
RTVSPropertyOp45
 70
     1
102
RTVSPropertyOp46
 70
     1
102
RTVSPropertyOp47
 70
     1
102
RTVSPropertyOp48
 70
     1
102
RTVSPropertyOp49
 70
     1
102
RTVSPropertyOp50
 70
     1
102
RTVSPropertyOp51
 70
     0
102
RTVSPropertyOp52
 70
     0
102
RTVSPropertyOp53
 70
     1
102
RTVSPropertyOp54
 70
     1
102
RTVSPropertyOp55
 70
     1
102
RTVSPropertyOp56
 70
     1
102
RTVSPropertyOp57
 70
     1
102
RTVSPropertyOp58
 70
     1
102
RTVSPropertyOp59
 70
     1
102
RTVSPropertyOp60
 70
     1
102
RTVSPropertyOp61
 70
     1
102
RTVSPropertyOp62
 70
     1
  0
XRECORD
  5
C0
102
{ACAD_REACTORS
330
BF
102
}
330
BF
100
AcDbXrecord
280
     1
102
RTVSPost2010Prop28
280
     0
102
RTVSPost2010PropOp28
 70
     1
102
RTVSPost2010Prop29
280
     1
102
RTVSPost2010PropOp29
 70
     1
102
RTVSPost2010Prop30
280
     1
102
RTVSPost2010PropOp30
 70
     1
102
RTVSPost2010Prop31
280
     0
102
RTVSPost2010PropOp31
 70
     1
102
RTVSPost2010Prop32
280
     0
102
RTVSPost2010PropOp32
 70
     1
102
RTVSPost2010Prop33
280
     0
102
RTVSPost2010PropOp33
 70
     1
102
RTVSPost2010Prop34
280
     0
102
RTVSPost2010PropOp34
 70
     1
102
RTVSPost2010Prop35
280
     0
102
RTVSPost2010PropOp35
 70
     1
102
RTVSPost2010Prop36
280
     0
102
RTVSPost2010PropOp36
 70
     1
102
RTVSPost2010Prop37
 90
       50
102
RTVSPost2010PropOp37
 70
     1
102
RTVSPost2010Prop38
140
0.0
102
RTVSPost2010PropOp38
 70
     1
102
RTVSPost2010Prop39
140
1.0
102
RTVSPost2010PropOp39
 70
     1
102
RTVSPost2010Prop40
 90
        0
102
RTVSPost2010PropOp40
 70
     1
102
RTVSPost2010Prop41ColorIndex
 90
       18
102
RTVSPost2010Prop41ColorRGB
 90
        0
102
RTVSPost2010PropOp41
 70
     1
102
RTVSPost2010Prop42
 90
       50
102
RTVSPost2010PropOp42
 70
     1
102
RTVSPost2010Prop43
 90
        3
102
RTVSPost2010PropOp43
 70
     1
102
RTVSPost2010Prop44ColorIndex
 90
        5
102
RTVSPost2010Prop44ColorRGB
 90
      255
102
RTVSPost2010PropOp44
 70
     1
102
RTVSPost2010Prop45
280
     0
102
RTVSPost2010PropOp45
 70
     1
102
RTVSPost2010Prop46
 90
       50
102
RTVSPost2010PropOp46
 70
     1
102
RTVSPost2010Prop47
 90
       50
102
RTVSPost2010PropOp47
 70
     1
102
RTVSPost2010Prop48
 90
       50
102
RTVSPost2010PropOp48
 70
     1
102
RTVSPost2010Prop49
280
     0
102
RTVSPost2010PropOp49
 70
     1
102
RTVSPost2010Prop50
 90
       50
102
RTVSPost2010PropOp50
 70
     1
102
RTVSPost2010Prop51ColorIndex
 90
      256
102
RTVSPost2010Prop51ColorRGB
 90
-16777216
102
RTVSPost2010PropOp51
 70
     0
102
RTVSPost2010Prop52
140
1.0
102
RTVSPost2010PropOp52
 70
     0
102
RTVSPost2010Prop53
 90
        2
102
RTVSPost2010PropOp53
 70
     1
102
RTVSPost2010Prop54
  1
strokes_ogs.tif
102
RTVSPost2010PropOp54
 70
     1
102
RTVSPost2010Prop55
280
     0
102
RTVSPost2010PropOp55
 70
     1
102
RTVSPost2010Prop56
140
1.0
102
RTVSPost2010PropOp56
 70
     1
102
RTVSPost2010Prop57
140
1.0
102
RTVSPost2010PropOp57
 70
     1
102
RTVSPropertyOp0
 70
     1
102
RTVSPropertyOp1
 70
     1
102
RTVSPropertyOp2
 70
     1
102
RTVSPropertyOp3
 70
     1
102
RTVSPropertyOp4
 70
     1
102
RTVSPropertyOp5
 70
     1
102
RTVSPropertyOp6
 70
     1
102
RTVSPropertyOp7
 70
     1
102
RTVSPropertyOp8
 70
     1
102
RTVSPropertyOp9
 70
     1
102
RTVSPropertyOp10
 70
     1
102
RTVSPropertyOp11
 70
     1
102
RTVSPropertyOp12
 70
     1
102
RTVSPropertyOp13
 70
     1
102
RTVSPropertyOp14
 70
     1
102
RTVSPropertyOp15
 70
     1
102
RTVSPropertyOp16
 70
     1
102
RTVSPropertyOp17
 70
     1
102
RTVSPropertyOp18
 70
     1
102
RTVSPropertyOp19
 70
     1
102
RTVSPropertyOp20
 70
     1
102
RTVSPropertyOp21
 70
     1
102
RTVSPropertyOp22
 70
     1
102
RTVSPropertyOp23
 70
     1
102
RTVSPropertyOp24
 70
     1
102
RTVSPropertyOp25
 70
     1
102
RTVSPropertyOp26
 70
     1
102
RTVSPropertyOp27
 70
     1
102
RTVSPropertyOp28
 70
     1
102
RTVSPropertyOp29
 70
     1
102
RTVSPropertyOp30
 70
     1
102
RTVSPropertyOp31
 70
     1
102
RTVSPropertyOp32
 70
     1
102
RTVSPropertyOp33
 70
     1
102
RTVSPropertyOp34
 70
     1
102
RTVSPropertyOp35
 70
     1
102
RTVSPropertyOp36
 70
     1
102
RTVSPropertyOp37
 70
     1
102
RTVSPropertyOp38
 70
     1
102
RTVSPropertyOp39
 70
     1
102
RTVSPropertyOp40
 70
     1
102
RTVSPropertyOp41
 70
     1
102
RTVSPropertyOp42
 70
     1
102
RTVSPropertyOp43
 70
     1
102
RTVSPropertyOp44
 70
     1
102
RTVSPropertyOp45
 70
     1
102
RTVSPropertyOp46
 70
     1
102
RTVSPropertyOp47
 70
     1
102
RTVSPropertyOp48
 70
     1
102
RTVSPropertyOp49
 70
     1
102
RTVSPropertyOp50
 70
     1
102
RTVSPropertyOp51
 70
     0
102
RTVSPropertyOp52
 70
     0
102
RTVSPropertyOp53
 70
     1
102
RTVSPropertyOp54
 70
     1
102
RTVSPropertyOp55
 70
     1
102
RTVSPropertyOp56
 70
     1
102
RTVSPropertyOp57
 70
     1
102
RTVSPropertyOp58
 70
     1
102
RTVSPropertyOp59
 70
     1
102
RTVSPropertyOp60
 70
     1
102
RTVSPropertyOp61
 70
     1
102
RTVSPropertyOp62
 70
     1
  0
XRECORD
  5
C2
102
{ACAD_REACTORS
330
C1
102
}
330
C1
100
AcDbXrecord
280
     1
102
RTVSPost2010Prop28
280
     0
102
RTVSPost2010PropOp28
 70
     1
102
RTVSPost2010Prop29
280
     1
102
RTVSPost2010PropOp29
 70
     1
102
RTVSPost2010Prop30
280
     1
102
RTVSPost2010PropOp30
 70
     1
102
RTVSPost2010Prop31
280
     0
102
RTVSPost2010PropOp31
 70
     1
102
RTVSPost2010Prop32
280
     0
102
RTVSPost2010PropOp32
 70
     1
102
RTVSPost2010Prop33
280
     0
102
RTVSPost2010PropOp33
 70
     1
102
RTVSPost2010Prop34
280
     0
102
RTVSPost2010PropOp34
 70
     1
102
RTVSPost2010Prop35
280
     0
102
RTVSPost2010PropOp35
 70
     1
102
RTVSPost2010Prop36
280
     0
102
RTVSPost2010PropOp36
 70
     1
102
RTVSPost2010Prop37
 90
       50
102
RTVSPost2010PropOp37
 70
     1
102
RTVSPost2010Prop38
140
0.0
102
RTVSPost2010PropOp38
 70
     1
102
RTVSPost2010Prop39
140
1.0
102
RTVSPost2010PropOp39
 70
     1
102
RTVSPost2010Prop40
 90
        0
102
RTVSPost2010PropOp40
 70
     1
102
RTVSPost2010Prop41ColorIndex
 90
       18
102
RTVSPost2010Prop41ColorRGB
 90
        0
102
RTVSPost2010PropOp41
 70
     1
102
RTVSPost2010Prop42
 90
       50
102
RTVSPost2010PropOp42
 70
     1
102
RTVSPost2010Prop43
 90
        3
102
RTVSPost2010PropOp43
 70
     1
102
RTVSPost2010Prop44ColorIndex
 90
        5
102
RTVSPost2010Prop44ColorRGB
 90
      255
102
RTVSPost2010PropOp44
 70
     1
102
RTVSPost2010Prop45
280
     0
102
RTVSPost2010PropOp45
 70
     1
102
RTVSPost2010Prop46
 90
       50
102
RTVSPost2010PropOp46
 70
     1
102
RTVSPost2010Prop47
 90
       50
102
RTVSPost2010PropOp47
 70
     1
102
RTVSPost2010Prop48
 90
       50
102
RTVSPost2010PropOp48
 70
     1
102
RTVSPost2010Prop49
280
     0
102
RTVSPost2010PropOp49
 70
     1
102
RTVSPost2010Prop50
 90
       50
102
RTVSPost2010PropOp50
 70
     1
102
RTVSPost2010Prop51ColorIndex
 90
      256
102
RTVSPost2010Prop51ColorRGB
 90
-16777216
102
RTVSPost2010PropOp51
 70
     0
102
RTVSPost2010Prop52
140
1.0
102
RTVSPost2010PropOp52
 70
     0
102
RTVSPost2010Prop53
 90
        2
102
RTVSPost2010PropOp53
 70
     1
102
RTVSPost2010Prop54
  1
strokes_ogs.tif
102
RTVSPost2010PropOp54
 70
     1
102
RTVSPost2010Prop55
280
     0
102
RTVSPost2010PropOp55
 70
     1
102
RTVSPost2010Prop56
140
1.0
102
RTVSPost2010PropOp56
 70
     1
102
RTVSPost2010Prop57
140
1.0
102
RTVSPost2010PropOp57
 70
     1
102
RTVSPropertyOp0
 70
     1
102
RTVSPropertyOp1
 70
     1
102
RTVSPropertyOp2
 70
     1
102
RTVSPropertyOp3
 70
     1
102
RTVSPropertyOp4
 70
     1
102
RTVSPropertyOp5
 70
     1
102
RTVSPropertyOp6
 70
     1
102
RTVSPropertyOp7
 70
     1
102
RTVSPropertyOp8
 70
     1
102
RTVSPropertyOp9
 70
     1
102
RTVSPropertyOp10
 70
     1
102
RTVSPropertyOp11
 70
     1
102
RTVSPropertyOp12
 70
     1
102
RTVSPropertyOp13
 70
     1
102
RTVSPropertyOp14
 70
     1
102
RTVSPropertyOp15
 70
     1
102
RTVSPropertyOp16
 70
     1
102
RTVSPropertyOp17
 70
     1
102
RTVSPropertyOp18
 70
     1
102
RTVSPropertyOp19
 70
     1
102
RTVSPropertyOp20
 70
     1
102
RTVSPropertyOp21
 70
     1
102
RTVSPropertyOp22
 70
     1
102
RTVSPropertyOp23
 70
     1
102
RTVSPropertyOp24
 70
     1
102
RTVSPropertyOp25
 70
     1
102
RTVSPropertyOp26
 70
     1
102
RTVSPropertyOp27
 70
     1
102
RTVSPropertyOp28
 70
     1
102
RTVSPropertyOp29
 70
     1
102
RTVSPropertyOp30
 70
     1
102
RTVSPropertyOp31
 70
     1
102
RTVSPropertyOp32
 70
     1
102
RTVSPropertyOp33
 70
     1
102
RTVSPropertyOp34
 70
     1
102
RTVSPropertyOp35
 70
     1
102
RTVSPropertyOp36
 70
     1
102
RTVSPropertyOp37
 70
     1
102
RTVSPropertyOp38
 70
     1
102
RTVSPropertyOp39
 70
     1
102
RTVSPropertyOp40
 70
     1
102
RTVSPropertyOp41
 70
     1
102
RTVSPropertyOp42
 70
     1
102
RTVSPropertyOp43
 70
     1
102
RTVSPropertyOp44
 70
     1
102
RTVSPropertyOp45
 70
     1
102
RTVSPropertyOp46
 70
     1
102
RTVSPropertyOp47
 70
     1
102
RTVSPropertyOp48
 70
     1
102
RTVSPropertyOp49
 70
     1
102
RTVSPropertyOp50
 70
     1
102
RTVSPropertyOp51
 70
     0
102
RTVSPropertyOp52
 70
     0
102
RTVSPropertyOp53
 70
     1
102
RTVSPropertyOp54
 70
     1
102
RTVSPropertyOp55
 70
     1
102
RTVSPropertyOp56
 70
     1
102
RTVSPropertyOp57
 70
     1
102
RTVSPropertyOp58
 70
     1
102
RTVSPropertyOp59
 70
     1
102
RTVSPropertyOp60
 70
     1
102
RTVSPropertyOp61
 70
     1
102
RTVSPropertyOp62
 70
     1
  0
XRECORD
  5
C4
102
{ACAD_REACTORS
330
C3
102
}
330
C3
100
AcDbXrecord
280
     1
102
RTVSPost2010Prop28
280
     0
102
RTVSPost2010PropOp28
 70
     1
102
RTVSPost2010Prop29
280
     1
102
RTVSPost2010PropOp29
 70
     1
102
RTVSPost2010Prop30
280
     1
102
RTVSPost2010PropOp30
 70
     1
102
RTVSPost2010Prop31
280
     0
102
RTVSPost2010PropOp31
 70
     1
102
RTVSPost2010Prop32
280
     0
102
RTVSPost2010PropOp32
 70
     1
102
RTVSPost2010Prop33
280
     0
102
RTVSPost2010PropOp33
 70
     1
102
RTVSPost2010Prop34
280
     0
102
RTVSPost2010PropOp34
 70
     1
102
RTVSPost2010Prop35
280
     0
102
RTVSPost2010PropOp35
 70
     1
102
RTVSPost2010Prop36
280
     0
102
RTVSPost2010PropOp36
 70
     1
102
RTVSPost2010Prop37
 90
       50
102
RTVSPost2010PropOp37
 70
     1
102
RTVSPost2010Prop38
140
0.0
102
RTVSPost2010PropOp38
 70
     1
102
RTVSPost2010Prop39
140
1.0
102
RTVSPost2010PropOp39
 70
     1
102
RTVSPost2010Prop40
 90
        0
102
RTVSPost2010PropOp40
 70
     1
102
RTVSPost2010Prop41ColorIndex
 90
       18
102
RTVSPost2010Prop41ColorRGB
 90
        0
102
RTVSPost2010PropOp41
 70
     1
102
RTVSPost2010Prop42
 90
       50
102
RTVSPost2010PropOp42
 70
     1
102
RTVSPost2010Prop43
 90
        3
102
RTVSPost2010PropOp43
 70
     1
102
RTVSPost2010Prop44ColorIndex
 90
        5
102
RTVSPost2010Prop44ColorRGB
 90
      255
102
RTVSPost2010PropOp44
 70
     1
102
RTVSPost2010Prop45
280
     0
102
RTVSPost2010PropOp45
 70
     1
102
RTVSPost2010Prop46
 90
       50
102
RTVSPost2010PropOp46
 70
     1
102
RTVSPost2010Prop47
 90
       50
102
RTVSPost2010PropOp47
 70
     1
102
RTVSPost2010Prop48
 90
       50
102
RTVSPost2010PropOp48
 70
     1
102
RTVSPost2010Prop49
280
     0
102
RTVSPost2010PropOp49
 70
     1
102
RTVSPost2010Prop50
 90
       50
102
RTVSPost2010PropOp50
 70
     1
102
RTVSPost2010Prop51ColorIndex
 90
      256
102
RTVSPost2010Prop51ColorRGB
 90
-16777216
102
RTVSPost2010PropOp51
 70
     0
102
RTVSPost2010Prop52
140
1.0
102
RTVSPost2010PropOp52
 70
     0
102
RTVSPost2010Prop53
 90
        2
102
RTVSPost2010PropOp53
 70
     1
102
RTVSPost2010Prop54
  1
strokes_ogs.tif
102
RTVSPost2010PropOp54
 70
     1
102
RTVSPost2010Prop55
280
     0
102
RTVSPost2010PropOp55
 70
     1
102
RTVSPost2010Prop56
140
1.0
102
RTVSPost2010PropOp56
 70
     1
102
RTVSPost2010Prop57
140
1.0
102
RTVSPost2010PropOp57
 70
     1
102
RTVSPropertyOp0
 70
     1
102
RTVSPropertyOp1
 70
     1
102
RTVSPropertyOp2
 70
     1
102
RTVSPropertyOp3
 70
     1
102
RTVSPropertyOp4
 70
     1
102
RTVSPropertyOp5
 70
     1
102
RTVSPropertyOp6
 70
     1
102
RTVSPropertyOp7
 70
     1
102
RTVSPropertyOp8
 70
     1
102
RTVSPropertyOp9
 70
     1
102
RTVSPropertyOp10
 70
     1
102
RTVSPropertyOp11
 70
     1
102
RTVSPropertyOp12
 70
     1
102
RTVSPropertyOp13
 70
     1
102
RTVSPropertyOp14
 70
     1
102
RTVSPropertyOp15
 70
     1
102
RTVSPropertyOp16
 70
     1
102
RTVSPropertyOp17
 70
     1
102
RTVSPropertyOp18
 70
     1
102
RTVSPropertyOp19
 70
     1
102
RTVSPropertyOp20
 70
     1
102
RTVSPropertyOp21
 70
     1
102
RTVSPropertyOp22
 70
     1
102
RTVSPropertyOp23
 70
     1
102
RTVSPropertyOp24
 70
     1
102
RTVSPropertyOp25
 70
     1
102
RTVSPropertyOp26
 70
     1
102
RTVSPropertyOp27
 70
     1
102
RTVSPropertyOp28
 70
     1
102
RTVSPropertyOp29
 70
     1
102
RTVSPropertyOp30
 70
     1
102
RTVSPropertyOp31
 70
     1
102
RTVSPropertyOp32
 70
     1
102
RTVSPropertyOp33
 70
     1
102
RTVSPropertyOp34
 70
     1
102
RTVSPropertyOp35
 70
     1
102
RTVSPropertyOp36
 70
     1
102
RTVSPropertyOp37
 70
     1
102
RTVSPropertyOp38
 70
     1
102
RTVSPropertyOp39
 70
     1
102
RTVSPropertyOp40
 70
     1
102
RTVSPropertyOp41
 70
     1
102
RTVSPropertyOp42
 70
     1
102
RTVSPropertyOp43
 70
     1
102
RTVSPropertyOp44
 70
     1
102
RTVSPropertyOp45
 70
     1
102
RTVSPropertyOp46
 70
     1
102
RTVSPropertyOp47
 70
     1
102
RTVSPropertyOp48
 70
     1
102
RTVSPropertyOp49
 70
     1
102
RTVSPropertyOp50
 70
     1
102
RTVSPropertyOp51
 70
     0
102
RTVSPropertyOp52
 70
     0
102
RTVSPropertyOp53
 70
     1
102
RTVSPropertyOp54
 70
     1
102
RTVSPropertyOp55
 70
     1
102
RTVSPropertyOp56
 70
     1
102
RTVSPropertyOp57
 70
     1
102
RTVSPropertyOp58
 70
     1
102
RTVSPropertyOp59
 70
     1
102
RTVSPropertyOp60
 70
     1
102
RTVSPropertyOp61
 70
     1
102
RTVSPropertyOp62
 70
     1
  0
XRECORD
  5
CC
102
{ACAD_REACTORS
330
CB
102
}
330
CB
100
AcDbXrecord
280
     1
102
RTVSPost2010Prop28
280
     0
102
RTVSPost2010PropOp28
 70
     1
102
RTVSPost2010Prop29
280
     1
102
RTVSPost2010PropOp29
 70
     1
102
RTVSPost2010Prop30
280
     1
102
RTVSPost2010PropOp30
 70
     1
102
RTVSPost2010Prop31
280
     0
102
RTVSPost2010PropOp31
 70
     1
102
RTVSPost2010Prop32
280
     0
102
RTVSPost2010PropOp32
 70
     1
102
RTVSPost2010Prop33
280
     0
102
RTVSPost2010PropOp33
 70
     1
102
RTVSPost2010Prop34
280
     0
102
RTVSPost2010PropOp34
 70
     1
102
RTVSPost2010Prop35
280
     0
102
RTVSPost2010PropOp35
 70
     1
102
RTVSPost2010Prop36
280
     0
102
RTVSPost2010PropOp36
 70
     1
102
RTVSPost2010Prop37
 90
       50
102
RTVSPost2010PropOp37
 70
     1
102
RTVSPost2010Prop38
140
0.0
102
RTVSPost2010PropOp38
 70
     1
102
RTVSPost2010Prop39
140
1.0
102
RTVSPost2010PropOp39
 70
     1
102
RTVSPost2010Prop40
 90
        0
102
RTVSPost2010PropOp40
 70
     1
102
RTVSPost2010Prop41ColorIndex
 90
       18
102
RTVSPost2010Prop41ColorRGB
 90
        0
102
RTVSPost2010PropOp41
 70
     1
102
RTVSPost2010Prop42
 90
       50
102
RTVSPost2010PropOp42
 70
     1
102
RTVSPost2010Prop43
 90
        3
102
RTVSPost2010PropOp43
 70
     1
102
RTVSPost2010Prop44ColorIndex
 90
        5
102
RTVSPost2010Prop44ColorRGB
 90
      255
102
RTVSPost2010PropOp44
 70
     1
102
RTVSPost2010Prop45
280
     0
102
RTVSPost2010PropOp45
 70
     1
102
RTVSPost2010Prop46
 90
       50
102
RTVSPost2010PropOp46
 70
     1
102
RTVSPost2010Prop47
 90
       50
102
RTVSPost2010PropOp47
 70
     1
102
RTVSPost2010Prop48
 90
       50
102
RTVSPost2010PropOp48
 70
     1
102
RTVSPost2010Prop49
280
     0
102
RTVSPost2010PropOp49
 70
     1
102
RTVSPost2010Prop50
 90
       50
102
RTVSPost2010PropOp50
 70
     1
102
RTVSPost2010Prop51ColorIndex
 90
      256
102
RTVSPost2010Prop51ColorRGB
 90
-16777216
102
RTVSPost2010PropOp51
 70
     0
102
RTVSPost2010Prop52
140
1.0
102
RTVSPost2010PropOp52
 70
     0
102
RTVSPost2010Prop53
 90
        2
102
RTVSPost2010PropOp53
 70
     1
102
RTVSPost2010Prop54
  1
strokes_ogs.tif
102
RTVSPost2010PropOp54
 70
     1
102
RTVSPost2010Prop55
280
     0
102
RTVSPost2010PropOp55
 70
     1
102
RTVSPost2010Prop56
140
1.0
102
RTVSPost2010PropOp56
 70
     1
102
RTVSPost2010Prop57
140
1.0
102
RTVSPost2010PropOp57
 70
     1
102
RTVSPropertyOp0
 70
     1
102
RTVSPropertyOp1
 70
     1
102
RTVSPropertyOp2
 70
     1
102
RTVSPropertyOp3
 70
     1
102
RTVSPropertyOp4
 70
     1
102
RTVSPropertyOp5
 70
     1
102
RTVSPropertyOp6
 70
     1
102
RTVSPropertyOp7
 70
     1
102
RTVSPropertyOp8
 70
     1
102
RTVSPropertyOp9
 70
     1
102
RTVSPropertyOp10
 70
     1
102
RTVSPropertyOp11
 70
     1
102
RTVSPropertyOp12
 70
     1
102
RTVSPropertyOp13
 70
     1
102
RTVSPropertyOp14
 70
     1
102
RTVSPropertyOp15
 70
     1
102
RTVSPropertyOp16
 70
     1
102
RTVSPropertyOp17
 70
     1
102
RTVSPropertyOp18
 70
     1
102
RTVSPropertyOp19
 70
     1
102
RTVSPropertyOp20
 70
     1
102
RTVSPropertyOp21
 70
     1
102
RTVSPropertyOp22
 70
     1
102
RTVSPropertyOp23
 70
     1
102
RTVSPropertyOp24
 70
     1
102
RTVSPropertyOp25
 70
     1
102
RTVSPropertyOp26
 70
     1
102
RTVSPropertyOp27
 70
     1
102
RTVSPropertyOp28
 70
     1
102
RTVSPropertyOp29
 70
     1
102
RTVSPropertyOp30
 70
     1
102
RTVSPropertyOp31
 70
     1
102
RTVSPropertyOp32
 70
     1
102
RTVSPropertyOp33
 70
     1
102
RTVSPropertyOp34
 70
     1
102
RTVSPropertyOp35
 70
     1
102
RTVSPropertyOp36
 70
     1
102
RTVSPropertyOp37
 70
     1
102
RTVSPropertyOp38
 70
     1
102
RTVSPropertyOp39
 70
     1
102
RTVSPropertyOp40
 70
     1
102
RTVSPropertyOp41
 70
     1
102
RTVSPropertyOp42
 70
     1
102
RTVSPropertyOp43
 70
     1
102
RTVSPropertyOp44
 70
     1
102
RTVSPropertyOp45
 70
     1
102
RTVSPropertyOp46
 70
     1
102
RTVSPropertyOp47
 70
     1
102
RTVSPropertyOp48
 70
     1
102
RTVSPropertyOp49
 70
     1
102
RTVSPropertyOp50
 70
     1
102
RTVSPropertyOp51
 70
     0
102
RTVSPropertyOp52
 70
     0
102
RTVSPropertyOp53
 70
     1
102
RTVSPropertyOp54
 70
     1
102
RTVSPropertyOp55
 70
     1
102
RTVSPropertyOp56
 70
     1
102
RTVSPropertyOp57
 70
     1
102
RTVSPropertyOp58
 70
     1
102
RTVSPropertyOp59
 70
     1
102
RTVSPropertyOp60
 70
     1
102
RTVSPropertyOp61
 70
     1
102
RTVSPropertyOp62
 70
     1
  0
XRECORD
  5
E8
102
{ACAD_REACTORS
330
E7
102
}
330
E7
100
AcDbXrecord
280
     1
102
RTVSPost2010Prop28
280
     0
102
RTVSPost2010PropOp28
 70
     0
102
RTVSPost2010Prop29
280
     1
102
RTVSPost2010PropOp29
 70
     0
102
RTVSPost2010Prop30
280
     1
102
RTVSPost2010PropOp30
 70
     0
102
RTVSPost2010Prop31
280
     0
102
RTVSPost2010PropOp31
 70
     0
102
RTVSPost2010Prop32
280
     0
102
RTVSPost2010PropOp32
 70
     0
102
RTVSPost2010Prop33
280
     0
102
RTVSPost2010PropOp33
 70
     0
102
RTVSPost2010Prop34
280
     0
102
RTVSPost2010PropOp34
 70
     0
102
RTVSPost2010Prop35
280
     0
102
RTVSPost2010PropOp35
 70
     0
102
RTVSPost2010Prop36
280
     0
102
RTVSPost2010PropOp36
 70
     0
102
RTVSPost2010Prop37
 90
       50
102
RTVSPost2010PropOp37
 70
     0
102
RTVSPost2010Prop38
140
0.0
102
RTVSPost2010PropOp38
 70
     0
102
RTVSPost2010Prop39
140
1.0
102
RTVSPost2010PropOp39
 70
     0
102
RTVSPost2010Prop40
 90
        0
102
RTVSPost2010PropOp40
 70
     0
102
RTVSPost2010Prop41ColorIndex
 90
       18
102
RTVSPost2010Prop41ColorRGB
 90
        0
102
RTVSPost2010PropOp41
 70
     0
102
RTVSPost2010Prop42
 90
       50
102
RTVSPost2010PropOp42
 70
     0
102
RTVSPost2010Prop43
 90
        3
102
RTVSPost2010PropOp43
 70
     0
102
RTVSPost2010Prop44ColorIndex
 90
        5
102
RTVSPost2010Prop44ColorRGB
 90
      255
102
RTVSPost2010PropOp44
 70
     0
102
RTVSPost2010Prop45
280
     0
102
RTVSPost2010PropOp45
 70
     0
102
RTVSPost2010Prop46
 90
       50
102
RTVSPost2010PropOp46
 70
     0
102
RTVSPost2010Prop47
 90
       50
102
RTVSPost2010PropOp47
 70
     0
102
RTVSPost2010Prop48
 90
       50
102
RTVSPost2010PropOp48
 70
     0
102
RTVSPost2010Prop49
280
     0
102
RTVSPost2010PropOp49
 70
     0
102
RTVSPost2010Prop50
 90
       50
102
RTVSPost2010PropOp50
 70
     0
102
RTVSPost2010Prop51ColorIndex
 90
      256
102
RTVSPost2010Prop51ColorRGB
 90
-16777216
102
RTVSPost2010PropOp51
 70
     0
102
RTVSPost2010Prop52
140
1.0
102
RTVSPost2010PropOp52
 70
     0
102
RTVSPost2010Prop53
 90
        2
102
RTVSPost2010PropOp53
 70
     0
102
RTVSPost2010Prop54
  1
strokes_ogs.tif
102
RTVSPost2010PropOp54
 70
     0
102
RTVSPost2010Prop55
280
     0
102
RTVSPost2010PropOp55
 70
     0
102
RTVSPost2010Prop56
140
1.0
102
RTVSPost2010PropOp56
 70
     0
102
RTVSPost2010Prop57
140
1.0
102
RTVSPost2010PropOp57
 70
     0
102
RTVSPropertyOp0
 70
     0
102
RTVSPropertyOp1
 70
     0
102
RTVSPropertyOp2
 70
     0
102
RTVSPropertyOp3
 70
     0
102
RTVSPropertyOp4
 70
     0
102
RTVSPropertyOp5
 70
     0
102
RTVSPropertyOp6
 70
     0
102
RTVSPropertyOp7
 70
     0
102
RTVSPropertyOp8
 70
     0
102
RTVSPropertyOp9
 70
     0
102
RTVSPropertyOp10
 70
     0
102
RTVSPropertyOp11
 70
     0
102
RTVSPropertyOp12
 70
     0
102
RTVSPropertyOp13
 70
     0
102
RTVSPropertyOp14
 70
     2
102
RTVSPropertyOp15
 70
     0
102
RTVSPropertyOp16
 70
     0
102
RTVSPropertyOp17
 70
     0
102
RTVSPropertyOp18
 70
     0
102
RTVSPropertyOp19
 70
     0
102
RTVSPropertyOp20
 70
     0
102
RTVSPropertyOp21
 70
     0
102
RTVSPropertyOp22
 70
     0
102
RTVSPropertyOp23
 70
     0
102
RTVSPropertyOp24
 70
     0
102
RTVSPropertyOp25
 70
     0
102
RTVSPropertyOp26
 70
     0
102
RTVSPropertyOp27
 70
     0
102
RTVSPropertyOp28
 70
     0
102
RTVSPropertyOp29
 70
     0
102
RTVSPropertyOp30
 70
     0
102
RTVSPropertyOp31
 70
     0
102
RTVSPropertyOp32
 70
     0
102
RTVSPropertyOp33
 70
     0
102
RTVSPropertyOp34
 70
     0
102
RTVSPropertyOp35
 70
     0
102
RTVSPropertyOp36
 70
     0
102
RTVSPropertyOp37
 70
     0
102
RTVSPropertyOp38
 70
     0
102
RTVSPropertyOp39
 70
     0
102
RTVSPropertyOp40
 70
     0
102
RTVSPropertyOp41
 70
     0
102
RTVSPropertyOp42
 70
     0
102
RTVSPropertyOp43
 70
     0
102
RTVSPropertyOp44
 70
     0
102
RTVSPropertyOp45
 70
     0
102
RTVSPropertyOp46
 70
     0
102
RTVSPropertyOp47
 70
     0
102
RTVSPropertyOp48
 70
     0
102
RTVSPropertyOp49
 70
     0
102
RTVSPropertyOp50
 70
     0
102
RTVSPropertyOp51
 70
     0
102
RTVSPropertyOp52
 70
     0
102
RTVSPropertyOp53
 70
     0
102
RTVSPropertyOp54
 70
     0
102
RTVSPropertyOp55
 70
     0
102
RTVSPropertyOp56
 70
     0
102
RTVSPropertyOp57
 70
     0
102
RTVSPropertyOp58
 70
     0
102
RTVSPropertyOp59
 70
     0
102
RTVSPropertyOp60
 70
     0
102
RTVSPropertyOp61
 70
     0
102
RTVSPropertyOp62
 70
     0
  0
XRECORD
  5
D8
102
{ACAD_REACTORS
330
D7
102
}
330
D7
100
AcDbXrecord
280
     1
102
RTVSPost2010Prop28
280
     0
102
RTVSPost2010PropOp28
 70
     1
102
RTVSPost2010Prop29
280
     1
102
RTVSPost2010PropOp29
 70
     1
102
RTVSPost2010Prop30
280
     1
102
RTVSPost2010PropOp30
 70
     1
102
RTVSPost2010Prop31
280
     0
102
RTVSPost2010PropOp31
 70
     1
102
RTVSPost2010Prop32
280
     0
102
RTVSPost2010PropOp32
 70
     1
102
RTVSPost2010Prop33
280
     0
102
RTVSPost2010PropOp33
 70
     1
102
RTVSPost2010Prop34
280
     0
102
RTVSPost2010PropOp34
 70
     1
102
RTVSPost2010Prop35
280
     0
102
RTVSPost2010PropOp35
 70
     1
102
RTVSPost2010Prop36
280
     0
102
RTVSPost2010PropOp36
 70
     1
102
RTVSPost2010Prop37
 90
       50
102
RTVSPost2010PropOp37
 70
     1
102
RTVSPost2010Prop38
140
0.0
102
RTVSPost2010PropOp38
 70
     1
102
RTVSPost2010Prop39
140
1.0
102
RTVSPost2010PropOp39
 70
     1
102
RTVSPost2010Prop40
 90
        0
102
RTVSPost2010PropOp40
 70
     1
102
RTVSPost2010Prop41ColorIndex
 90
       18
102
RTVSPost2010Prop41ColorRGB
 90
        0
102
RTVSPost2010PropOp41
 70
     1
102
RTVSPost2010Prop42
 90
       50
102
RTVSPost2010PropOp42
 70
     1
102
RTVSPost2010Prop43
 90
        3
102
RTVSPost2010PropOp43
 70
     1
102
RTVSPost2010Prop44ColorIndex
 90
        5
102
RTVSPost2010Prop44ColorRGB
 90
      255
102
RTVSPost2010PropOp44
 70
     1
102
RTVSPost2010Prop45
280
     0
102
RTVSPost2010PropOp45
 70
     1
102
RTVSPost2010Prop46
 90
       50
102
RTVSPost2010PropOp46
 70
     1
102
RTVSPost2010Prop47
 90
       50
102
RTVSPost2010PropOp47
 70
     1
102
RTVSPost2010Prop48
 90
       50
102
RTVSPost2010PropOp48
 70
     1
102
RTVSPost2010Prop49
280
     0
102
RTVSPost2010PropOp49
 70
     1
102
RTVSPost2010Prop50
 90
       50
102
RTVSPost2010PropOp50
 70
     1
102
RTVSPost2010Prop51ColorIndex
 90
      256
102
RTVSPost2010Prop51ColorRGB
 90
-16777216
102
RTVSPost2010PropOp51
 70
     0
102
RTVSPost2010Prop52
140
1.0
102
RTVSPost2010PropOp52
 70
     0
102
RTVSPost2010Prop53
 90
        2
102
RTVSPost2010PropOp53
 70
     1
102
RTVSPost2010Prop54
  1
strokes_ogs.tif
102
RTVSPost2010PropOp54
 70
     1
102
RTVSPost2010Prop55
280
     0
102
RTVSPost2010PropOp55
 70
     1
102
RTVSPost2010Prop56
140
1.0
102
RTVSPost2010PropOp56
 70
     1
102
RTVSPost2010Prop57
140
1.0
102
RTVSPost2010PropOp57
 70
     1
102
RTVSPropertyOp0
 70
     1
102
RTVSPropertyOp1
 70
     1
102
RTVSPropertyOp2
 70
     1
102
RTVSPropertyOp3
 70
     1
102
RTVSPropertyOp4
 70
     1
102
RTVSPropertyOp5
 70
     1
102
RTVSPropertyOp6
 70
     1
102
RTVSPropertyOp7
 70
     1
102
RTVSPropertyOp8
 70
     1
102
RTVSPropertyOp9
 70
     1
102
RTVSPropertyOp10
 70
     1
102
RTVSPropertyOp11
 70
     1
102
RTVSPropertyOp12
 70
     1
102
RTVSPropertyOp13
 70
     1
102
RTVSPropertyOp14
 70
     1
102
RTVSPropertyOp15
 70
     1
102
RTVSPropertyOp16
 70
     1
102
RTVSPropertyOp17
 70
     1
102
RTVSPropertyOp18
 70
     1
102
RTVSPropertyOp19
 70
     1
102
RTVSPropertyOp20
 70
     1
102
RTVSPropertyOp21
 70
     1
102
RTVSPropertyOp22
 70
     1
102
RTVSPropertyOp23
 70
     1
102
RTVSPropertyOp24
 70
     1
102
RTVSPropertyOp25
 70
     1
102
RTVSPropertyOp26
 70
     1
102
RTVSPropertyOp27
 70
     1
102
RTVSPropertyOp28
 70
     1
102
RTVSPropertyOp29
 70
     1
102
RTVSPropertyOp30
 70
     1
102
RTVSPropertyOp31
 70
     1
102
RTVSPropertyOp32
 70
     1
102
RTVSPropertyOp33
 70
     1
102
RTVSPropertyOp34
 70
     1
102
RTVSPropertyOp35
 70
     1
102
RTVSPropertyOp36
 70
     1
102
RTVSPropertyOp37
 70
     1
102
RTVSPropertyOp38
 70
     1
102
RTVSPropertyOp39
 70
     1
102
RTVSPropertyOp40
 70
     1
102
RTVSPropertyOp41
 70
     1
102
RTVSPropertyOp42
 70
     1
102
RTVSPropertyOp43
 70
     1
102
RTVSPropertyOp44
 70
     1
102
RTVSPropertyOp45
 70
     1
102
RTVSPropertyOp46
 70
     1
102
RTVSPropertyOp47
 70
     1
102
RTVSPropertyOp48
 70
     1
102
RTVSPropertyOp49
 70
     1
102
RTVSPropertyOp50
 70
     1
102
RTVSPropertyOp51
 70
     0
102
RTVSPropertyOp52
 70
     0
102
RTVSPropertyOp53
 70
     1
102
RTVSPropertyOp54
 70
     1
102
RTVSPropertyOp55
 70
     1
102
RTVSPropertyOp56
 70
     1
102
RTVSPropertyOp57
 70
     1
102
RTVSPropertyOp58
 70
     1
102
RTVSPropertyOp59
 70
     1
102
RTVSPropertyOp60
 70
     1
102
RTVSPropertyOp61
 70
     1
102
RTVSPropertyOp62
 70
     1
  0
XRECORD
  5
EA
102
{ACAD_REACTORS
330
E9
102
}
330
E9
100
AcDbXrecord
280
     1
102
RTVSPost2010Prop28
280
     0
102
RTVSPost2010PropOp28
 70
     0
102
RTVSPost2010Prop29
280
     1
102
RTVSPost2010PropOp29
 70
     0
102
RTVSPost2010Prop30
280
     1
102
RTVSPost2010PropOp30
 70
     0
102
RTVSPost2010Prop31
280
     0
102
RTVSPost2010PropOp31
 70
     0
102
RTVSPost2010Prop32
280
     0
102
RTVSPost2010PropOp32
 70
     0
102
RTVSPost2010Prop33
280
     0
102
RTVSPost2010PropOp33
 70
     0
102
RTVSPost2010Prop34
280
     0
102
RTVSPost2010PropOp34
 70
     0
102
RTVSPost2010Prop35
280
     0
102
RTVSPost2010PropOp35
 70
     0
102
RTVSPost2010Prop36
280
     0
102
RTVSPost2010PropOp36
 70
     0
102
RTVSPost2010Prop37
 90
       50
102
RTVSPost2010PropOp37
 70
     0
102
RTVSPost2010Prop38
140
0.0
102
RTVSPost2010PropOp38
 70
     0
102
RTVSPost2010Prop39
140
1.0
102
RTVSPost2010PropOp39
 70
     0
102
RTVSPost2010Prop40
 90
        0
102
RTVSPost2010PropOp40
 70
     0
102
RTVSPost2010Prop41ColorIndex
 90
       18
102
RTVSPost2010Prop41ColorRGB
 90
        0
102
RTVSPost2010PropOp41
 70
     0
102
RTVSPost2010Prop42
 90
       50
102
RTVSPost2010PropOp42
 70
     0
102
RTVSPost2010Prop43
 90
        3
102
RTVSPost2010PropOp43
 70
     0
102
RTVSPost2010Prop44ColorIndex
 90
        5
102
RTVSPost2010Prop44ColorRGB
 90
      255
102
RTVSPost2010PropOp44
 70
     0
102
RTVSPost2010Prop45
280
     0
102
RTVSPost2010PropOp45
 70
     0
102
RTVSPost2010Prop46
 90
       50
102
RTVSPost2010PropOp46
 70
     0
102
RTVSPost2010Prop47
 90
       50
102
RTVSPost2010PropOp47
 70
     0
102
RTVSPost2010Prop48
 90
       50
102
RTVSPost2010PropOp48
 70
     0
102
RTVSPost2010Prop49
280
     0
102
RTVSPost2010PropOp49
 70
     0
102
RTVSPost2010Prop50
 90
       50
102
RTVSPost2010PropOp50
 70
     0
102
RTVSPost2010Prop51ColorIndex
 90
      256
102
RTVSPost2010Prop51ColorRGB
 90
-16777216
102
RTVSPost2010PropOp51
 70
     0
102
RTVSPost2010Prop52
140
1.0
102
RTVSPost2010PropOp52
 70
     0
102
RTVSPost2010Prop53
 90
        2
102
RTVSPost2010PropOp53
 70
     0
102
RTVSPost2010Prop54
  1
strokes_ogs.tif
102
RTVSPost2010PropOp54
 70
     0
102
RTVSPost2010Prop55
280
     0
102
RTVSPost2010PropOp55
 70
     0
102
RTVSPost2010Prop56
140
1.0
102
RTVSPost2010PropOp56
 70
     0
102
RTVSPost2010Prop57
140
1.0
102
RTVSPost2010PropOp57
 70
     0
102
RTVSPropertyOp0
 70
     0
102
RTVSPropertyOp1
 70
     0
102
RTVSPropertyOp2
 70
     0
102
RTVSPropertyOp3
 70
     0
102
RTVSPropertyOp4
 70
     0
102
RTVSPropertyOp5
 70
     0
102
RTVSPropertyOp6
 70
     0
102
RTVSPropertyOp7
 70
     0
102
RTVSPropertyOp8
 70
     0
102
RTVSPropertyOp9
 70
     0
102
RTVSPropertyOp10
 70
     0
102
RTVSPropertyOp11
 70
     0
102
RTVSPropertyOp12
 70
     0
102
RTVSPropertyOp13
 70
     0
102
RTVSPropertyOp14
 70
     2
102
RTVSPropertyOp15
 70
     0
102
RTVSPropertyOp16
 70
     0
102
RTVSPropertyOp17
 70
     0
102
RTVSPropertyOp18
 70
     0
102
RTVSPropertyOp19
 70
     0
102
RTVSPropertyOp20
 70
     0
102
RTVSPropertyOp21
 70
     0
102
RTVSPropertyOp22
 70
     0
102
RTVSPropertyOp23
 70
     0
102
RTVSPropertyOp24
 70
     0
102
RTVSPropertyOp25
 70
     0
102
RTVSPropertyOp26
 70
     0
102
RTVSPropertyOp27
 70
     0
102
RTVSPropertyOp28
 70
     0
102
RTVSPropertyOp29
 70
     0
102
RTVSPropertyOp30
 70
     0
102
RTVSPropertyOp31
 70
     0
102
RTVSPropertyOp32
 70
     0
102
RTVSPropertyOp33
 70
     0
102
RTVSPropertyOp34
 70
     0
102
RTVSPropertyOp35
 70
     0
102
RTVSPropertyOp36
 70
     0
102
RTVSPropertyOp37
 70
     0
102
RTVSPropertyOp38
 70
     0
102
RTVSPropertyOp39
 70
     0
102
RTVSPropertyOp40
 70
     0
102
RTVSPropertyOp41
 70
     0
102
RTVSPropertyOp42
 70
     0
102
RTVSPropertyOp43
 70
     0
102
RTVSPropertyOp44
 70
     0
102
RTVSPropertyOp45
 70
     0
102
RTVSPropertyOp46
 70
     0
102
RTVSPropertyOp47
 70
     0
102
RTVSPropertyOp48
 70
     0
102
RTVSPropertyOp49
 70
     0
102
RTVSPropertyOp50
 70
     0
102
RTVSPropertyOp51
 70
     0
102
RTVSPropertyOp52
 70
     0
102
RTVSPropertyOp53
 70
     0
102
RTVSPropertyOp54
 70
     0
102
RTVSPropertyOp55
 70
     0
102
RTVSPropertyOp56
 70
     0
102
RTVSPropertyOp57
 70
     0
102
RTVSPropertyOp58
 70
     0
102
RTVSPropertyOp59
 70
     0
102
RTVSPropertyOp60
 70
     0
102
RTVSPropertyOp61
 70
     0
102
RTVSPropertyOp62
 70
     0
  0
XRECORD
  5
D0
102
{ACAD_REACTORS
330
CF
102
}
330
CF
100
AcDbXrecord
280
     1
102
RTVSPost2010Prop28
280
     0
102
RTVSPost2010PropOp28
 70
     1
102
RTVSPost2010Prop29
280
     1
102
RTVSPost2010PropOp29
 70
     1
102
RTVSPost2010Prop30
280
     1
102
RTVSPost2010PropOp30
 70
     1
102
RTVSPost2010Prop31
280
     0
102
RTVSPost2010PropOp31
 70
     1
102
RTVSPost2010Prop32
280
     0
102
RTVSPost2010PropOp32
 70
     1
102
RTVSPost2010Prop33
280
     0
102
RTVSPost2010PropOp33
 70
     1
102
RTVSPost2010Prop34
280
     0
102
RTVSPost2010PropOp34
 70
     1
102
RTVSPost2010Prop35
280
     0
102
RTVSPost2010PropOp35
 70
     1
102
RTVSPost2010Prop36
280
     0
102
RTVSPost2010PropOp36
 70
     1
102
RTVSPost2010Prop37
 90
       50
102
RTVSPost2010PropOp37
 70
     1
102
RTVSPost2010Prop38
140
0.0
102
RTVSPost2010PropOp38
 70
     1
102
RTVSPost2010Prop39
140
1.0
102
RTVSPost2010PropOp39
 70
     1
102
RTVSPost2010Prop40
 90
        0
102
RTVSPost2010PropOp40
 70
     1
102
RTVSPost2010Prop41ColorIndex
 90
       18
102
RTVSPost2010Prop41ColorRGB
 90
        0
102
RTVSPost2010PropOp41
 70
     1
102
RTVSPost2010Prop42
 90
       50
102
RTVSPost2010PropOp42
 70
     1
102
RTVSPost2010Prop43
 90
        3
102
RTVSPost2010PropOp43
 70
     1
102
RTVSPost2010Prop44ColorIndex
 90
        5
102
RTVSPost2010Prop44ColorRGB
 90
      255
102
RTVSPost2010PropOp44
 70
     1
102
RTVSPost2010Prop45
280
     0
102
RTVSPost2010PropOp45
 70
     1
102
RTVSPost2010Prop46
 90
       50
102
RTVSPost2010PropOp46
 70
     1
102
RTVSPost2010Prop47
 90
       50
102
RTVSPost2010PropOp47
 70
     1
102
RTVSPost2010Prop48
 90
       50
102
RTVSPost2010PropOp48
 70
     1
102
RTVSPost2010Prop49
280
     0
102
RTVSPost2010PropOp49
 70
     1
102
RTVSPost2010Prop50
 90
       50
102
RTVSPost2010PropOp50
 70
     1
102
RTVSPost2010Prop51ColorIndex
 90
      256
102
RTVSPost2010Prop51ColorRGB
 90
-16777216
102
RTVSPost2010PropOp51
 70
     0
102
RTVSPost2010Prop52
140
1.0
102
RTVSPost2010PropOp52
 70
     0
102
RTVSPost2010Prop53
 90
        2
102
RTVSPost2010PropOp53
 70
     1
102
RTVSPost2010Prop54
  1
strokes_ogs.tif
102
RTVSPost2010PropOp54
 70
     1
102
RTVSPost2010Prop55
280
     0
102
RTVSPost2010PropOp55
 70
     1
102
RTVSPost2010Prop56
140
1.0
102
RTVSPost2010PropOp56
 70
     1
102
RTVSPost2010Prop57
140
1.0
102
RTVSPost2010PropOp57
 70
     1
102
RTVSPropertyOp0
 70
     1
102
RTVSPropertyOp1
 70
     1
102
RTVSPropertyOp2
 70
     1
102
RTVSPropertyOp3
 70
     1
102
RTVSPropertyOp4
 70
     1
102
RTVSPropertyOp5
 70
     1
102
RTVSPropertyOp6
 70
     1
102
RTVSPropertyOp7
 70
     1
102
RTVSPropertyOp8
 70
     1
102
RTVSPropertyOp9
 70
     1
102
RTVSPropertyOp10
 70
     1
102
RTVSPropertyOp11
 70
     1
102
RTVSPropertyOp12
 70
     1
102
RTVSPropertyOp13
 70
     1
102
RTVSPropertyOp14
 70
     1
102
RTVSPropertyOp15
 70
     1
102
RTVSPropertyOp16
 70
     1
102
RTVSPropertyOp17
 70
     1
102
RTVSPropertyOp18
 70
     1
102
RTVSPropertyOp19
 70
     1
102
RTVSPropertyOp20
 70
     1
102
RTVSPropertyOp21
 70
     1
102
RTVSPropertyOp22
 70
     1
102
RTVSPropertyOp23
 70
     1
102
RTVSPropertyOp24
 70
     1
102
RTVSPropertyOp25
 70
     1
102
RTVSPropertyOp26
 70
     1
102
RTVSPropertyOp27
 70
     1
102
RTVSPropertyOp28
 70
     1
102
RTVSPropertyOp29
 70
     1
102
RTVSPropertyOp30
 70
     1
102
RTVSPropertyOp31
 70
     1
102
RTVSPropertyOp32
 70
     1
102
RTVSPropertyOp33
 70
     1
102
RTVSPropertyOp34
 70
     1
102
RTVSPropertyOp35
 70
     1
102
RTVSPropertyOp36
 70
     1
102
RTVSPropertyOp37
 70
     1
102
RTVSPropertyOp38
 70
     1
102
RTVSPropertyOp39
 70
     1
102
RTVSPropertyOp40
 70
     1
102
RTVSPropertyOp41
 70
     1
102
RTVSPropertyOp42
 70
     1
102
RTVSPropertyOp43
 70
     1
102
RTVSPropertyOp44
 70
     1
102
RTVSPropertyOp45
 70
     1
102
RTVSPropertyOp46
 70
     1
102
RTVSPropertyOp47
 70
     1
102
RTVSPropertyOp48
 70
     1
102
RTVSPropertyOp49
 70
     1
102
RTVSPropertyOp50
 70
     1
102
RTVSPropertyOp51
 70
     0
102
RTVSPropertyOp52
 70
     0
102
RTVSPropertyOp53
 70
     1
102
RTVSPropertyOp54
 70
     1
102
RTVSPropertyOp55
 70
     1
102
RTVSPropertyOp56
 70
     1
102
RTVSPropertyOp57
 70
     1
102
RTVSPropertyOp58
 70
     1
102
RTVSPropertyOp59
 70
     1
102
RTVSPropertyOp60
 70
     1
102
RTVSPropertyOp61
 70
     1
102
RTVSPropertyOp62
 70
     1
  0
XRECORD
  5
E6
102
{ACAD_REACTORS
330
E5
102
}
330
E5
100
AcDbXrecord
280
     1
102
RTVSPost2010Prop28
280
     0
102
RTVSPost2010PropOp28
 70
     1
102
RTVSPost2010Prop29
280
     1
102
RTVSPost2010PropOp29
 70
     1
102
RTVSPost2010Prop30
280
     1
102
RTVSPost2010PropOp30
 70
     1
102
RTVSPost2010Prop31
280
     0
102
RTVSPost2010PropOp31
 70
     1
102
RTVSPost2010Prop32
280
     0
102
RTVSPost2010PropOp32
 70
     1
102
RTVSPost2010Prop33
280
     0
102
RTVSPost2010PropOp33
 70
     1
102
RTVSPost2010Prop34
280
     0
102
RTVSPost2010PropOp34
 70
     1
102
RTVSPost2010Prop35
280
     0
102
RTVSPost2010PropOp35
 70
     1
102
RTVSPost2010Prop36
280
     0
102
RTVSPost2010PropOp36
 70
     1
102
RTVSPost2010Prop37
 90
       50
102
RTVSPost2010PropOp37
 70
     1
102
RTVSPost2010Prop38
140
0.0
102
RTVSPost2010PropOp38
 70
     1
102
RTVSPost2010Prop39
140
1.0
102
RTVSPost2010PropOp39
 70
     1
102
RTVSPost2010Prop40
 90
        0
102
RTVSPost2010PropOp40
 70
     1
102
RTVSPost2010Prop41ColorIndex
 90
       18
102
RTVSPost2010Prop41ColorRGB
 90
        0
102
RTVSPost2010PropOp41
 70
     1
102
RTVSPost2010Prop42
 90
       50
102
RTVSPost2010PropOp42
 70
     1
102
RTVSPost2010Prop43
 90
        3
102
RTVSPost2010PropOp43
 70
     1
102
RTVSPost2010Prop44ColorIndex
 90
        5
102
RTVSPost2010Prop44ColorRGB
 90
      255
102
RTVSPost2010PropOp44
 70
     1
102
RTVSPost2010Prop45
280
     0
102
RTVSPost2010PropOp45
 70
     1
102
RTVSPost2010Prop46
 90
       50
102
RTVSPost2010PropOp46
 70
     1
102
RTVSPost2010Prop47
 90
       50
102
RTVSPost2010PropOp47
 70
     1
102
RTVSPost2010Prop48
 90
       50
102
RTVSPost2010PropOp48
 70
     1
102
RTVSPost2010Prop49
280
     0
102
RTVSPost2010PropOp49
 70
     1
102
RTVSPost2010Prop50
 90
       50
102
RTVSPost2010PropOp50
 70
     1
102
RTVSPost2010Prop51ColorIndex
 90
      256
102
RTVSPost2010Prop51ColorRGB
 90
-16777216
102
RTVSPost2010PropOp51
 70
     0
102
RTVSPost2010Prop52
140
1.0
102
RTVSPost2010PropOp52
 70
     0
102
RTVSPost2010Prop53
 90
        2
102
RTVSPost2010PropOp53
 70
     1
102
RTVSPost2010Prop54
  1
strokes_ogs.tif
102
RTVSPost2010PropOp54
 70
     1
102
RTVSPost2010Prop55
280
     0
102
RTVSPost2010PropOp55
 70
     1
102
RTVSPost2010Prop56
140
1.0
102
RTVSPost2010PropOp56
 70
     1
102
RTVSPost2010Prop57
140
1.0
102
RTVSPost2010PropOp57
 70
     1
102
RTVSPropertyOp0
 70
     1
102
RTVSPropertyOp1
 70
     1
102
RTVSPropertyOp2
 70
     1
102
RTVSPropertyOp3
 70
     1
102
RTVSPropertyOp4
 70
     1
102
RTVSPropertyOp5
 70
     1
102
RTVSPropertyOp6
 70
     1
102
RTVSPropertyOp7
 70
     1
102
RTVSPropertyOp8
 70
     1
102
RTVSPropertyOp9
 70
     1
102
RTVSPropertyOp10
 70
     1
102
RTVSPropertyOp11
 70
     1
102
RTVSPropertyOp12
 70
     1
102
RTVSPropertyOp13
 70
     1
102
RTVSPropertyOp14
 70
     1
102
RTVSPropertyOp15
 70
     1
102
RTVSPropertyOp16
 70
     1
102
RTVSPropertyOp17
 70
     1
102
RTVSPropertyOp18
 70
     1
102
RTVSPropertyOp19
 70
     1
102
RTVSPropertyOp20
 70
     1
102
RTVSPropertyOp21
 70
     1
102
RTVSPropertyOp22
 70
     1
102
RTVSPropertyOp23
 70
     1
102
RTVSPropertyOp24
 70
     1
102
RTVSPropertyOp25
 70
     1
102
RTVSPropertyOp26
 70
     1
102
RTVSPropertyOp27
 70
     1
102
RTVSPropertyOp28
 70
     1
102
RTVSPropertyOp29
 70
     1
102
RTVSPropertyOp30
 70
     1
102
RTVSPropertyOp31
 70
     1
102
RTVSPropertyOp32
 70
     1
102
RTVSPropertyOp33
 70
     1
102
RTVSPropertyOp34
 70
     1
102
RTVSPropertyOp35
 70
     1
102
RTVSPropertyOp36
 70
     1
102
RTVSPropertyOp37
 70
     1
102
RTVSPropertyOp38
 70
     1
102
RTVSPropertyOp39
 70
     1
102
RTVSPropertyOp40
 70
     1
102
RTVSPropertyOp41
 70
     1
102
RTVSPropertyOp42
 70
     1
102
RTVSPropertyOp43
 70
     1
102
RTVSPropertyOp44
 70
     1
102
RTVSPropertyOp45
 70
     1
102
RTVSPropertyOp46
 70
     1
102
RTVSPropertyOp47
 70
     1
102
RTVSPropertyOp48
 70
     1
102
RTVSPropertyOp49
 70
     1
102
RTVSPropertyOp50
 70
     1
102
RTVSPropertyOp51
 70
     0
102
RTVSPropertyOp52
 70
     0
102
RTVSPropertyOp53
 70
     1
102
RTVSPropertyOp54
 70
     1
102
RTVSPropertyOp55
 70
     1
102
RTVSPropertyOp56
 70
     1
102
RTVSPropertyOp57
 70
     1
102
RTVSPropertyOp58
 70
     1
102
RTVSPropertyOp59
 70
     1
102
RTVSPropertyOp60
 70
     1
102
RTVSPropertyOp61
 70
     1
102
RTVSPropertyOp62
 70
     1
  0
XRECORD
  5
E4
102
{ACAD_REACTORS
330
E3
102
}
330
E3
100
AcDbXrecord
280
     1
102
RTVSPost2010Prop28
280
     0
102
RTVSPost2010PropOp28
 70
     1
102
RTVSPost2010Prop29
280
     1
102
RTVSPost2010PropOp29
 70
     1
102
RTVSPost2010Prop30
280
     1
102
RTVSPost2010PropOp30
 70
     1
102
RTVSPost2010Prop31
280
     0
102
RTVSPost2010PropOp31
 70
     1
102
RTVSPost2010Prop32
280
     0
102
RTVSPost2010PropOp32
 70
     1
102
RTVSPost2010Prop33
280
     0
102
RTVSPost2010PropOp33
 70
     1
102
RTVSPost2010Prop34
280
     0
102
RTVSPost2010PropOp34
 70
     1
102
RTVSPost2010Prop35
280
     0
102
RTVSPost2010PropOp35
 70
     1
102
RTVSPost2010Prop36
280
     0
102
RTVSPost2010PropOp36
 70
     1
102
RTVSPost2010Prop37
 90
       50
102
RTVSPost2010PropOp37
 70
     1
102
RTVSPost2010Prop38
140
0.0
102
RTVSPost2010PropOp38
 70
     1
102
RTVSPost2010Prop39
140
1.0
102
RTVSPost2010PropOp39
 70
     1
102
RTVSPost2010Prop40
 90
        0
102
RTVSPost2010PropOp40
 70
     1
102
RTVSPost2010Prop41ColorIndex
 90
       18
102
RTVSPost2010Prop41ColorRGB
 90
        0
102
RTVSPost2010PropOp41
 70
     1
102
RTVSPost2010Prop42
 90
       50
102
RTVSPost2010PropOp42
 70
     1
102
RTVSPost2010Prop43
 90
        3
102
RTVSPost2010PropOp43
 70
     1
102
RTVSPost2010Prop44ColorIndex
 90
        5
102
RTVSPost2010Prop44ColorRGB
 90
      255
102
RTVSPost2010PropOp44
 70
     1
102
RTVSPost2010Prop45
280
     0
102
RTVSPost2010PropOp45
 70
     1
102
RTVSPost2010Prop46
 90
       50
102
RTVSPost2010PropOp46
 70
     1
102
RTVSPost2010Prop47
 90
       50
102
RTVSPost2010PropOp47
 70
     1
102
RTVSPost2010Prop48
 90
       50
102
RTVSPost2010PropOp48
 70
     1
102
RTVSPost2010Prop49
280
     0
102
RTVSPost2010PropOp49
 70
     1
102
RTVSPost2010Prop50
 90
       50
102
RTVSPost2010PropOp50
 70
     1
102
RTVSPost2010Prop51ColorIndex
 90
      256
102
RTVSPost2010Prop51ColorRGB
 90
-16777216
102
RTVSPost2010PropOp51
 70
     0
102
RTVSPost2010Prop52
140
1.0
102
RTVSPost2010PropOp52
 70
     0
102
RTVSPost2010Prop53
 90
        2
102
RTVSPost2010PropOp53
 70
     1
102
RTVSPost2010Prop54
  1
strokes_ogs.tif
102
RTVSPost2010PropOp54
 70
     1
102
RTVSPost2010Prop55
280
     0
102
RTVSPost2010PropOp55
 70
     1
102
RTVSPost2010Prop56
140
1.0
102
RTVSPost2010PropOp56
 70
     1
102
RTVSPost2010Prop57
140
1.0
102
RTVSPost2010PropOp57
 70
     1
102
RTVSPropertyOp0
 70
     1
102
RTVSPropertyOp1
 70
     1
102
RTVSPropertyOp2
 70
     1
102
RTVSPropertyOp3
 70
     1
102
RTVSPropertyOp4
 70
     1
102
RTVSPropertyOp5
 70
     1
102
RTVSPropertyOp6
 70
     1
102
RTVSPropertyOp7
 70
     1
102
RTVSPropertyOp8
 70
     1
102
RTVSPropertyOp9
 70
     1
102
RTVSPropertyOp10
 70
     1
102
RTVSPropertyOp11
 70
     1
102
RTVSPropertyOp12
 70
     1
102
RTVSPropertyOp13
 70
     1
102
RTVSPropertyOp14
 70
     1
102
RTVSPropertyOp15
 70
     1
102
RTVSPropertyOp16
 70
     1
102
RTVSPropertyOp17
 70
     1
102
RTVSPropertyOp18
 70
     1
102
RTVSPropertyOp19
 70
     1
102
RTVSPropertyOp20
 70
     1
102
RTVSPropertyOp21
 70
     1
102
RTVSPropertyOp22
 70
     1
102
RTVSPropertyOp23
 70
     1
102
RTVSPropertyOp24
 70
     1
102
RTVSPropertyOp25
 70
     1
102
RTVSPropertyOp26
 70
     1
102
RTVSPropertyOp27
 70
     1
102
RTVSPropertyOp28
 70
     1
102
RTVSPropertyOp29
 70
     1
102
RTVSPropertyOp30
 70
     1
102
RTVSPropertyOp31
 70
     1
102
RTVSPropertyOp32
 70
     1
102
RTVSPropertyOp33
 70
     1
102
RTVSPropertyOp34
 70
     1
102
RTVSPropertyOp35
 70
     1
102
RTVSPropertyOp36
 70
     1
102
RTVSPropertyOp37
 70
     1
102
RTVSPropertyOp38
 70
     1
102
RTVSPropertyOp39
 70
     1
102
RTVSPropertyOp40
 70
     1
102
RTVSPropertyOp41
 70
     1
102
RTVSPropertyOp42
 70
     1
102
RTVSPropertyOp43
 70
     1
102
RTVSPropertyOp44
 70
     1
102
RTVSPropertyOp45
 70
     1
102
RTVSPropertyOp46
 70
     1
102
RTVSPropertyOp47
 70
     1
102
RTVSPropertyOp48
 70
     1
102
RTVSPropertyOp49
 70
     1
102
RTVSPropertyOp50
 70
     1
102
RTVSPropertyOp51
 70
     0
102
RTVSPropertyOp52
 70
     0
102
RTVSPropertyOp53
 70
     1
102
RTVSPropertyOp54
 70
     1
102
RTVSPropertyOp55
 70
     1
102
RTVSPropertyOp56
 70
     1
102
RTVSPropertyOp57
 70
     1
102
RTVSPropertyOp58
 70
     1
102
RTVSPropertyOp59
 70
     1
102
RTVSPropertyOp60
 70
     1
102
RTVSPropertyOp61
 70
     1
102
RTVSPropertyOp62
 70
     1
  0
XRECORD
  5
DE
102
{ACAD_REACTORS
330
DD
102
}
330
DD
100
AcDbXrecord
280
     1
102
RTVSPost2010Prop28
280
     0
102
RTVSPost2010PropOp28
 70
     1
102
RTVSPost2010Prop29
280
     1
102
RTVSPost2010PropOp29
 70
     1
102
RTVSPost2010Prop30
280
     1
102
RTVSPost2010PropOp30
 70
     1
102
RTVSPost2010Prop31
280
     0
102
RTVSPost2010PropOp31
 70
     1
102
RTVSPost2010Prop32
280
     0
102
RTVSPost2010PropOp32
 70
     1
102
RTVSPost2010Prop33
280
     0
102
RTVSPost2010PropOp33
 70
     1
102
RTVSPost2010Prop34
280
     0
102
RTVSPost2010PropOp34
 70
     1
102
RTVSPost2010Prop35
280
     0
102
RTVSPost2010PropOp35
 70
     1
102
RTVSPost2010Prop36
280
     0
102
RTVSPost2010PropOp36
 70
     1
102
RTVSPost2010Prop37
 90
       50
102
RTVSPost2010PropOp37
 70
     1
102
RTVSPost2010Prop38
140
0.0
102
RTVSPost2010PropOp38
 70
     1
102
RTVSPost2010Prop39
140
1.0
102
RTVSPost2010PropOp39
 70
     1
102
RTVSPost2010Prop40
 90
        0
102
RTVSPost2010PropOp40
 70
     1
102
RTVSPost2010Prop41ColorIndex
 90
       18
102
RTVSPost2010Prop41ColorRGB
 90
        0
102
RTVSPost2010PropOp41
 70
     1
102
RTVSPost2010Prop42
 90
       50
102
RTVSPost2010PropOp42
 70
     1
102
RTVSPost2010Prop43
 90
        3
102
RTVSPost2010PropOp43
 70
     1
102
RTVSPost2010Prop44ColorIndex
 90
        5
102
RTVSPost2010Prop44ColorRGB
 90
      255
102
RTVSPost2010PropOp44
 70
     1
102
RTVSPost2010Prop45
280
     0
102
RTVSPost2010PropOp45
 70
     1
102
RTVSPost2010Prop46
 90
       50
102
RTVSPost2010PropOp46
 70
     1
102
RTVSPost2010Prop47
 90
       50
102
RTVSPost2010PropOp47
 70
     1
102
RTVSPost2010Prop48
 90
       50
102
RTVSPost2010PropOp48
 70
     1
102
RTVSPost2010Prop49
280
     0
102
RTVSPost2010PropOp49
 70
     1
102
RTVSPost2010Prop50
 90
       50
102
RTVSPost2010PropOp50
 70
     1
102
RTVSPost2010Prop51ColorIndex
 90
      256
102
RTVSPost2010Prop51ColorRGB
 90
-16777216
102
RTVSPost2010PropOp51
 70
     0
102
RTVSPost2010Prop52
140
1.0
102
RTVSPost2010PropOp52
 70
     0
102
RTVSPost2010Prop53
 90
        2
102
RTVSPost2010PropOp53
 70
     1
102
RTVSPost2010Prop54
  1
strokes_ogs.tif
102
RTVSPost2010PropOp54
 70
     1
102
RTVSPost2010Prop55
280
     0
102
RTVSPost2010PropOp55
 70
     1
102
RTVSPost2010Prop56
140
1.0
102
RTVSPost2010PropOp56
 70
     1
102
RTVSPost2010Prop57
140
1.0
102
RTVSPost2010PropOp57
 70
     1
102
RTVSPropertyOp0
 70
     1
102
RTVSPropertyOp1
 70
     1
102
RTVSPropertyOp2
 70
     1
102
RTVSPropertyOp3
 70
     1
102
RTVSPropertyOp4
 70
     1
102
RTVSPropertyOp5
 70
     1
102
RTVSPropertyOp6
 70
     1
102
RTVSPropertyOp7
 70
     1
102
RTVSPropertyOp8
 70
     1
102
RTVSPropertyOp9
 70
     1
102
RTVSPropertyOp10
 70
     1
102
RTVSPropertyOp11
 70
     1
102
RTVSPropertyOp12
 70
     1
102
RTVSPropertyOp13
 70
     1
102
RTVSPropertyOp14
 70
     1
102
RTVSPropertyOp15
 70
     1
102
RTVSPropertyOp16
 70
     1
102
RTVSPropertyOp17
 70
     1
102
RTVSPropertyOp18
 70
     1
102
RTVSPropertyOp19
 70
     1
102
RTVSPropertyOp20
 70
     1
102
RTVSPropertyOp21
 70
     1
102
RTVSPropertyOp22
 70
     1
102
RTVSPropertyOp23
 70
     1
102
RTVSPropertyOp24
 70
     1
102
RTVSPropertyOp25
 70
     1
102
RTVSPropertyOp26
 70
     1
102
RTVSPropertyOp27
 70
     1
102
RTVSPropertyOp28
 70
     1
102
RTVSPropertyOp29
 70
     1
102
RTVSPropertyOp30
 70
     1
102
RTVSPropertyOp31
 70
     1
102
RTVSPropertyOp32
 70
     1
102
RTVSPropertyOp33
 70
     1
102
RTVSPropertyOp34
 70
     1
102
RTVSPropertyOp35
 70
     1
102
RTVSPropertyOp36
 70
     1
102
RTVSPropertyOp37
 70
     1
102
RTVSPropertyOp38
 70
     1
102
RTVSPropertyOp39
 70
     1
102
RTVSPropertyOp40
 70
     1
102
RTVSPropertyOp41
 70
     1
102
RTVSPropertyOp42
 70
     1
102
RTVSPropertyOp43
 70
     1
102
RTVSPropertyOp44
 70
     1
102
RTVSPropertyOp45
 70
     1
102
RTVSPropertyOp46
 70
     1
102
RTVSPropertyOp47
 70
     1
102
RTVSPropertyOp48
 70
     1
102
RTVSPropertyOp49
 70
     1
102
RTVSPropertyOp50
 70
     1
102
RTVSPropertyOp51
 70
     0
102
RTVSPropertyOp52
 70
     0
102
RTVSPropertyOp53
 70
     1
102
RTVSPropertyOp54
 70
     1
102
RTVSPropertyOp55
 70
     1
102
RTVSPropertyOp56
 70
     1
102
RTVSPropertyOp57
 70
     1
102
RTVSPropertyOp58
 70
     1
102
RTVSPropertyOp59
 70
     1
102
RTVSPropertyOp60
 70
     1
102
RTVSPropertyOp61
 70
     1
102
RTVSPropertyOp62
 70
     1
  0
XRECORD
  5
E0
102
{ACAD_REACTORS
330
DF
102
}
330
DF
100
AcDbXrecord
280
     1
102
RTVSPost2010Prop28
280
     0
102
RTVSPost2010PropOp28
 70
     1
102
RTVSPost2010Prop29
280
     1
102
RTVSPost2010PropOp29
 70
     1
102
RTVSPost2010Prop30
280
     1
102
RTVSPost2010PropOp30
 70
     1
102
RTVSPost2010Prop31
280
     0
102
RTVSPost2010PropOp31
 70
     1
102
RTVSPost2010Prop32
280
     0
102
RTVSPost2010PropOp32
 70
     1
102
RTVSPost2010Prop33
280
     0
102
RTVSPost2010PropOp33
 70
     1
102
RTVSPost2010Prop34
280
     0
102
RTVSPost2010PropOp34
 70
     1
102
RTVSPost2010Prop35
280
     0
102
RTVSPost2010PropOp35
 70
     1
102
RTVSPost2010Prop36
280
     0
102
RTVSPost2010PropOp36
 70
     1
102
RTVSPost2010Prop37
 90
       50
102
RTVSPost2010PropOp37
 70
     1
102
RTVSPost2010Prop38
140
0.0
102
RTVSPost2010PropOp38
 70
     1
102
RTVSPost2010Prop39
140
1.0
102
RTVSPost2010PropOp39
 70
     1
102
RTVSPost2010Prop40
 90
        0
102
RTVSPost2010PropOp40
 70
     1
102
RTVSPost2010Prop41ColorIndex
 90
       18
102
RTVSPost2010Prop41ColorRGB
 90
        0
102
RTVSPost2010PropOp41
 70
     1
102
RTVSPost2010Prop42
 90
       50
102
RTVSPost2010PropOp42
 70
     1
102
RTVSPost2010Prop43
 90
        3
102
RTVSPost2010PropOp43
 70
     1
102
RTVSPost2010Prop44ColorIndex
 90
        5
102
RTVSPost2010Prop44ColorRGB
 90
      255
102
RTVSPost2010PropOp44
 70
     1
102
RTVSPost2010Prop45
280
     0
102
RTVSPost2010PropOp45
 70
     1
102
RTVSPost2010Prop46
 90
       50
102
RTVSPost2010PropOp46
 70
     1
102
RTVSPost2010Prop47
 90
       50
102
RTVSPost2010PropOp47
 70
     1
102
RTVSPost2010Prop48
 90
       50
102
RTVSPost2010PropOp48
 70
     1
102
RTVSPost2010Prop49
280
     0
102
RTVSPost2010PropOp49
 70
     1
102
RTVSPost2010Prop50
 90
       50
102
RTVSPost2010PropOp50
 70
     1
102
RTVSPost2010Prop51ColorIndex
 90
      256
102
RTVSPost2010Prop51ColorRGB
 90
-16777216
102
RTVSPost2010PropOp51
 70
     0
102
RTVSPost2010Prop52
140
1.0
102
RTVSPost2010PropOp52
 70
     0
102
RTVSPost2010Prop53
 90
        2
102
RTVSPost2010PropOp53
 70
     1
102
RTVSPost2010Prop54
  1
strokes_ogs.tif
102
RTVSPost2010PropOp54
 70
     1
102
RTVSPost2010Prop55
280
     0
102
RTVSPost2010PropOp55
 70
     1
102
RTVSPost2010Prop56
140
1.0
102
RTVSPost2010PropOp56
 70
     1
102
RTVSPost2010Prop57
140
1.0
102
RTVSPost2010PropOp57
 70
     1
102
RTVSPropertyOp0
 70
     1
102
RTVSPropertyOp1
 70
     1
102
RTVSPropertyOp2
 70
     1
102
RTVSPropertyOp3
 70
     1
102
RTVSPropertyOp4
 70
     1
102
RTVSPropertyOp5
 70
     1
102
RTVSPropertyOp6
 70
     1
102
RTVSPropertyOp7
 70
     1
102
RTVSPropertyOp8
 70
     1
102
RTVSPropertyOp9
 70
     1
102
RTVSPropertyOp10
 70
     1
102
RTVSPropertyOp11
 70
     1
102
RTVSPropertyOp12
 70
     1
102
RTVSPropertyOp13
 70
     1
102
RTVSPropertyOp14
 70
     1
102
RTVSPropertyOp15
 70
     1
102
RTVSPropertyOp16
 70
     1
102
RTVSPropertyOp17
 70
     1
102
RTVSPropertyOp18
 70
     1
102
RTVSPropertyOp19
 70
     1
102
RTVSPropertyOp20
 70
     1
102
RTVSPropertyOp21
 70
     1
102
RTVSPropertyOp22
 70
     1
102
RTVSPropertyOp23
 70
     1
102
RTVSPropertyOp24
 70
     1
102
RTVSPropertyOp25
 70
     1
102
RTVSPropertyOp26
 70
     1
102
RTVSPropertyOp27
 70
     1
102
RTVSPropertyOp28
 70
     1
102
RTVSPropertyOp29
 70
     1
102
RTVSPropertyOp30
 70
     1
102
RTVSPropertyOp31
 70
     1
102
RTVSPropertyOp32
 70
     1
102
RTVSPropertyOp33
 70
     1
102
RTVSPropertyOp34
 70
     1
102
RTVSPropertyOp35
 70
     1
102
RTVSPropertyOp36
 70
     1
102
RTVSPropertyOp37
 70
     1
102
RTVSPropertyOp38
 70
     1
102
RTVSPropertyOp39
 70
     1
102
RTVSPropertyOp40
 70
     1
102
RTVSPropertyOp41
 70
     1
102
RTVSPropertyOp42
 70
     1
102
RTVSPropertyOp43
 70
     1
102
RTVSPropertyOp44
 70
     1
102
RTVSPropertyOp45
 70
     1
102
RTVSPropertyOp46
 70
     1
102
RTVSPropertyOp47
 70
     1
102
RTVSPropertyOp48
 70
     1
102
RTVSPropertyOp49
 70
     1
102
RTVSPropertyOp50
 70
     1
102
RTVSPropertyOp51
 70
     0
102
RTVSPropertyOp52
 70
     0
102
RTVSPropertyOp53
 70
     1
102
RTVSPropertyOp54
 70
     1
102
RTVSPropertyOp55
 70
     1
102
RTVSPropertyOp56
 70
     1
102
RTVSPropertyOp57
 70
     1
102
RTVSPropertyOp58
 70
     1
102
RTVSPropertyOp59
 70
     1
102
RTVSPropertyOp60
 70
     1
102
RTVSPropertyOp61
 70
     1
102
RTVSPropertyOp62
 70
     1
  0
XRECORD
  5
D6
102
{ACAD_REACTORS
330
D5
102
}
330
D5
100
AcDbXrecord
280
     1
102
RTVSPost2010Prop28
280
     0
102
RTVSPost2010PropOp28
 70
     1
102
RTVSPost2010Prop29
280
     1
102
RTVSPost2010PropOp29
 70
     1
102
RTVSPost2010Prop30
280
     1
102
RTVSPost2010PropOp30
 70
     1
102
RTVSPost2010Prop31
280
     0
102
RTVSPost2010PropOp31
 70
     1
102
RTVSPost2010Prop32
280
     0
102
RTVSPost2010PropOp32
 70
     1
102
RTVSPost2010Prop33
280
     0
102
RTVSPost2010PropOp33
 70
     1
102
RTVSPost2010Prop34
280
     0
102
RTVSPost2010PropOp34
 70
     1
102
RTVSPost2010Prop35
280
     0
102
RTVSPost2010PropOp35
 70
     1
102
RTVSPost2010Prop36
280
     0
102
RTVSPost2010PropOp36
 70
     1
102
RTVSPost2010Prop37
 90
       50
102
RTVSPost2010PropOp37
 70
     1
102
RTVSPost2010Prop38
140
0.0
102
RTVSPost2010PropOp38
 70
     1
102
RTVSPost2010Prop39
140
1.0
102
RTVSPost2010PropOp39
 70
     1
102
RTVSPost2010Prop40
 90
        0
102
RTVSPost2010PropOp40
 70
     1
102
RTVSPost2010Prop41ColorIndex
 90
       18
102
RTVSPost2010Prop41ColorRGB
 90
        0
102
RTVSPost2010PropOp41
 70
     1
102
RTVSPost2010Prop42
 90
       50
102
RTVSPost2010PropOp42
 70
     1
102
RTVSPost2010Prop43
 90
        3
102
RTVSPost2010PropOp43
 70
     1
102
RTVSPost2010Prop44ColorIndex
 90
        5
102
RTVSPost2010Prop44ColorRGB
 90
      255
102
RTVSPost2010PropOp44
 70
     1
102
RTVSPost2010Prop45
280
     0
102
RTVSPost2010PropOp45
 70
     1
102
RTVSPost2010Prop46
 90
       50
102
RTVSPost2010PropOp46
 70
     1
102
RTVSPost2010Prop47
 90
       50
102
RTVSPost2010PropOp47
 70
     1
102
RTVSPost2010Prop48
 90
       50
102
RTVSPost2010PropOp48
 70
     1
102
RTVSPost2010Prop49
280
     0
102
RTVSPost2010PropOp49
 70
     1
102
RTVSPost2010Prop50
 90
       50
102
RTVSPost2010PropOp50
 70
     1
102
RTVSPost2010Prop51ColorIndex
 90
      256
102
RTVSPost2010Prop51ColorRGB
 90
-16777216
102
RTVSPost2010PropOp51
 70
     0
102
RTVSPost2010Prop52
140
1.0
102
RTVSPost2010PropOp52
 70
     0
102
RTVSPost2010Prop53
 90
        2
102
RTVSPost2010PropOp53
 70
     1
102
RTVSPost2010Prop54
  1
strokes_ogs.tif
102
RTVSPost2010PropOp54
 70
     1
102
RTVSPost2010Prop55
280
     0
102
RTVSPost2010PropOp55
 70
     1
102
RTVSPost2010Prop56
140
1.0
102
RTVSPost2010PropOp56
 70
     1
102
RTVSPost2010Prop57
140
1.0
102
RTVSPost2010PropOp57
 70
     1
102
RTVSPropertyOp0
 70
     1
102
RTVSPropertyOp1
 70
     1
102
RTVSPropertyOp2
 70
     1
102
RTVSPropertyOp3
 70
     1
102
RTVSPropertyOp4
 70
     1
102
RTVSPropertyOp5
 70
     1
102
RTVSPropertyOp6
 70
     1
102
RTVSPropertyOp7
 70
     1
102
RTVSPropertyOp8
 70
     1
102
RTVSPropertyOp9
 70
     1
102
RTVSPropertyOp10
 70
     1
102
RTVSPropertyOp11
 70
     1
102
RTVSPropertyOp12
 70
     1
102
RTVSPropertyOp13
 70
     1
102
RTVSPropertyOp14
 70
     1
102
RTVSPropertyOp15
 70
     1
102
RTVSPropertyOp16
 70
     1
102
RTVSPropertyOp17
 70
     1
102
RTVSPropertyOp18
 70
     1
102
RTVSPropertyOp19
 70
     1
102
RTVSPropertyOp20
 70
     1
102
RTVSPropertyOp21
 70
     1
102
RTVSPropertyOp22
 70
     1
102
RTVSPropertyOp23
 70
     1
102
RTVSPropertyOp24
 70
     1
102
RTVSPropertyOp25
 70
     1
102
RTVSPropertyOp26
 70
     1
102
RTVSPropertyOp27
 70
     1
102
RTVSPropertyOp28
 70
     1
102
RTVSPropertyOp29
 70
     1
102
RTVSPropertyOp30
 70
     1
102
RTVSPropertyOp31
 70
     1
102
RTVSPropertyOp32
 70
     1
102
RTVSPropertyOp33
 70
     1
102
RTVSPropertyOp34
 70
     1
102
RTVSPropertyOp35
 70
     1
102
RTVSPropertyOp36
 70
     1
102
RTVSPropertyOp37
 70
     1
102
RTVSPropertyOp38
 70
     1
102
RTVSPropertyOp39
 70
     1
102
RTVSPropertyOp40
 70
     1
102
RTVSPropertyOp41
 70
     1
102
RTVSPropertyOp42
 70
     1
102
RTVSPropertyOp43
 70
     1
102
RTVSPropertyOp44
 70
     1
102
RTVSPropertyOp45
 70
     1
102
RTVSPropertyOp46
 70
     1
102
RTVSPropertyOp47
 70
     1
102
RTVSPropertyOp48
 70
     1
102
RTVSPropertyOp49
 70
     1
102
RTVSPropertyOp50
 70
     1
102
RTVSPropertyOp51
 70
     0
102
RTVSPropertyOp52
 70
     0
102
RTVSPropertyOp53
 70
     1
102
RTVSPropertyOp54
 70
     1
102
RTVSPropertyOp55
 70
     1
102
RTVSPropertyOp56
 70
     1
102
RTVSPropertyOp57
 70
     1
102
RTVSPropertyOp58
 70
     1
102
RTVSPropertyOp59
 70
     1
102
RTVSPropertyOp60
 70
     1
102
RTVSPropertyOp61
 70
     1
102
RTVSPropertyOp62
 70
     1
  0
XRECORD
  5
CA
102
{ACAD_REACTORS
330
C9
102
}
330
C9
100
AcDbXrecord
280
     1
102
RTVSPost2010Prop28
280
     0
102
RTVSPost2010PropOp28
 70
     1
102
RTVSPost2010Prop29
280
     1
102
RTVSPost2010PropOp29
 70
     1
102
RTVSPost2010Prop30
280
     1
102
RTVSPost2010PropOp30
 70
     1
102
RTVSPost2010Prop31
280
     0
102
RTVSPost2010PropOp31
 70
     1
102
RTVSPost2010Prop32
280
     0
102
RTVSPost2010PropOp32
 70
     1
102
RTVSPost2010Prop33
280
     0
102
RTVSPost2010PropOp33
 70
     1
102
RTVSPost2010Prop34
280
     0
102
RTVSPost2010PropOp34
 70
     1
102
RTVSPost2010Prop35
280
     0
102
RTVSPost2010PropOp35
 70
     1
102
RTVSPost2010Prop36
280
     0
102
RTVSPost2010PropOp36
 70
     1
102
RTVSPost2010Prop37
 90
       50
102
RTVSPost2010PropOp37
 70
     1
102
RTVSPost2010Prop38
140
0.0
102
RTVSPost2010PropOp38
 70
     1
102
RTVSPost2010Prop39
140
1.0
102
RTVSPost2010PropOp39
 70
     1
102
RTVSPost2010Prop40
 90
        0
102
RTVSPost2010PropOp40
 70
     1
102
RTVSPost2010Prop41ColorIndex
 90
       18
102
RTVSPost2010Prop41ColorRGB
 90
        0
102
RTVSPost2010PropOp41
 70
     1
102
RTVSPost2010Prop42
 90
       50
102
RTVSPost2010PropOp42
 70
     1
102
RTVSPost2010Prop43
 90
        3
102
RTVSPost2010PropOp43
 70
     1
102
RTVSPost2010Prop44ColorIndex
 90
        5
102
RTVSPost2010Prop44ColorRGB
 90
      255
102
RTVSPost2010PropOp44
 70
     1
102
RTVSPost2010Prop45
280
     0
102
RTVSPost2010PropOp45
 70
     1
102
RTVSPost2010Prop46
 90
       50
102
RTVSPost2010PropOp46
 70
     1
102
RTVSPost2010Prop47
 90
       50
102
RTVSPost2010PropOp47
 70
     1
102
RTVSPost2010Prop48
 90
       50
102
RTVSPost2010PropOp48
 70
     1
102
RTVSPost2010Prop49
280
     0
102
RTVSPost2010PropOp49
 70
     1
102
RTVSPost2010Prop50
 90
       50
102
RTVSPost2010PropOp50
 70
     1
102
RTVSPost2010Prop51ColorIndex
 90
      256
102
RTVSPost2010Prop51ColorRGB
 90
-16777216
102
RTVSPost2010PropOp51
 70
     0
102
RTVSPost2010Prop52
140
1.0
102
RTVSPost2010PropOp52
 70
     0
102
RTVSPost2010Prop53
 90
        2
102
RTVSPost2010PropOp53
 70
     1
102
RTVSPost2010Prop54
  1
strokes_ogs.tif
102
RTVSPost2010PropOp54
 70
     1
102
RTVSPost2010Prop55
280
     0
102
RTVSPost2010PropOp55
 70
     1
102
RTVSPost2010Prop56
140
1.0
102
RTVSPost2010PropOp56
 70
     1
102
RTVSPost2010Prop57
140
1.0
102
RTVSPost2010PropOp57
 70
     1
102
RTVSPropertyOp0
 70
     1
102
RTVSPropertyOp1
 70
     1
102
RTVSPropertyOp2
 70
     1
102
RTVSPropertyOp3
 70
     1
102
RTVSPropertyOp4
 70
     1
102
RTVSPropertyOp5
 70
     1
102
RTVSPropertyOp6
 70
     1
102
RTVSPropertyOp7
 70
     1
102
RTVSPropertyOp8
 70
     1
102
RTVSPropertyOp9
 70
     1
102
RTVSPropertyOp10
 70
     1
102
RTVSPropertyOp11
 70
     1
102
RTVSPropertyOp12
 70
     1
102
RTVSPropertyOp13
 70
     1
102
RTVSPropertyOp14
 70
     1
102
RTVSPropertyOp15
 70
     1
102
RTVSPropertyOp16
 70
     1
102
RTVSPropertyOp17
 70
     1
102
RTVSPropertyOp18
 70
     1
102
RTVSPropertyOp19
 70
     1
102
RTVSPropertyOp20
 70
     1
102
RTVSPropertyOp21
 70
     1
102
RTVSPropertyOp22
 70
     1
102
RTVSPropertyOp23
 70
     1
102
RTVSPropertyOp24
 70
     1
102
RTVSPropertyOp25
 70
     1
102
RTVSPropertyOp26
 70
     1
102
RTVSPropertyOp27
 70
     1
102
RTVSPropertyOp28
 70
     1
102
RTVSPropertyOp29
 70
     1
102
RTVSPropertyOp30
 70
     1
102
RTVSPropertyOp31
 70
     1
102
RTVSPropertyOp32
 70
     1
102
RTVSPropertyOp33
 70
     1
102
RTVSPropertyOp34
 70
     1
102
RTVSPropertyOp35
 70
     1
102
RTVSPropertyOp36
 70
     1
102
RTVSPropertyOp37
 70
     1
102
RTVSPropertyOp38
 70
     1
102
RTVSPropertyOp39
 70
     1
102
RTVSPropertyOp40
 70
     1
102
RTVSPropertyOp41
 70
     1
102
RTVSPropertyOp42
 70
     1
102
RTVSPropertyOp43
 70
     1
102
RTVSPropertyOp44
 70
     1
102
RTVSPropertyOp45
 70
     1
102
RTVSPropertyOp46
 70
     1
102
RTVSPropertyOp47
 70
     1
102
RTVSPropertyOp48
 70
     1
102
RTVSPropertyOp49
 70
     1
102
RTVSPropertyOp50
 70
     1
102
RTVSPropertyOp51
 70
     0
102
RTVSPropertyOp52
 70
     0
102
RTVSPropertyOp53
 70
     1
102
RTVSPropertyOp54
 70
     1
102
RTVSPropertyOp55
 70
     1
102
RTVSPropertyOp56
 70
     1
102
RTVSPropertyOp57
 70
     1
102
RTVSPropertyOp58
 70
     1
102
RTVSPropertyOp59
 70
     1
102
RTVSPropertyOp60
 70
     1
102
RTVSPropertyOp61
 70
     1
102
RTVSPropertyOp62
 70
     1
  0
XRECORD
  5
E2
102
{ACAD_REACTORS
330
E1
102
}
330
E1
100
AcDbXrecord
280
     1
102
RTVSPost2010Prop28
280
     0
102
RTVSPost2010PropOp28
 70
     1
102
RTVSPost2010Prop29
280
     1
102
RTVSPost2010PropOp29
 70
     1
102
RTVSPost2010Prop30
280
     1
102
RTVSPost2010PropOp30
 70
     1
102
RTVSPost2010Prop31
280
     0
102
RTVSPost2010PropOp31
 70
     1
102
RTVSPost2010Prop32
280
     0
102
RTVSPost2010PropOp32
 70
     1
102
RTVSPost2010Prop33
280
     0
102
RTVSPost2010PropOp33
 70
     1
102
RTVSPost2010Prop34
280
     0
102
RTVSPost2010PropOp34
 70
     1
102
RTVSPost2010Prop35
280
     0
102
RTVSPost2010PropOp35
 70
     1
102
RTVSPost2010Prop36
280
     0
102
RTVSPost2010PropOp36
 70
     1
102
RTVSPost2010Prop37
 90
       50
102
RTVSPost2010PropOp37
 70
     1
102
RTVSPost2010Prop38
140
0.0
102
RTVSPost2010PropOp38
 70
     1
102
RTVSPost2010Prop39
140
1.0
102
RTVSPost2010PropOp39
 70
     1
102
RTVSPost2010Prop40
 90
        0
102
RTVSPost2010PropOp40
 70
     1
102
RTVSPost2010Prop41ColorIndex
 90
       18
102
RTVSPost2010Prop41ColorRGB
 90
        0
102
RTVSPost2010PropOp41
 70
     1
102
RTVSPost2010Prop42
 90
       50
102
RTVSPost2010PropOp42
 70
     1
102
RTVSPost2010Prop43
 90
        3
102
RTVSPost2010PropOp43
 70
     1
102
RTVSPost2010Prop44ColorIndex
 90
        5
102
RTVSPost2010Prop44ColorRGB
 90
      255
102
RTVSPost2010PropOp44
 70
     1
102
RTVSPost2010Prop45
280
     0
102
RTVSPost2010PropOp45
 70
     1
102
RTVSPost2010Prop46
 90
       50
102
RTVSPost2010PropOp46
 70
     1
102
RTVSPost2010Prop47
 90
       50
102
RTVSPost2010PropOp47
 70
     1
102
RTVSPost2010Prop48
 90
       50
102
RTVSPost2010PropOp48
 70
     1
102
RTVSPost2010Prop49
280
     0
102
RTVSPost2010PropOp49
 70
     1
102
RTVSPost2010Prop50
 90
       50
102
RTVSPost2010PropOp50
 70
     1
102
RTVSPost2010Prop51ColorIndex
 90
      256
102
RTVSPost2010Prop51ColorRGB
 90
-16777216
102
RTVSPost2010PropOp51
 70
     0
102
RTVSPost2010Prop52
140
1.0
102
RTVSPost2010PropOp52
 70
     0
102
RTVSPost2010Prop53
 90
        2
102
RTVSPost2010PropOp53
 70
     1
102
RTVSPost2010Prop54
  1
strokes_ogs.tif
102
RTVSPost2010PropOp54
 70
     1
102
RTVSPost2010Prop55
280
     0
102
RTVSPost2010PropOp55
 70
     1
102
RTVSPost2010Prop56
140
1.0
102
RTVSPost2010PropOp56
 70
     1
102
RTVSPost2010Prop57
140
1.0
102
RTVSPost2010PropOp57
 70
     1
102
RTVSPropertyOp0
 70
     1
102
RTVSPropertyOp1
 70
     1
102
RTVSPropertyOp2
 70
     1
102
RTVSPropertyOp3
 70
     1
102
RTVSPropertyOp4
 70
     1
102
RTVSPropertyOp5
 70
     1
102
RTVSPropertyOp6
 70
     1
102
RTVSPropertyOp7
 70
     1
102
RTVSPropertyOp8
 70
     1
102
RTVSPropertyOp9
 70
     1
102
RTVSPropertyOp10
 70
     1
102
RTVSPropertyOp11
 70
     1
102
RTVSPropertyOp12
 70
     1
102
RTVSPropertyOp13
 70
     1
102
RTVSPropertyOp14
 70
     1
102
RTVSPropertyOp15
 70
     1
102
RTVSPropertyOp16
 70
     1
102
RTVSPropertyOp17
 70
     1
102
RTVSPropertyOp18
 70
     1
102
RTVSPropertyOp19
 70
     1
102
RTVSPropertyOp20
 70
     1
102
RTVSPropertyOp21
 70
     1
102
RTVSPropertyOp22
 70
     1
102
RTVSPropertyOp23
 70
     1
102
RTVSPropertyOp24
 70
     1
102
RTVSPropertyOp25
 70
     1
102
RTVSPropertyOp26
 70
     1
102
RTVSPropertyOp27
 70
     1
102
RTVSPropertyOp28
 70
     1
102
RTVSPropertyOp29
 70
     1
102
RTVSPropertyOp30
 70
     1
102
RTVSPropertyOp31
 70
     1
102
RTVSPropertyOp32
 70
     1
102
RTVSPropertyOp33
 70
     1
102
RTVSPropertyOp34
 70
     1
102
RTVSPropertyOp35
 70
     1
102
RTVSPropertyOp36
 70
     1
102
RTVSPropertyOp37
 70
     1
102
RTVSPropertyOp38
 70
     1
102
RTVSPropertyOp39
 70
     1
102
RTVSPropertyOp40
 70
     1
102
RTVSPropertyOp41
 70
     1
102
RTVSPropertyOp42
 70
     1
102
RTVSPropertyOp43
 70
     1
102
RTVSPropertyOp44
 70
     1
102
RTVSPropertyOp45
 70
     1
102
RTVSPropertyOp46
 70
     1
102
RTVSPropertyOp47
 70
     1
102
RTVSPropertyOp48
 70
     1
102
RTVSPropertyOp49
 70
     1
102
RTVSPropertyOp50
 70
     1
102
RTVSPropertyOp51
 70
     0
102
RTVSPropertyOp52
 70
     0
102
RTVSPropertyOp53
 70
     1
102
RTVSPropertyOp54
 70
     1
102
RTVSPropertyOp55
 70
     1
102
RTVSPropertyOp56
 70
     1
102
RTVSPropertyOp57
 70
     1
102
RTVSPropertyOp58
 70
     1
102
RTVSPropertyOp59
 70
     1
102
RTVSPropertyOp60
 70
     1
102
RTVSPropertyOp61
 70
     1
102
RTVSPropertyOp62
 70
     1
  0
ENDSEC
  0
EOF
