  0
SECTION
  2
HEADER
  9
$ACADVER
  1
AC1021
  9
$ACADMAINTVER
 70
    50
  9
$DWGCODEPAGE
  3
ANSI_1252
  9
$LASTSAVEDBY
  1
Autodesk
  9
$INSBASE
 10
0.0
 20
0.0
 30
0.0
  9
$EXTMIN
 10
1.000000000000000E+20
 20
1.000000000000000E+20
 30
1.000000000000000E+20
  9
$EXTMAX
 10
-1.000000000000000E+20
 20
-1.000000000000000E+20
 30
-1.000000000000000E+20
  9
$LIMMIN
 10
0.0
 20
0.0
  9
$LIMMAX
 10
420.0
 20
297.0
  9
$ORTHOMODE
 70
     0
  9
$REGENMODE
 70
     1
  9
$FILLMODE
 70
     1
  9
$QTEXTMODE
 70
     0
  9
$MIRRTEXT
 70
     0
  9
$LTSCALE
 40
1.0
  9
$ATTMODE
 70
     1
  9
$TEXTSIZE
 40
2.5
  9
$TRACEWID
 40
1.0
  9
$TEXTSTYLE
  7
Standard
  9
$CLAYER
  8
0
  9
$CELTYPE
  6
ByLayer
  9
$CECOLOR
 62
   256
  9
$CELTSCALE
 40
1.0
  9
$DISPSILH
 70
     0
  9
$DIMSCALE
 40
1.0
  9
$DIMASZ
 40
2.5
  9
$DIMEXO
 40
0.625
  9
$DIMDLI
 40
3.75
  9
$DIMRND
 40
0.0
  9
$DIMDLE
 40
0.0
  9
$DIMEXE
 40
1.25
  9
$DIMTP
 40
0.0
  9
$DIMTM
 40
0.0
  9
$DIMTXT
 40
2.5
  9
$DIMCEN
 40
2.5
  9
$DIMTSZ
 40
0.0
  9
$DIMTOL
 70
     0
  9
$DIMLIM
 70
     0
  9
$DIMTIH
 70
     0
  9
$DIMTOH
 70
     0
  9
$DIMSE1
 70
     0
  9
$DIMSE2
 70
     0
  9
$DIMTAD
 70
     1
  9
$DIMZIN
 70
     8
  9
$DIMBLK
  1

  9
$DIMASO
 70
     1
  9
$DIMSHO
 70
     1
  9
$DIMPOST
  1

  9
$DIMAPOST
  1

  9
$DIMALT
 70
     0
  9
$DIMALTD
 70
     3
  9
$DIMALTF
 40
0.03937007874016
  9
$DIMLFAC
 40
1.0
  9
$DIMTOFL
 70
     1
  9
$DIMTVP
 40
0.0
  9
$DIMTIX
 70
     0
  9
$DIMSOXD
 70
     0
  9
$DIMSAH
 70
     0
  9
$DIMBLK1
  1

  9
$DIMBLK2
  1

  9
$DIMSTYLE
  2
ISO-25
  9
$DIMCLRD
 70
     0
  9
$DIMCLRE
 70
     0
  9
$DIMCLRT
 70
     0
  9
$DIMTFAC
 40
1.0
  9
$DIMGAP
 40
0.625
  9
$DIMJUST
 70
     0
  9
$DIMSD1
 70
     0
  9
$DIMSD2
 70
     0
  9
$DIMTOLJ
 70
     0
  9
$DIMTZIN
 70
     8
  9
$DIMALTZ
 70
     0
  9
$DIMALTTZ
 70
     0
  9
$DIMUPT
 70
     0
  9
$DIMDEC
 70
     2
  9
$DIMTDEC
 70
     2
  9
$DIMALTU
 70
     2
  9
$DIMALTTD
 70
     3
  9
$DIMTXSTY
  7
Standard
  9
$DIMAUNIT
 70
     0
  9
$DIMADEC
 70
     0
  9
$DIMALTRND
 40
0.0
  9
$DIMAZIN
 70
     0
  9
$DIMDSEP
 70
    44
  9
$DIMATFIT
 70
     3
  9
$DIMFRAC
 70
     0
  9
$DIMLDRBLK
  1

  9
$DIMLUNIT
 70
     2
  9
$DIMLWD
 70
    -2
  9
$DIMLWE
 70
    -2
  9
$DIMTMOVE
 70
     0
  9
$DIMFXL
 40
1.0
  9
$DIMFXLON
 70
     0
  9
$DIMJOGANG
 40
0.7853981633974483
  9
$DIMTFILL
 70
     0
  9
$DIMTFILLCLR
 70
     0
  9
$DIMARCSYM
 70
     0
  9
$DIMLTYPE
  6

  9
$DIMLTEX1
  6

  9
$DIMLTEX2
  6

  9
$LUNITS
 70
     2
  9
$LUPREC
 70
     4
  9
$SKETCHINC
 40
1.0
  9
$FILLETRAD
 40
0.0
  9
$AUNITS
 70
     0
  9
$AUPREC
 70
     0
  9
$MENU
  1
.
  9
$ELEVATION
 40
0.0
  9
$PELEVATION
 40
0.0
  9
$THICKNESS
 40
0.0
  9
$LIMCHECK
 70
     0
  9
$CHAMFERA
 40
0.0
  9
$CHAMFERB
 40
0.0
  9
$CHAMFERC
 40
0.0
  9
$CHAMFERD
 40
0.0
  9
$SKPOLY
 70
     0
  9
$TDCREATE
 40
2456309.149747176
  9
$TDUCREATE
 40
2456309.483080509
  9
$TDUPDATE
 40
2456667.078514884
  9
$TDUUPDATE
 40
2456667.411848218
  9
$TDINDWG
 40
0.0000180671
  9
$TDUSRTIMER
 40
0.0000178819
  9
$USRTIMER
 70
     1
  9
$ANGBASE
 50
0.0
  9
$ANGDIR
 70
     0
  9
$PDMODE
 70
     0
  9
$PDSIZE
 40
0.0
  9
$PLINEWID
 40
0.0
  9
$SPLFRAME
 70
     0
  9
$SPLINETYPE
 70
     6
  9
$SPLINESEGS
 70
     8
  9
$HANDSEED
  5
29F
  9
$SURFTAB1
 70
     6
  9
$SURFTAB2
 70
     6
  9
$SURFTYPE
 70
     6
  9
$SURFU
 70
     6
  9
$SURFV
 70
     6
  9
$UCSBASE
  2

  9
$UCSNAME
  2

  9
$UCSORG
 10
0.0
 20
0.0
 30
0.0
  9
$UCSXDIR
 10
1.0
 20
0.0
 30
0.0
  9
$UCSYDIR
 10
0.0
 20
1.0
 30
0.0
  9
$UCSORTHOREF
  2

  9
$UCSORTHOVIEW
 70
     0
  9
$UCSORGTOP
 10
0.0
 20
0.0
 30
0.0
  9
$UCSORGBOTTOM
 10
0.0
 20
0.0
 30
0.0
  9
$UCSORGLEFT
 10
0.0
 20
0.0
 30
0.0
  9
$UCSORGRIGHT
 10
0.0
 20
0.0
 30
0.0
  9
$UCSORGFRONT
 10
0.0
 20
0.0
 30
0.0
  9
$UCSORGBACK
 10
0.0
 20
0.0
 30
0.0
  9
$PUCSBASE
  2

  9
$PUCSNAME
  2

  9
$PUCSORG
 10
0.0
 20
0.0
 30
0.0
  9
$PUCSXDIR
 10
1.0
 20
0.0
 30
0.0
  9
$PUCSYDIR
 10
0.0
 20
1.0
 30
0.0
  9
$PUCSORTHOREF
  2

  9
$PUCSORTHOVIEW
 70
     0
  9
$PUCSORGTOP
 10
0.0
 20
0.0
 30
0.0
  9
$PUCSORGBOTTOM
 10
0.0
 20
0.0
 30
0.0
  9
$PUCSORGLEFT
 10
0.0
 20
0.0
 30
0.0
  9
$PUCSORGRIGHT
 10
0.0
 20
0.0
 30
0.0
  9
$PUCSORGFRONT
 10
0.0
 20
0.0
 30
0.0
  9
$PUCSORGBACK
 10
0.0
 20
0.0
 30
0.0
  9
$USERI1
 70
     0
  9
$USERI2
 70
     0
  9
$USERI3
 70
     0
  9
$USERI4
 70
     0
  9
$USERI5
 70
     0
  9
$USERR1
 40
0.0
  9
$USERR2
 40
0.0
  9
$USERR3
 40
0.0
  9
$USERR4
 40
0.0
  9
$USERR5
 40
0.0
  9
$WORLDVIEW
 70
     1
  9
$SHADEDGE
 70
     3
  9
$SHADEDIF
 70
    70
  9
$TILEMODE
 70
     1
  9
$MAXACTVP
 70
    64
  9
$PINSBASE
 10
0.0
 20
0.0
 30
0.0
  9
$PLIMCHECK
 70
     0
  9
$PEXTMIN
 10
0.0
 20
0.0
 30
0.0
  9
$PEXTMAX
 10
0.0
 20
0.0
 30
0.0
  9
$PLIMMIN
 10
0.0
 20
0.0
  9
$PLIMMAX
 10
12.0
 20
9.0
  9
$UNITMODE
 70
     0
  9
$VISRETAIN
 70
     1
  9
$PLINEGEN
 70
     0
  9
$PSLTSCALE
 70
     1
  9
$TREEDEPTH
 70
  3020
  9
$CMLSTYLE
  2
Standard
  9
$CMLJUST
 70
     0
  9
$CMLSCALE
 40
20.0
  9
$PROXYGRAPHICS
 70
     1
  9
$MEASUREMENT
 70
     1
  9
$CELWEIGHT
370
    -1
  9
$ENDCAPS
280
     0
  9
$JOINSTYLE
280
     0
  9
$LWDISPLAY
290
     0
  9
$INSUNITS
 70
     4
  9
$HYPERLINKBASE
  1

  9
$STYLESHEET
  1

  9
$XEDIT
290
     1
  9
$CEPSNTYPE
380
     0
  9
$PSTYLEMODE
290
     1
  9
$FINGERPRINTGUID
  2
{D36A17C0-B4E2-4527-8874-81943F1C34AC}
  9
$VERSIONGUID
  2
{265A5473-D45D-4B1C-ABB7-7FF2E3BD06BB}
  9
$EXTNAMES
290
     1
  9
$PSVPSCALE
 40
0.0
  9
$OLESTARTUP
290
     0
  9
$SORTENTS
280
   127
  9
$INDEXCTL
280
     0
  9
$HIDETEXT
280
     1
  9
$XCLIPFRAME
290
     0
  9
$HALOGAP
280
     0
  9
$OBSCOLOR
 70
   257
  9
$OBSLTYPE
280
     0
  9
$INTERSECTIONDISPLAY
280
     0
  9
$INTERSECTIONCOLOR
 70
   257
  9
$DIMASSOC
280
     2
  9
$PROJECTNAME
  1

  9
$CAMERADISPLAY
290
     0
  9
$LENSLENGTH
 40
50.0
  9
$CAMERAHEIGHT
 40
0.0
  9
$STEPSPERSEC
 40
2.0
  9
$STEPSIZE
 40
6.0
  9
$3DDWFPREC
 40
2.0
  9
$PSOLWIDTH
 40
5.0
  9
$PSOLHEIGHT
 40
80.0
  9
$LOFTANG1
 40
1.570796326794896
  9
$LOFTANG2
 40
1.570796326794896
  9
$LOFTMAG1
 40
0.0
  9
$LOFTMAG2
 40
0.0
  9
$LOFTPARAM
 70
     7
  9
$LOFTNORMALS
280
     1
  9
$LATITUDE
 40
37.795
  9
$LONGITUDE
 40
-122.394
  9
$NORTHDIRECTION
 40
0.0
  9
$TIMEZONE
 70
 -8000
  9
$LIGHTGLYPHDISPLAY
280
     1
  9
$TILEMODELIGHTSYNCH
280
     1
  9
$CMATERIAL
347
EC
  9
$SOLIDHIST
280
     0
  9
$SHOWHIST
280
     1
  9
$DWFFRAME
280
     2
  9
$DGNFRAME
280
     0
  9
$REALWORLDSCALE
290
     1
  9
$INTERFERECOLOR
 62
     1
  9
$INTERFEREOBJVS
345
F9
  9
$INTERFEREVPVS
346
F6
  9
$CSHADOW
280
     0
  9
$SHADOWPLANELOCATION
 40
0.0
  0
ENDSEC
  0
SECTION
  2
CLASSES
  0
CLASS
  1
ACDBDICTIONARYWDFLT
  2
AcDbDictionaryWithDefault
  3
ObjectDBX Classes
 90
        0
 91
        1
280
     0
281
     0
  0
CLASS
  1
ACDBPLACEHOLDER
  2
AcDbPlaceHolder
  3
ObjectDBX Classes
 90
        0
 91
        1
280
     0
281
     0
  0
CLASS
  1
LAYOUT
  2
AcDbLayout
  3
ObjectDBX Classes
 90
        0
 91
        3
280
     0
281
     0
  0
CLASS
  1
DICTIONARYVAR
  2
AcDbDictionaryVar
  3
ObjectDBX Classes
 90
        0
 91
       10
280
     0
281
     0
  0
CLASS
  1
TABLESTYLE
  2
AcDbTableStyle
  3
ObjectDBX Classes
 90
     4095
 91
        1
280
     0
281
     0
  0
CLASS
  1
MATERIAL
  2
AcDbMaterial
  3
ObjectDBX Classes
 90
     1153
 91
        3
280
     0
281
     0
  0
CLASS
  1
VISUALSTYLE
  2
AcDbVisualStyle
  3
ObjectDBX Classes
 90
     4095
 91
       24
280
     0
281
     0
  0
CLASS
  1
SCALE
  2
AcDbScale
  3
ObjectDBX Classes
 90
     1153
 91
       17
280
     0
281
     0
  0
CLASS
  1
MLEADERSTYLE
  2
AcDbMLeaderStyle
  3
ACDB_MLEADERSTYLE_CLASS
 90
     4095
 91
        2
280
     0
281
     0
  0
CLASS
  1
CELLSTYLEMAP
  2
AcDbCellStyleMap
  3
ObjectDBX Classes
 90
     1152
 91
        1
280
     0
281
     0
  0
CLASS
  1
EXACXREFPANELOBJECT
  2
ExAcXREFPanelObject
  3
EXAC_ESW
 90
     1025
 91
        0
280
     0
281
     0
  0
CLASS
  1
NPOCOLLECTION
  2
AcDbImpNonPersistentObjectsCollection
  3
ObjectDBX Classes
 90
     1153
 91
        0
280
     0
281
     0
  0
CLASS
  1
LAYER_INDEX
  2
AcDbLayerIndex
  3
ObjectDBX Classes
 90
        0
 91
        0
280
     0
281
     0
  0
CLASS
  1
SPATIAL_INDEX
  2
AcDbSpatialIndex
  3
ObjectDBX Classes
 90
        0
 91
        0
280
     0
281
     0
  0
CLASS
  1
IDBUFFER
  2
AcDbIdBuffer
  3
ObjectDBX Classes
 90
        0
 91
        0
280
     0
281
     0
  0
CLASS
  1
ACDBSECTIONVIEWSTYLE
  2
AcDbSectionViewStyle
  3
ObjectDBX Classes
 90
     1025
 91
        1
280
     0
281
     0
  0
CLASS
  1
ACDBDETAILVIEWSTYLE
  2
AcDbDetailViewStyle
  3
ObjectDBX Classes
 90
     1025
 91
        1
280
     0
281
     0
  0
ENDSEC
  0
SECTION
  2
TABLES
  0
TABLE
  2
VPORT
  5
8
330
0
100
AcDbSymbolTable
 70
     1
  0
VPORT
  5
EA
330
8
100
AcDbSymbolTableRecord
100
AcDbViewportTableRecord
  2
*Active
 70
     0
 10
0.0
 20
0.0
 11
1.0
 21
1.0
 12
2630.048781668382
 22
1440.684066268786
 13
0.0
 23
0.0
 14
10.0
 24
10.0
 15
10.0
 25
10.0
 16
0.0
 26
0.0
 36
1.0
 17
0.0
 27
0.0
 37
0.0
 40
2653.730076586097
 41
1.765478424015009
 42
50.0
 43
0.0
 44
0.0
 50
0.0
 51
0.0
 71
     0
 72
  1000
 73
     1
 74
     3
 75
     0
 76
     1
 77
     0
 78
     0
281
     0
 65
     1
110
0.0
120
0.0
130
0.0
111
1.0
121
0.0
131
0.0
112
0.0
122
1.0
132
0.0
 79
     0
146
0.0
348
F5
 60
     3
 61
     5
292
     1
282
     1
141
0.0
142
0.0
 63
   250
421
  3355443
1001
ACAD_NAV_VCDISPLAY
1070
     3
  0
ENDTAB
  0
TABLE
  2
LTYPE
  5
5
330
0
100
AcDbSymbolTable
 70
     1
  0
LTYPE
  5
14
330
5
100
AcDbSymbolTableRecord
100
AcDbLinetypeTableRecord
  2
ByBlock
 70
     0
  3

 72
    65
 73
     0
 40
0.0
  0
LTYPE
  5
15
330
5
100
AcDbSymbolTableRecord
100
AcDbLinetypeTableRecord
  2
ByLayer
 70
     0
  3

 72
    65
 73
     0
 40
0.0
  0
LTYPE
  5
16
330
5
100
AcDbSymbolTableRecord
100
AcDbLinetypeTableRecord
  2
Continuous
 70
     0
  3
Solid line
 72
    65
 73
     0
 40
0.0
  0
ENDTAB
  0
TABLE
  2
LAYER
  5
2
102
{ACAD_XDICTIONARY
360
1FF
102
}
330
0
100
AcDbSymbolTable
 70
     2
  0
LAYER
  5
10
102
{ACAD_XDICTIONARY
360
13C
102
}
330
2
100
AcDbSymbolTableRecord
100
AcDbLayerTableRecord
  2
0
 70
     0
 62
     7
  6
Continuous
370
    -3
390
F
347
EE
  0
LAYER
  5
249
330
2
100
AcDbSymbolTableRecord
100
AcDbLayerTableRecord
  2
Vector Layer 1
 70
     0
 62
     7
  6
Continuous
370
    30
390
F
347
EE
  0
ENDTAB
  0
TABLE
  2
STYLE
  5
3
330
0
100
AcDbSymbolTable
 70
     2
  0
STYLE
  5
11
330
3
100
AcDbSymbolTableRecord
100
AcDbTextStyleTableRecord
  2
Standard
 70
     0
 40
0.0
 41
1.0
 50
0.0
 71
     0
 42
2.5
  3
arial.ttf
  4

1001
ACAD
1000
Arial
1071
       34
  0
STYLE
  5
132
330
3
100
AcDbSymbolTableRecord
100
AcDbTextStyleTableRecord
  2
Annotative
 70
     0
 40
0.0
 41
1.0
 50
0.0
 71
     0
 42
2.5
  3
arial.ttf
  4

1001
AcadAnnotative
1000
AnnotativeData
1002
{
1070
     1
1070
     1
1002
}
1001
ACAD
1000
Arial
1071
       34
  0
ENDTAB
  0
TABLE
  2
VIEW
  5
6
330
0
100
AcDbSymbolTable
 70
     0
  0
ENDTAB
  0
TABLE
  2
UCS
  5
7
330
0
100
AcDbSymbolTable
 70
     0
  0
ENDTAB
  0
TABLE
  2
APPID
  5
9
330
0
100
AcDbSymbolTable
 70
     8
  0
APPID
  5
12
330
9
100
AcDbSymbolTableRecord
100
AcDbRegAppTableRecord
  2
ACAD
 70
     0
  0
APPID
  5
9E
330
9
100
AcDbSymbolTableRecord
100
AcDbRegAppTableRecord
  2
ACAD_PSEXT
 70
     0
  0
APPID
  5
133
330
9
100
AcDbSymbolTableRecord
100
AcDbRegAppTableRecord
  2
AcadAnnoPO
 70
     0
  0
APPID
  5
134
330
9
100
AcDbSymbolTableRecord
100
AcDbRegAppTableRecord
  2
AcadAnnotative
 70
     0
  0
APPID
  5
135
330
9
100
AcDbSymbolTableRecord
100
AcDbRegAppTableRecord
  2
ACAD_DSTYLE_DIMJAG
 70
     0
  0
APPID
  5
136
330
9
100
AcDbSymbolTableRecord
100
AcDbRegAppTableRecord
  2
ACAD_DSTYLE_DIMTALN
 70
     0
  0
APPID
  5
165
330
9
100
AcDbSymbolTableRecord
100
AcDbRegAppTableRecord
  2
ACAD_MLEADERVER
 70
     0
  0
APPID
  5
217
330
9
100
AcDbSymbolTableRecord
100
AcDbRegAppTableRecord
  2
ACAD_NAV_VCDISPLAY
 70
     0
  0
ENDTAB
  0
TABLE
  2
DIMSTYLE
  5
A
330
0
100
AcDbSymbolTable
 70
     3
100
AcDbDimStyleTable
 71
     2
340
27
340
137
  0
DIMSTYLE
105
1B0
330
A
100
AcDbSymbolTableRecord
100
AcDbDimStyleTableRecord
  2
Standard
 70
     0
340
11
  0
DIMSTYLE
105
137
330
A
100
AcDbSymbolTableRecord
100
AcDbDimStyleTableRecord
  2
Annotative
 70
     0
 40
0.0
 41
2.5
 42
0.625
 43
3.75
 44
1.25
 73
     0
 74
     0
 77
     1
 78
     8
140
2.5
141
2.5
143
0.03937007874016
147
0.625
171
     3
172
     1
271
     2
272
     2
274
     3
278
    44
283
     0
284
     8
340
11
1001
AcadAnnotative
1000
AnnotativeData
1002
{
1070
     1
1070
     1
1002
}
1001
ACAD_DSTYLE_DIMJAG
1070
   388
1040
1.5
1001
ACAD_DSTYLE_DIMTALN
1070
   392
1070
     0
  0
DIMSTYLE
105
27
330
A
100
AcDbSymbolTableRecord
100
AcDbDimStyleTableRecord
  2
ISO-25
 70
     0
 41
2.5
 42
0.625
 43
3.75
 44
1.25
 73
     0
 74
     0
 77
     1
 78
     8
140
2.5
141
2.5
143
0.03937007874016
147
0.625
171
     3
172
     1
271
     2
272
     2
274
     3
278
    44
283
     0
284
     8
340
11
  0
ENDTAB
  0
TABLE
  2
BLOCK_RECORD
  5
1
330
0
100
AcDbSymbolTable
 70
     1
  0
BLOCK_RECORD
  5
1F
102
{ACAD_XDICTIONARY
360
1CE
102
}
330
1
100
AcDbSymbolTableRecord
100
AcDbBlockTableRecord
  2
*Model_Space
340
22
 70
     0
280
     1
281
     0
  0
BLOCK_RECORD
  5
D2
330
1
100
AcDbSymbolTableRecord
100
AcDbBlockTableRecord
  2
*Paper_Space
340
D3
 70
     0
280
     1
281
     0
  0
BLOCK_RECORD
  5
D6
330
1
100
AcDbSymbolTableRecord
100
AcDbBlockTableRecord
  2
*Paper_Space0
340
D7
 70
     0
280
     1
281
     0
  0
ENDTAB
  0
ENDSEC
  0
SECTION
  2
BLOCKS
  0
BLOCK
  5
20
330
1F
100
AcDbEntity
  8
0
100
AcDbBlockBegin
  2
*Model_Space
 70
     0
 10
0.0
 20
0.0
 30
0.0
  3
*Model_Space
  1

  0
ENDBLK
  5
21
330
1F
100
AcDbEntity
  8
0
100
AcDbBlockEnd
  0
BLOCK
  5
D4
330
D2
100
AcDbEntity
 67
     1
  8
0
100
AcDbBlockBegin
  2
*Paper_Space
 70
     0
 10
0.0
 20
0.0
 30
0.0
  3
*Paper_Space
  1

  0
ENDBLK
  5
D5
330
D2
100
AcDbEntity
 67
     1
  8
0
100
AcDbBlockEnd
  0
BLOCK
  5
D8
330
D6
100
AcDbEntity
 67
     1
  8
0
100
AcDbBlockBegin
  2
*Paper_Space0
 70
     0
 10
0.0
 20
0.0
 30
0.0
  3
*Paper_Space0
  1

  0
ENDBLK
  5
D9
330
D6
100
AcDbEntity
 67
     1
  8
0
100
AcDbBlockEnd
  0
ENDSEC
  0
SECTION
  2
ENTITIES
  0
LWPOLYLINE
  5
24A
330
1F
100
AcDbEntity
  8
Vector Layer 1
 62
    18
420
        0
370
    30
100
AcDbPolyline
 90
      593
 70
     0
 43
0.0
 10
18.21245636694461
 20
-8.246021804312317
 10
18.20124926024696
 20
-8.254068552510721
 10
18.20124926024696
 20
-8.254068552510721
 10
18.12765538508138
 20
-8.303836310780752
 10
18.05380291453456
 20
-8.353214712419426
 10
17.97967997382525
 20
-8.402180211120507
 10
17.90527468817217
 20
-8.450709260577765
 10
17.83057518279407
 20
-8.498778314484965
 10
17.75556958290967
 20
-8.546363826535875
 10
17.68024601373773
 20
-8.593442250424262
 10
17.60459260049698
 20
-8.63999003984389
 10
17.52859746840615
 20
-8.68598364848853
 10
17.45224874268397
 20
-8.731399530051946
 10
17.3755345485492
 20
-8.776214138227906
 10
17.29844301122055
 20
-8.820403926710179
 10
17.22096225591679
 20
-8.863945349192528
 10
17.22096225591679
 20
-8.863945349192526
 10
17.13649812489208
 20
-8.910572439245617
 10
17.05175132663898
 20
-8.956639977889521
 10
16.96672001167855
 20
-9.002142936086293
 10
16.88140233053183
 20
-9.047076284797993
 10
16.79579643371987
 20
-9.091434994986677
 10
16.70990047176372
 20
-9.135214037614399
 10
16.62371259518444
 20
-9.178408383643221
 10
16.53723095450307
 20
-9.221013004035196
 10
16.45045370024065
 20
-9.263022869752381
 10
16.36337898291825
 20
-9.304432951756835
 10
16.2760049530569
 20
-9.345238221010614
 10
16.18832976117766
 20
-9.385433648475775
 10
16.10035155780158
 20
-9.425014205114374
 10
16.0120684934497
 20
-9.46397486188847
 10
16.0120684934497
 20
-9.46397486188847
 10
15.91037589262976
 20
-9.507987999677517
 10
15.80839523052023
 20
-9.551272405339497
 10
15.7061312730942
 20
-9.593832099202252
 10
15.60358878632475
 20
-9.63567110159362
 10
15.50077253618495
 20
-9.676793432841442
 10
15.39768728864788
 20
-9.717203113273555
 10
15.29433780968663
 20
-9.7569041632178
 10
15.19072886527427
 20
-9.795900603002017
 10
15.08686522138387
 20
-9.834196452954046
 10
14.98275164398853
 20
-9.871795733401725
 10
14.87839289906131
 20
-9.908702464672895
 10
14.7737937525753
 20
-9.944920667095395
 10
14.66895897050358
 20
-9.980454360997066
 10
14.56389331881921
 20
-10.01530756670574
 10
14.4586015634953
 20
-10.04948430454927
 10
14.3530884705049
 20
-10.08298859485549
 10
14.24735880582111
 20
-10.11582445795224
 10
14.14141733541699
 20
-10.14799591416735
 10
14.03526882526563
 20
-10.17950698382867
 10
13.92891804134011
 20
-10.21036168726404
 10
13.82236974961351
 20
-10.2405640448013
 10
13.7156287160589
 20
-10.27011807676828
 10
13.60869970664937
 20
-10.29902780349283
 10
13.50158748735798
 20
-10.32729724530278
 10
13.39429682415783
 20
-10.35493042252598
 10
13.28683248302199
 20
-10.38193135549027
 10
13.17919922992354
 20
-10.40830406452347
 10
13.17919922992355
 20
-10.40830406452348
 10
13.05550355272539
 20
-10.43782620665341
 10
12.9316494551576
 20
-10.46658295098058
 10
12.80764072664296
 20
-10.4945790597253
 10
12.68348115660426
 20
-10.52181929510789
 10
12.55917453446429
 20
-10.54830841934866
 10
12.43472464964582
 20
-10.57405119466794
 10
12.31013529157165
 20
-10.59905238328604
 10
12.18541024966457
 20
-10.62331674742328
 10
12.06055331334736
 20
-10.64684904929997
 10
11.93556827204281
 20
-10.66965405113643
 10
11.8104589151737
 20
-10.69173651515298
 10
11.68522903216283
 20
-10.71310120356994
 10
11.55988241243298
 20
-10.73375287860761
 10
11.43442284540693
 20
-10.75369630248633
 10
11.30885412050748
 20
-10.77293623742641
 10
11.18318002715741
 20
-10.79147744564815
 10
11.05740435477951
 20
-10.80932468937189
 10
10.93153089279657
 20
-10.82648273081794
 10
10.80556343063136
 20
-10.84295633220661
 10
10.67950575770669
 20
-10.85875025575823
 10
10.55336166344532
 20
-10.8738692636931
 10
10.42713493727006
 20
-10.88831811823155
 10
10.30082936860369
 20
-10.90210158159389
 10
10.174448746869
 20
-10.91522441600045
 10
10.04799686148877
 20
-10.92769138367153
 10
9.921477501885796
 20
-10.93950724682745
 10
9.794894457482854
 20
-10.95067676768854
 10
9.668251517702737
 20
-10.9612047084751
 10
9.54155247196823
 20
-10.97109583140746
 10
9.414801109702121
 20
-10.98035489870594
 10
9.288001220327197
 20
-10.98898667259084
 10
9.161156593266246
 20
-10.99699591528249
 10
9.034271017942053
 20
-11.00438738900121
 10
8.907348283777407
 20
-11.0111658559673
 10
8.780392180195093
 20
-11.0173360784011
 10
8.653406496617899
 20
-11.02290281852291
 10
8.52639502246861
 20
-11.02787083855305
 10
8.399361547170016
 20
-11.03224490071184
 10
8.272309860144902
 20
-11.03602976721959
 10
8.145243750816057
 20
-11.03923020029664
 10
8.018167008606265
 20
-11.04185096216328
 10
7.891083422938316
 20
-11.04389681503983
 10
7.763996783234994
 20
-11.04537252114663
 10
7.636910878919088
 20
-11.04628284270397
 10
7.509829499413385
 20
-11.04663254193219
 10
7.38275643414067
 20
-11.04642638105159
 10
7.255695472523732
 20
-11.04566912228249
 10
7.128650403985357
 20
-11.04436552784521
 10
7.001625017948332
 20
-11.04252035996007
 10
7.001625017948332
 20
-11.04252035996006
 10
6.85189446516788
 20
-11.03964599413001
 10
6.702160076830891
 20
-11.03600952997954
 10
6.552426367585802
 20
-11.03161353475968
 10
6.402697852081048
 20
-11.02646057572146
 10
6.252979044965066
 20
-11.0205532201159
 10
6.103274460886292
 20
-11.01389403519406
 10
5.953588614493164
 20
-11.00648558820695
 10
5.803926020434118
 20
-10.9983304464056
 10
5.65429119335759
 20
-10.98943117704105
 10
5.504688647912017
 20
-10.97979034736433
 10
5.355122898745835
 20
-10.96941052462646
 10
5.205598460507482
 20
-10.95829427607849
 10
5.056119847845392
 20
-10.94644416897144
 10
4.906691575408005
 20
-10.93386277055635
 10
4.757318157843754
 20
-10.92055264808424
 10
4.608004109801078
 20
-10.90651636880614
 10
4.458753945928413
 20
-10.89175649997309
 10
4.309572180874195
 20
-10.87627560883612
 10
4.160463329286861
 20
-10.86007626264626
 10
4.011431905814847
 20
-10.84316102865454
 10
3.862482425106591
 20
-10.825532474112
 10
3.713619401810528
 20
-10.80719316626965
 10
3.564847350575095
 20
-10.78814567237855
 10
3.416170786048729
 20
-10.7683925596897
 10
3.267594222879866
 20
-10.74793639545416
 10
3.119122175716943
 20
-10.72677974692294
 10
2.970759159208396
 20
-10.70492518134709
 10
2.822509688002662
 20
-10.68237526597762
 10
2.674378276748177
 20
-10.65913256806558
 10
2.526369440093378
 20
-10.63519965486199
 10
2.378487692686702
 20
-10.61057909361789
 10
2.230737549176585
 20
-10.5852734515843
 10
2.083123524211463
 20
-10.55928529601226
 10
1.935650132439773
 20
-10.5326171941528
 10
1.788321888509952
 20
-10.50527171325695
 10
1.641143307070437
 20
-10.47725142057574
 10
1.494118902769663
 20
-10.44855888336021
 10
1.347253190256067
 20
-10.41919666886137
 10
1.347253190256065
 20
-10.41919666886137
 10
1.200622267623965
 20
-10.38916445281836
 10
1.054104682221155
 20
-10.35842022227198
 10
0.9077072193956677
 20
-10.32696442085756
 10
0.7614366644955365
 20
-10.29479749221041
 10
0.6152998028687947
 20
-10.26191987996588
 10
0.4693034198634757
 20
-10.22833202775929
 10
0.3234543008276129
 20
-10.19403437922596
 10
0.1777592311092395
 20
-10.15902737800122
 10
0.0322249960563889
 20
-10.1233114677204
 10
-0.1131416189829057
 20
-10.08688709201883
 10
-0.2583338286606109
 20
-10.04975469453182
 10
-0.4033448476286936
 20
-10.01191471889472
 10
-0.5481678905391205
 20
-9.973367608742851
 10
-0.692796172043858
 20
-9.934113807711531
 10
-0.837222906794873
 20
-9.894153759436091
 10
-0.9814413094441324
 20
-9.85348790755186
 10
-1.125444594643602
 20
-9.812116695694165
 10
-1.26922597704525
 20
-9.770040567498332
 10
-1.412778671301042
 20
-9.727259966599689
 10
-1.556095892062945
 20
-9.683775336633562
 10
-1.699170853982926
 20
-9.63958712123528
 10
-1.841996771712952
 20
-9.594695764040167
 10
-1.841996771712952
 20
-9.594695764040165
 10
-1.972968128861725
 20
-9.552816612621722
 10
-2.103771935429374
 20
-9.510282338242491
 10
-2.234397344894476
 20
-9.46709800576011
 10
-2.364833510735608
 20
-9.423268680032212
 10
-2.495069586431347
 20
-9.378799425916431
 10
-2.625094725460267
 20
-9.333695308270403
 10
-2.754898081300946
 20
-9.287961391951764
 10
-2.88446880743196
 20
-9.241602741818146
 10
-3.013796057331887
 20
-9.194624422727187
 10
-3.142868984479302
 20
-9.14703149953652
 10
-3.271676742352781
 20
-9.098829037103779
 10
-3.27167674235278
 20
-9.098829037103779
 10
-3.387619913110898
 20
-9.054764538717149
 10
-3.503366122172621
 20
-9.010091595288372
 10
-3.618916925119553
 20
-8.964857170575148
 10
-3.734273877533298
 20
-8.919108228335183
 10
-3.849438534995461
 20
-8.872891732326177
 10
-3.964412453087645
 20
-8.826254646305836
 10
-3.964412453087645
 20
-8.826254646305836
 10
-4.070465369696763
 20
-8.782636370896186
 10
-4.176259746133571
 20
-8.73839654605794
 10
-4.281816757874156
 20
-8.693590001353511
 10
-4.387157580394601
 20
-8.64827156634532
 10
-4.492303389170992
 20
-8.602496070595783
 10
-4.597275359679412
 20
-8.556318343667317
 10
-4.702094667395947
 20
-8.509793215122341
 10
-4.806782487796681
 20
-8.462975514523272
 10
-4.80678248779668
 20
-8.46297551452327
 10
-4.930778493542975
 20
-8.406048229507261
 10
-5.054658542702449
 20
-8.348870462542498
 10
-5.178379538666402
 20
-8.291352725609256
 10
-5.301898384826133
 20
-8.233405530687809
 10
-5.42517198457294
 20
-8.174939389758433
 10
-5.548157241298122
 20
-8.115864814801403
 10
-5.548157241298124
 20
-8.115864814801403
 10
-5.675945024110989
 20
-8.05369443978477
 10
-5.80344708800355
 20
-7.990934112784429
 10
-5.93065781593935
 20
-7.927580913677006
 10
-6.057571590881933
 20
-7.863631922339123
 10
-6.184182795794841
 20
-7.799084218647403
 10
-6.310485813641617
 20
-7.733934882478471
 10
-6.436475027385803
 20
-7.66818099370895
 10
-6.562144819990943
 20
-7.601819632215462
 10
-6.687489574420579
 20
-7.534847877874634
 10
-6.812503673638254
 20
-7.467262810563086
 10
-6.937181500607512
 20
-7.399061510157444
 10
-7.061517438291894
 20
-7.330241056534331
 10
-7.185505869654943
 20
-7.26079852957037
 10
-7.309141177660203
 20
-7.190731009142185
 10
-7.432417745271216
 20
-7.120035575126399
 10
-7.555329955451524
 20
-7.048709307399636
 10
-7.677872191164671
 20
-6.97674928583852
 10
-7.800038835374199
 20
-6.904152590319674
 10
-7.921824271043652
 20
-6.830916300719722
 10
-8.043222881136571
 20
-6.757037496915287
 10
-8.164229048616501
 20
-6.682513258782992
 10
-8.284837156446984
 20
-6.607340666199462
 10
-8.405041587591561
 20
-6.53151679904132
 10
-8.524836725013777
 20
-6.455038737185189
 10
-8.644216951677174
 20
-6.377903560507693
 10
-8.763176650545295
 20
-6.300108348885456
 10
-8.763176650545299
 20
-6.300108348885452
 10
-8.879119568688446
 20
-6.223364903693624
 10
-8.994630242780353
 20
-6.145982421016265
 10
-9.109706811558996
 20
-6.067964406752681
 10
-9.224347413762357
 20
-5.989314366802179
 10
-9.338550188128413
 20
-5.910035807064069
 10
-9.452313273395144
 20
-5.830132233437657
 10
-9.565634808300529
 20
-5.74960715182225
 10
-9.678512931582547
 20
-5.668464068117157
 10
-9.790945781979177
 20
-5.586706488221684
 10
-9.902931498228397
 20
-5.504337918035139
 10
-10.01446821906819
 20
-5.42136186345683
 10
-10.12555408323652
 20
-5.337781830386064
 10
-10.23618722947139
 20
-5.253601324722149
 10
-10.34636579651077
 20
-5.168823852364392
 10
-10.45608792309263
 20
-5.0834529192121
 10
-10.56535174795496
 20
-4.997492031164581
 10
-10.67415540983573
 20
-4.910944694121143
 10
-10.78249704747293
 20
-4.823814413981093
 10
-10.89037479960452
 20
-4.736104696643738
 10
-10.99778680496851
 20
-4.647819048008386
 10
-11.10473120230285
 20
-4.558960973974345
 10
-11.21120613034553
 20
-4.469533980440922
 10
-11.31720972783453
 20
-4.379541573307424
 10
-11.31720972783453
 20
-4.379541573307422
 10
-11.42350598493747
 20
-4.288320048500641
 10
-11.52930886814377
 20
-4.196540012227537
 10
-11.63462649362329
 20
-4.104213468153589
 10
-11.73946697754591
 20
-4.011352419944274
 10
-11.84383843608151
 20
-3.917968871265069
 10
-11.94774898539997
 20
-3.824074825781452
 10
-12.05120674167115
 20
-3.729682287158901
 10
-12.15421982106492
 20
-3.634803259062892
 10
-12.25679633975117
 20
-3.539449745158903
 10
-12.35894441389977
 20
-3.443633749112413
 10
-12.46067215968059
 20
-3.347367274588897
 10
-12.56198769326351
 20
-3.250662325253834
 10
-12.66289913081839
 20
-3.153530904772702
 10
-12.76341458851512
 20
-3.055985016810977
 10
-12.86354218252357
 20
-2.958036665034137
 10
-12.96329002901361
 20
-2.85969785310766
 10
-13.06266624415512
 20
-2.760980584697023
 10
-13.16167894411797
 20
-2.661896863467703
 10
-13.26033624507203
 20
-2.562458693085178
 10
-13.35864626318718
 20
-2.462678077214926
 10
-13.4566171146333
 20
-2.362567019522424
 10
-13.55425691558025
 20
-2.26213752367315
 10
-13.65157378219791
 20
-2.16140159333258
 10
-13.74857583065616
 20
-2.060371232166193
 10
-13.84527117712487
 20
-1.959058443839465
 10
-13.94166793777392
 20
-1.857475232017875
 10
-13.94166793777391
 20
-1.857475232017875
 10
-14.04994167329342
 20
-1.742750230061394
 10
-14.15793119485537
 20
-1.627749706390426
 10
-14.26566094632235
 20
-1.512497294315571
 10
-14.37315537155694
 20
-1.397016627147429
 10
-14.48043891442172
 20
-1.281331338196601
 10
-14.5875360187793
 20
-1.165465060773687
 10
-14.69447112849224
 20
-1.049441428189288
 10
-14.80126868742315
 20
-0.9332840737540045
 10
-14.90795313943461
 20
-0.8170166307784361
 10
-15.0145489283892
 20
-0.7006627325731836
 10
-15.12108049814951
 20
-0.5842460124488475
 10
-15.22757229257813
 20
-0.4677901037160283
 10
-15.33404875553765
 20
-0.3513186396853262
 10
-15.44053433089065
 20
-0.234855253667342
 10
-15.54705346249972
 20
-0.1184235789726759
 10
-15.65363059422745
 20
-0.0020472489119285
 10
-15.76029016993642
 20
0.1142501032043
 10
-15.86705663348922
 20
0.230444844065409
 10
-15.97395442874844
 20
0.3465133403607981
 10
-16.08100799957666
 20
0.4624319587798669
 10
-16.18824178983648
 20
0.5781770660120148
 10
-16.29568024339048
 20
0.6937250287466416
 10
-16.40334780410124
 20
0.8090522136731467
 10
-16.51126891583136
 20
0.9241349874809298
 10
-16.61946802244341
 20
1.03894971685939
 10
-16.7279695678
 20
1.153472768497928
 10
-16.83679799576369
 20
1.267680509085942
 10
-16.94597775019709
 20
1.381549305312832
 10
-17.05553327496278
 20
1.495055523867998
 10
-17.16548901392335
 20
1.608175531440839
 10
-17.27586941094137
 20
1.720885694720756
 10
-17.38669890987945
 20
1.833162380397147
 10
-17.49800195460016
 20
1.944981955159411
 10
-17.6098029889661
 20
2.05632078569695
 10
-17.72212645683985
 20
2.167155238699161
 10
-17.83499680208399
 20
2.277461680855445
 10
-17.834996802084
 20
2.277461680855445
 10
-17.9302451031131
 20
2.369704031221183
 10
-18.02587315165095
 20
2.461543151000814
 10
-18.12188567795586
 20
2.552970352218918
 10
-18.21828741228616
 20
2.643976946900076
 10
-18.31508308490017
 20
2.734554247068865
 10
-18.41227742605621
 20
2.824693564749867
 10
-18.5098751660126
 20
2.91438621196766
 10
-18.60788103502768
 20
3.003623500746825
 10
-18.70629976335975
 20
3.092396743111941
 10
-18.80513608126715
 20
3.180697251087587
 10
-18.90439471900819
 20
3.268516336698343
 10
-19.00408040684119
 20
3.355845311968789
 10
-19.1041978750245
 20
3.442675488923505
 10
-19.20475185381641
 20
3.528998179587069
 10
-19.30574707347526
 20
3.614804695984061
 10
-19.40718826425937
 20
3.700086350139062
 10
-19.50908015642706
 20
3.784834454076651
 10
-19.61142748023665
 20
3.869040319821407
 10
-19.71423496594647
 20
3.95269525939791
 10
-19.81750734381484
 20
4.035790584830739
 10
-19.92124934410008
 20
4.118317608144475
 10
-20.02546569706051
 20
4.200267641363696
 10
-20.02546569706051
 20
4.200267641363695
 10
-20.1322390622961
 20
4.2832480842675
 10
-20.23947725497356
 20
4.365611975760366
 10
-20.34717671320154
 20
4.447358182791762
 10
-20.45533387508866
 20
4.528485572311157
 10
-20.56394517874356
 20
4.608993011268019
 10
-20.67300706227486
 20
4.688879366611817
 10
-20.78251596379118
 20
4.76814350529202
 10
-20.89246832140116
 20
4.846784294258096
 10
-21.00286057321342
 20
4.924800600459515
 10
-21.11368915733661
 20
5.002191290845744
 10
-21.22495051187932
 20
5.078955232366253
 10
-21.33664107495021
 20
5.15509129197051
 10
-21.4487572846579
 20
5.230598336607984
 10
-21.56129557911101
 20
5.305475233228143
 10
-21.67425239641817
 20
5.379720848780457
 10
-21.78762417468802
 20
5.453334050214393
 10
-21.90140735202918
 20
5.526313704479421
 10
-22.01559836655027
 20
5.598658678525009
 10
-22.13019365635993
 20
5.670367839300626
 10
-22.24518965956678
 20
5.741440053755741
 10
-22.36058281427946
 20
5.811874188839821
 10
-22.47636955860659
 20
5.881669111502336
 10
-22.5925463306568
 20
5.950823688692755
 10
-22.70910956853871
 20
6.019336787360547
 10
-22.70910956853873
 20
6.019336787360545
 10
-22.82126932837505
 20
6.084443010438453
 10
-22.93375874767376
 20
6.148947942032311
 10
-23.04657146502954
 20
6.212862222754109
 10
-23.15970111903711
 20
6.276196493215835
 10
-23.27314134829115
 20
6.338961394029478
 10
-23.38688579138636
 20
6.401167565807025
 10
-23.50092808691744
 20
6.462825649160464
 10
-23.61526187347908
 20
6.523946284701784
 10
-23.72988078966599
 20
6.584540113042972
 10
-23.84477847407286
 20
6.644617774796017
 10
-23.95994856529437
 20
6.704189910572907
 10
-24.07538470192525
 20
6.76326716098563
 10
-24.19108052256018
 20
6.821860166646173
 10
-24.19108052256017
 20
6.821860166646173
 10
-24.30859603720238
 20
6.880646203789213
 10
-24.42642610546914
 20
6.93876816328947
 10
-24.54455877950371
 20
6.996248727704668
 10
-24.66298211144931
 20
7.053110579592532
 10
-24.7816841534492
 20
7.109376401510787
 10
-24.90065295764662
 20
7.165068876017159
 10
-25.01987657618479
 20
7.220210685669371
 10
-25.13934306120698
 20
7.27482451302515
 10
-25.25904046485642
 20
7.328933040642221
 10
-25.37895683927634
 20
7.382558951078308
 10
-25.49908023661
 20
7.435724926891135
 10
-25.61939870900064
 20
7.48845365063843
 10
-25.73990030859148
 20
7.540767804877915
 10
-25.86057308752579
 20
7.592690072167316
 10
-25.9814050979468
 20
7.64424313506436
 10
-26.10238439199774
 20
7.695449676126769
 10
-26.10238439199774
 20
7.695449676126769
 10
-26.26003079603761
 20
7.760617197565215
 10
-26.41780405851821
 20
7.82551332580483
 10
-26.57571341104204
 20
7.890093866920783
 10
-26.73376808521159
 20
7.954314626988245
 10
-26.89197731262936
 20
8.018131412082386
 10
-27.05035032489782
 20
8.081500028278377
 10
-27.20889635361949
 20
8.144376281651387
 10
-27.36762463039684
 20
8.206715978276589
 10
-27.52654438683237
 20
8.268474924229151
 10
-27.52654438683238
 20
8.268474924229151
 10
-27.68966040743401
 20
8.33123463652674
 10
-27.85299181960227
 20
8.393514446136324
 10
-28.01653763371008
 20
8.455302099508738
 10
-28.18029686013037
 20
8.516585343094821
 10
-28.34426850923607
 20
8.577351923345405
 10
-28.5084515914001
 20
8.63758958671133
 10
-28.67284511699539
 20
8.697286079643431
 10
-28.83744809639486
 20
8.756429148592545
 10
-29.00225953997144
 20
8.815006540009507
 10
-29.16727845809806
 20
8.873006000345156
 10
-29.33250386114764
 20
8.930415276050327
 10
-29.49793475949311
 20
8.987222113575855
 10
-29.6635701635074
 20
9.043414259372577
 10
-29.82940908356342
 20
9.09897945989133
 10
-29.99545053003412
 20
9.153905461582949
 10
-30.1616935132924
 20
9.208180010898272
 10
-30.32813704371121
 20
9.261790854288134
 10
-30.49478013166346
 20
9.314725738203373
 10
-30.66162178752208
 20
9.366972409094824
 10
-30.82866102166001
 20
9.418518613413322
 10
-30.99589684445015
 20
9.469352097609705
 10
-31.16332826626544
 20
9.51946060813481
 10
-31.33095429747881
 20
9.568831891439472
 10
-31.33095429747881
 20
9.568831891439476
 10
-31.45856890454137
 20
9.605885019515238
 10
-31.58632582766907
 20
9.642519075182047
 10
-31.71422349739509
 20
9.678727205199324
 10
-31.84226034425262
 20
9.714502556326491
 10
-31.97043479877486
 20
9.749838275322971
 10
-32.09874529149499
 20
9.784727508948186
 10
-32.22719025294619
 20
9.819163403961558
 10
-32.35576811366167
 20
9.85313910712251
 10
-32.4844773041746
 20
9.886647765190462
 10
-32.61331625501818
 20
9.919682524924835
 10
-32.74228339672561
 20
9.952236533085056
 10
-32.87137715983005
 20
9.984302936430543
 10
-33.0005959748647
 20
10.01587488172072
 10
-33.12993827236276
 20
10.046945515715
 10
-33.25940248285742
 20
10.07750798517282
 10
-33.38898703688186
 20
10.1075554368536
 10
-33.51869036496927
 20
10.13708101751675
 10
-33.64851089765284
 20
10.1660778739217
 10
-33.77844706546576
 20
10.19453915282787
 10
-33.90849729894122
 20
10.22245800099469
 10
-34.03866002861241
 20
10.24982756518157
 10
-34.16893368501252
 20
10.27664099214794
 10
-34.29931669867473
 20
10.30289142865322
 10
-34.42980750013224
 20
10.32857202145682
 10
-34.56040451991824
 20
10.35367591731819
 10
-34.69110618856591
 20
10.37819626299672
 10
-34.82191093660845
 20
10.40212620525186
 10
-34.95281719457903
 20
10.42545889084301
 10
-35.08382339301087
 20
10.44818746652961
 10
-35.21492796243713
 20
10.47030507907107
 10
-35.34612933339101
 20
10.49180487522682
 10
-35.4774259364057
 20
10.51268000175627
 10
-35.6088162020144
 20
10.53292360541886
 10
-35.74029856075028
 20
10.55252883297399
 10
-35.87187144314653
 20
10.5714888311811
 10
-36.00353327973636
 20
10.5897967467996
 10
-36.13528250105294
 20
10.60744572658892
 10
-36.26711753762947
 20
10.62442891730849
 10
-36.39903681999913
 20
10.64073946571771
 10
-36.53103877869511
 20
10.65637051857602
 10
-36.66312184425061
 20
10.67131522264283
 10
-36.7952844471988
 20
10.68556672467757
 10
-36.92752501807289
 20
10.69911817143967
 10
-37.05984198740606
 20
10.71196270968853
 10
-37.1922337857315
 20
10.72409348618359
 10
-37.3246988435824
 20
10.73550364768427
 10
-37.45723559149195
 20
10.74618634094998
 10
-37.58984245999334
 20
10.75613471274015
 10
-37.72251787961975
 20
10.76534190981421
 10
-37.85526028090437
 20
10.77380107893157
 10
-37.9880680943804
 20
10.78150536685166
 10
-38.12093975058103
 20
10.78844792033389
 10
-38.25387368003944
 20
10.7946218861377
 10
-38.25387368003943
 20
10.79462188613769
 10
-38.37467998088317
 20
10.79955228553593
 10
-38.49549479437669
 20
10.80382528526116
 10
-38.61631550052412
 20
10.80743748895608
 10
-38.73713947932961
 20
10.81038550026341
 10
-38.8579641107973
 20
10.81266592282585
 10
-38.97878677493134
 20
10.8142753602861
 10
-39.09960485173587
 20
10.81521041628686
 10
-39.22041572121504
 20
10.81546769447084
 10
-39.34121676337298
 20
10.81504379848075
 10
-39.46200535821385
 20
10.81393533195928
 10
-39.58277888574178
 20
10.81213889854915
 10
-39.70353472596093
 20
10.80965110189305
 10
-39.82427025887543
 20
10.8064685456337
 10
-39.94498286448943
 20
10.80258783341379
 10
-40.06566992280708
 20
10.79800556887603
 10
-40.18632881383251
 20
10.79271835566313
 10
-40.30695691756988
 20
10.78672279741778
 10
-40.42755161402332
 20
10.7800154977827
 10
-40.54811028319699
 20
10.77259306040059
 10
-40.66863030509501
 20
10.76445208891414
 10
-40.78910905972154
 20
10.75558918696607
 10
-40.90954392708073
 20
10.74600095819909
 10
-41.02993228717671
 20
10.73568400625588
 10
-41.15027152001363
 20
10.72463493477917
 10
-41.27055900559564
 20
10.71285034741165
 10
-41.27055900559564
 20
10.71285034741165
 10
-41.3927284042754
 20
10.70011357029094
 10
-41.5148057761502
 20
10.6866052725766
 10
-41.63678691735085
 20
10.67232588293566
 10
-41.75866762400811
 20
10.65727583003517
 10
-41.88044369225276
 20
10.64145554254214
 10
-42.00211091821561
 20
10.62486544912363
 10
-42.12366509802744
 20
10.60750597844665
 10
-42.24510202781904
 20
10.58937755917825
 10
-42.36641750372119
 20
10.57048061998547
 10
-42.48760732186468
 20
10.55081558953532
 10
-42.6086672783803
 20
10.53038289649486
 10
-42.72959316939885
 20
10.50918296953111
 10
-42.8503807910511
 20
10.4872162373111
 10
-42.97102593946784
 20
10.46448312850188
 10
-43.09152441077986
 20
10.44098407177048
 10
-43.21187200111796
 20
10.41671949578392
 10
-43.33206450661291
 20
10.39168982920925
 10
-43.4520977233955
 20
10.36589550071349
 10
-43.57196744759653
 20
10.33933693896369
 10
-43.69166947534677
 20
10.31201457262688
 10
-43.81119960277702
 20
10.28392883037009
 10
-43.93055362601806
 20
10.25508014086035
 10
-44.04972734120069
 20
10.2254689327647
 10
-44.16871654445569
 20
10.19509563475018
 10
-44.28751703191385
 20
10.16396067548382
 10
-44.28751703191386
 20
10.16396067548382
 10
-44.40384955826224
 20
10.13268579109488
 10
-44.51997838940632
 20
10.10068939297345
 10
-44.63590099582791
 20
10.06797590517112
 10
-44.75161484800883
 20
10.03454975173948
 10
-44.86711741643087
 20
10.00041535673013
 10
-44.98240617157587
 20
9.965577144194684
 10
-45.09747858392561
 20
9.930039538184718
 10
-45.21233212396192
 20
9.893806962751838
 10
-45.32696426216662
 20
9.85688384194764
 10
-45.4413724690215
 20
9.819274599823721
 10
-45.55555421500838
 20
9.780983660431678
 10
-45.66950697060907
 20
9.742015447823108
 10
-45.78322820630539
 20
9.70237438604961
 10
-45.89671539257914
 20
9.66206489916278
 10
-46.00996599991215
 20
9.621091411214216
 10
-46.1229774987862
 20
9.579458346255515
 10
-46.23574735968313
 20
9.537170128338273
 10
-46.34827305308474
 20
9.494231181514088
 10
-46.46055204947283
 20
9.450645929834557
 10
-46.57258181932924
 20
9.406418797351278
 10
-46.68435983313576
 20
9.361554208115848
 10
-46.79588356137421
 20
9.316056586179863
 10
-46.9071504745264
 20
9.269930355594922
 10
-47.01815804307413
 20
9.223179940412622
 10
-47.01815804307414
 20
9.223179940412626
 10
-47.12860315086733
 20
9.175932761271024
 10
-47.23877526916568
 20
9.128069917020459
 10
-47.34867679878261
 20
9.07960153610203
 10
-47.45831014053157
 20
9.030537746956838
 10
-47.56767769522599
 20
8.980888678025982
 10
-47.6767818636793
 20
8.930664457750561
 10
-47.78562504670495
 20
8.879875214571676
 10
-47.89420964511636
 20
8.828531076930426
 10
-48.00253805972698
 20
8.77664217326791
 10
-48.11061269135024
 20
8.72421863202523
 10
-48.21843594079957
 20
8.671270581643485
 10
-48.32601020888841
 20
8.617808150563774
 10
-48.4333378964302
 20
8.563841467227199
 10
-48.43333789643021
 20
8.563841467227204
 10
-48.54300741084268
 20
8.507967873902721
 10
-48.65234169979044
 20
8.451460332787835
 10
-48.76135220175481
 20
8.394343587195251
 10
-48.87005035521717
 20
8.336642380437673
 10
-48.97844759865883
 20
8.278381455827808
 10
-49.08655537056115
 20
8.21958555667836
 10
-49.19438510940548
 20
8.160279426302032
 10
-49.30194825367314
 20
8.100487808011532
 10
-49.40925624184549
 20
8.040235445119563
 10
-49.51632051240387
 20
7.97954708093883
 10
-49.62315250382964
 20
7.918447458782039
 10
-49.72976365460413
 20
7.856961321961894
 10
-49.83616540320867
 20
7.7951134137911
  0
LWPOLYLINE
  5
24B
330
1F
100
AcDbEntity
  8
Vector Layer 1
 62
    18
420
        0
370
    30
100
AcDbPolyline
 90
      593
 70
     0
 43
0.0
 10
41.69966245565689
 20
-8.246021804312317
 10
41.68845534895927
 20
-8.254068552510721
 10
41.68845534895927
 20
-8.254068552510721
 10
41.61486147379375
 20
-8.303836310780752
 10
41.54100900324698
 20
-8.353214712419426
 10
41.46688606253769
 20
-8.402180211120507
 10
41.39248077688463
 20
-8.450709260577765
 10
41.31778127150652
 20
-8.498778314484965
 10
41.24277567162212
 20
-8.546363826535875
 10
41.16745210245016
 20
-8.593442250424262
 10
41.09179868920938
 20
-8.63999003984389
 10
41.01580355711853
 20
-8.68598364848853
 10
40.93945483139632
 20
-8.731399530051946
 10
40.8627406372615
 20
-8.776214138227906
 10
40.78564909993281
 20
-8.820403926710179
 10
40.708168344629
 20
-8.863945349192528
 10
40.70816834462899
 20
-8.863945349192526
 10
40.62370421360436
 20
-8.910572439245617
 10
40.53895741535133
 20
-8.956639977889521
 10
40.45392610039094
 20
-9.002142936086293
 10
40.36860841924425
 20
-9.047076284797993
 10
40.28300252243231
 20
-9.091434994986677
 10
40.19710656047617
 20
-9.135214037614399
 10
40.11091868389688
 20
-9.178408383643221
 10
40.02443704321549
 20
-9.221013004035196
 10
39.93765978895307
 20
-9.263022869752381
 10
39.85058507163066
 20
-9.304432951756835
 10
39.7632110417693
 20
-9.345238221010614
 10
39.67553584989005
 20
-9.385433648475775
 10
39.58755764651396
 20
-9.425014205114374
 10
39.4992745821621
 20
-9.46397486188847
 10
39.49927458216211
 20
-9.46397486188847
 10
39.39758198134216
 20
-9.507987999677517
 10
39.29560131923264
 20
-9.551272405339497
 10
39.19333736180661
 20
-9.593832099202252
 10
39.09079487503716
 20
-9.63567110159362
 10
38.98797862489736
 20
-9.676793432841442
 10
38.88489337736029
 20
-9.717203113273555
 10
38.78154389839905
 20
-9.7569041632178
 10
38.67793495398668
 20
-9.795900603002017
 10
38.5740713100963
 20
-9.834196452954046
 10
38.46995773270096
 20
-9.871795733401725
 10
38.36559898777375
 20
-9.908702464672895
 10
38.26099984128775
 20
-9.944920667095395
 10
38.15616505921603
 20
-9.980454360997066
 10
38.05109940753168
 20
-10.01530756670574
 10
37.94580765220776
 20
-10.04948430454927
 10
37.84029455921737
 20
-10.08298859485549
 10
37.73456489453358
 20
-10.11582445795224
 10
37.62862342412947
 20
-10.14799591416735
 10
37.52247491397811
 20
-10.17950698382867
 10
37.41612413005259
 20
-10.21036168726404
 10
37.30957583832598
 20
-10.2405640448013
 10
37.20283480477137
 20
-10.27011807676828
 10
37.09590579536183
 20
-10.29902780349283
 10
36.98879357607044
 20
-10.32729724530278
 10
36.88150291287028
 20
-10.35493042252598
 10
36.77403857173443
 20
-10.38193135549027
 10
36.66640531863597
 20
-10.40830406452347
 10
36.66640531863595
 20
-10.40830406452348
 10
36.54270964143779
 20
-10.43782620665341
 10
36.41885554386999
 20
-10.46658295098058
 10
36.29484681535534
 20
-10.4945790597253
 10
36.17068724531664
 20
-10.52181929510789
 10
36.04638062317665
 20
-10.54830841934866
 10
35.92193073835818
 20
-10.57405119466794
 10
35.797341380284
 20
-10.59905238328604
 10
35.67261633837691
 20
-10.62331674742328
 10
35.5477594020597
 20
-10.64684904929997
 10
35.42277436075514
 20
-10.66965405113643
 10
35.29766500388603
 20
-10.69173651515298
 10
35.17243512087516
 20
-10.71310120356994
 10
35.04708850114531
 20
-10.73375287860761
 10
34.92162893411926
 20
-10.75369630248633
 10
34.79606020921981
 20
-10.77293623742641
 10
34.67038611586974
 20
-10.79147744564815
 10
34.54461044349183
 20
-10.80932468937189
 10
34.41873698150888
 20
-10.82648273081794
 10
34.29276951934367
 20
-10.84295633220661
 10
34.16671184641899
 20
-10.85875025575823
 10
34.04056775215763
 20
-10.8738692636931
 10
33.91434102598237
 20
-10.88831811823155
 10
33.788035457316
 20
-10.90210158159389
 10
33.6616548355813
 20
-10.91522441600045
 10
33.53520295020107
 20
-10.92769138367153
 10
33.4086835905981
 20
-10.93950724682745
 10
33.28210054619515
 20
-10.95067676768854
 10
33.15545760641504
 20
-10.9612047084751
 10
33.02875856068053
 20
-10.97109583140746
 10
32.90200719841442
 20
-10.98035489870594
 10
32.7752073090395
 20
-10.98898667259084
 10
32.64836268197856
 20
-10.99699591528249
 10
32.52147710665437
 20
-11.00438738900121
 10
32.39455437248973
 20
-11.0111658559673
 10
32.26759826890742
 20
-11.0173360784011
 10
32.14061258533023
 20
-11.02290281852291
 10
32.01360111118094
 20
-11.02787083855305
 10
31.88656763588235
 20
-11.03224490071184
 10
31.75951594885724
 20
-11.03602976721959
 10
31.6324498395284
 20
-11.03923020029664
 10
31.50537309731862
 20
-11.04185096216328
 10
31.37828951165067
 20
-11.04389681503983
 10
31.25120287194736
 20
-11.04537252114663
 10
31.12411696763146
 20
-11.04628284270397
 10
30.99703558812576
 20
-11.04663254193219
 10
30.86996252285306
 20
-11.04642638105159
 10
30.74290156123613
 20
-11.04566912228249
 10
30.61585649269777
 20
-11.04436552784521
 10
30.48883110666075
 20
-11.04252035996007
 10
30.48883110666075
 20
-11.04252035996006
 10
30.33910055388029
 20
-11.03964599413001
 10
30.18936616554328
 20
-11.03600952997954
 10
30.03963245629818
 20
-11.03161353475968
 10
29.88990394079341
 20
-11.02646057572146
 10
29.74018513367742
 20
-11.0205532201159
 10
29.59048054959863
 20
-11.01389403519406
 10
29.44079470320549
 20
-11.00648558820695
 10
29.29113210914644
 20
-10.9983304464056
 10
29.1414972820699
 20
-10.98943117704105
 10
28.99189473662432
 20
-10.97979034736433
 10
28.84232898745813
 20
-10.96941052462646
 10
28.69280454921977
 20
-10.95829427607849
 10
28.54332593655767
 20
-10.94644416897144
 10
28.39389766412028
 20
-10.93386277055635
 10
28.24452424655602
 20
-10.92055264808424
 10
28.09521019851334
 20
-10.90651636880614
 10
27.94596003464068
 20
-10.89175649997309
 10
27.79677826958645
 20
-10.87627560883612
 10
27.64766941799912
 20
-10.86007626264626
 10
27.49863799452711
 20
-10.84316102865454
 10
27.34968851381885
 20
-10.825532474112
 10
27.20082549052279
 20
-10.80719316626965
 10
27.05205343928736
 20
-10.78814567237855
 10
26.90337687476099
 20
-10.7683925596897
 10
26.75480031159213
 20
-10.74793639545416
 10
26.60632826442921
 20
-10.72677974692294
 10
26.45796524792066
 20
-10.70492518134709
 10
26.30971577671493
 20
-10.68237526597762
 10
26.16158436546045
 20
-10.65913256806558
 10
26.01357552880566
 20
-10.63519965486199
 10
25.86569378139899
 20
-10.61057909361789
 10
25.71794363788888
 20
-10.5852734515843
 10
25.57032961292377
 20
-10.55928529601226
 10
25.42285622115209
 20
-10.5326171941528
 10
25.27552797722227
 20
-10.50527171325695
 10
25.12834939578277
 20
-10.47725142057574
 10
24.98132499148201
 20
-10.44855888336021
 10
24.83445927896842
 20
-10.41919666886137
 10
24.83445927896842
 20
-10.41919666886137
 10
24.68782835633632
 20
-10.38916445281836
 10
24.54131077093351
 20
-10.35842022227198
 10
24.39491330810801
 20
-10.32696442085756
 10
24.24864275320788
 20
-10.29479749221041
 10
24.10250589158114
 20
-10.26191987996588
 10
23.95650950857581
 20
-10.22833202775929
 10
23.81066038953995
 20
-10.19403437922596
 10
23.66496531982157
 20
-10.15902737800122
 10
23.51943108476872
 20
-10.1233114677204
 10
23.37406446972942
 20
-10.08688709201883
 10
23.22887226005171
 20
-10.04975469453182
 10
23.08386124108363
 20
-10.01191471889472
 10
22.9390381981732
 20
-9.973367608742851
 10
22.79440991666846
 20
-9.934113807711531
 10
22.64998318191743
 20
-9.894153759436091
 10
22.50576477926817
 20
-9.85348790755186
 10
22.36176149406869
 20
-9.812116695694165
 10
22.21798011166704
 20
-9.770040567498332
 10
22.07442741741123
 20
-9.727259966599689
 10
21.93111019664932
 20
-9.683775336633562
 10
21.78803523472933
 20
-9.63958712123528
 10
21.64520931699929
 20
-9.594695764040167
 10
21.6452093169993
 20
-9.594695764040165
 10
21.51423795985055
 20
-9.552816612621722
 10
21.38343415328292
 20
-9.510282338242491
 10
21.25280874381784
 20
-9.46709800576011
 10
21.12237257797672
 20
-9.423268680032212
 10
20.992136502281
 20
-9.378799425916431
 10
20.86211136325208
 20
-9.333695308270403
 10
20.73230800741141
 20
-9.287961391951764
 10
20.60273728128039
 20
-9.241602741818146
 10
20.47341003138045
 20
-9.194624422727187
 10
20.34433710423302
 20
-9.14703149953652
 10
20.21552934635952
 20
-9.098829037103779
 10
20.21552934635953
 20
-9.098829037103779
 10
20.09958617560138
 20
-9.054764538717149
 10
19.98383996653964
 20
-9.010091595288372
 10
19.8682891635927
 20
-8.964857170575148
 10
19.75293221117893
 20
-8.919108228335183
 10
19.63776755371671
 20
-8.872891732326177
 10
19.52279363562443
 20
-8.826254646305836
 10
19.52279363562442
 20
-8.826254646305836
 10
19.41674071901539
 20
-8.782636370896186
 10
19.31094634257864
 20
-8.73839654605794
 10
19.20538933083808
 20
-8.693590001353511
 10
19.10004850831764
 20
-8.64827156634532
 10
18.99490269954123
 20
-8.602496070595783
 10
18.88993072903279
 20
-8.556318343667317
 10
18.78511142131622
 20
-8.509793215122341
 10
18.68042360091545
 20
-8.462975514523272
 10
18.68042360091546
 20
-8.46297551452327
 10
18.55642759516925
 20
-8.406048229507261
 10
18.43254754600981
 20
-8.348870462542498
 10
18.30882655004586
 20
-8.291352725609256
 10
18.18530770388612
 20
-8.233405530687809
 10
18.0620341041393
 20
-8.174939389758433
 10
17.93904884741414
 20
-8.115864814801403
 10
17.93904884741415
 20
-8.115864814801403
 10
17.81126106460128
 20
-8.05369443978477
 10
17.68375900070872
 20
-7.990934112784429
 10
17.55654827277292
 20
-7.927580913677006
 10
17.42963449783034
 20
-7.863631922339123
 10
17.30302329291743
 20
-7.799084218647403
 10
17.17672027507066
 20
-7.733934882478471
 10
17.05073106132647
 20
-7.66818099370895
 10
16.92506126872133
 20
-7.601819632215462
 10
16.79971651429169
 20
-7.534847877874634
 10
16.67470241507401
 20
-7.467262810563086
 10
16.55002458810476
 20
-7.399061510157444
 10
16.42568865042037
 20
-7.330241056534331
 10
16.30170021905732
 20
-7.26079852957037
 10
16.17806491105206
 20
-7.190731009142185
 10
16.05478834344104
 20
-7.120035575126399
 10
15.93187613326073
 20
-7.048709307399636
 10
15.80933389754758
 20
-6.97674928583852
 10
15.68716725333805
 20
-6.904152590319674
 10
15.5653818176686
 20
-6.830916300719722
 10
15.44398320757568
 20
-6.757037496915287
 10
15.32297704009575
 20
-6.682513258782992
 10
15.20236893226527
 20
-6.607340666199462
 10
15.0821645011207
 20
-6.53151679904132
 10
14.96236936369849
 20
-6.455038737185189
 10
14.8429891370351
 20
-6.377903560507693
 10
14.72402943816698
 20
-6.300108348885456
 10
14.72402943816697
 20
-6.300108348885452
 10
14.60808652002383
 20
-6.223364903693624
 10
14.49257584593193
 20
-6.145982421016265
 10
14.37749927715329
 20
-6.067964406752681
 10
14.26285867494994
 20
-5.989314366802179
 10
14.14865590058389
 20
-5.910035807064069
 10
14.03489281531717
 20
-5.830132233437657
 10
13.92157128041179
 20
-5.74960715182225
 10
13.80869315712978
 20
-5.668464068117157
 10
13.69626030673316
 20
-5.586706488221684
 10
13.58427459048395
 20
-5.504337918035139
 10
13.47273786964416
 20
-5.42136186345683
 10
13.36165200547583
 20
-5.337781830386064
 10
13.25101885924097
 20
-5.253601324722149
 10
13.1408402922016
 20
-5.168823852364392
 10
13.03111816561975
 20
-5.0834529192121
 10
12.92185434075743
 20
-4.997492031164581
 10
12.81305067887666
 20
-4.910944694121143
 10
12.70470904123947
 20
-4.823814413981093
 10
12.59683128910788
 20
-4.736104696643738
 10
12.48941928374391
 20
-4.647819048008386
 10
12.38247488640957
 20
-4.558960973974345
 10
12.27599995836689
 20
-4.469533980440922
 10
12.1699963608779
 20
-4.379541573307424
 10
12.1699963608779
 20
-4.379541573307422
 10
12.06370010377496
 20
-4.288320048500641
 10
11.95789722056866
 20
-4.196540012227537
 10
11.85257959508914
 20
-4.104213468153589
 10
11.74773911116651
 20
-4.011352419944274
 10
11.64336765263091
 20
-3.917968871265069
 10
11.53945710331246
 20
-3.824074825781452
 10
11.43599934704128
 20
-3.729682287158901
 10
11.3329862676475
 20
-3.634803259062892
 10
11.23040974896125
 20
-3.539449745158903
 10
11.12826167481265
 20
-3.443633749112413
 10
11.02653392903183
 20
-3.347367274588897
 10
10.92521839544891
 20
-3.250662325253834
 10
10.82430695789402
 20
-3.153530904772702
 10
10.72379150019728
 20
-3.055985016810977
 10
10.62366390618883
 20
-2.958036665034137
 10
10.52391605969878
 20
-2.85969785310766
 10
10.42453984455726
 20
-2.760980584697023
 10
10.3255271445944
 20
-2.661896863467703
 10
10.22686984364032
 20
-2.562458693085178
 10
10.12855982552515
 20
-2.462678077214926
 10
10.03058897407902
 20
-2.362567019522424
 10
9.932949173132051
 20
-2.26213752367315
 10
9.835632306514366
 20
-2.16140159333258
 10
9.738630258056092
 20
-2.060371232166193
 10
9.641934911587357
 20
-1.959058443839465
 10
9.545538150938286
 20
-1.857475232017875
 10
9.545538150938281
 20
-1.857475232017875
 10
9.437264415418773
 20
-1.742750230061394
 10
9.329274893856828
 20
-1.627749706390426
 10
9.221545142389857
 20
-1.512497294315571
 10
9.114050717155272
 20
-1.397016627147429
 10
9.006767174290489
 20
-1.281331338196601
 10
8.89967006993292
 20
-1.165465060773687
 10
8.792734960219975
 20
-1.049441428189288
 10
8.68593740128907
 20
-0.9332840737540045
 10
8.579252949277618
 20
-0.8170166307784361
 10
8.472657160323031
 20
-0.7006627325731836
 10
8.366125590562722
 20
-0.5842460124488475
 10
8.259633796134103
 20
-0.4677901037160283
 10
8.153157333174588
 20
-0.3513186396853262
 10
8.046671757821592
 20
-0.234855253667342
 10
7.940152626212524
 20
-0.1184235789726759
 10
7.8335754944848
 20
-0.0020472489119285
 10
7.726915918775831
 20
0.1142501032043
 10
7.620149455223031
 20
0.230444844065409
 10
7.513251659963812
 20
0.3465133403607981
 10
7.406198089135589
 20
0.4624319587798669
 10
7.298964298875773
 20
0.5781770660120148
 10
7.191525845321778
 20
0.6937250287466416
 10
7.083858284611016
 20
0.8090522136731467
 10
6.975937172880901
 20
0.9241349874809298
 10
6.867738066268846
 20
1.03894971685939
 10
6.759236520912264
 20
1.153472768497928
 10
6.650408092948566
 20
1.267680509085942
 10
6.541228338515168
 20
1.381549305312832
 10
6.43167281374948
 20
1.495055523867998
 10
6.321717074788917
 20
1.608175531440839
 10
6.211336677770892
 20
1.720885694720756
 10
6.100507178832816
 20
1.833162380397147
 10
5.989204134112104
 20
1.944981955159411
 10
5.877403099746168
 20
2.05632078569695
 10
5.765079631872422
 20
2.167155238699161
 10
5.652209286628277
 20
2.277461680855445
 10
5.652209286628282
 20
2.277461680855445
 10
5.556960985599182
 20
2.369704031221183
 10
5.461332937061342
 20
2.461543151000814
 10
5.36532041075644
 20
2.552970352218918
 10
5.26891867642615
 20
2.643976946900076
 10
5.172123003812152
 20
2.734554247068865
 10
5.074928662656122
 20
2.824693564749867
 10
4.977330922699738
 20
2.91438621196766
 10
4.879325053684676
 20
3.003623500746825
 10
4.780906325352614
 20
3.092396743111941
 10
4.68207000744523
 20
3.180697251087587
 10
4.5828113697042
 20
3.268516336698343
 10
4.483125681871201
 20
3.355845311968789
 10
4.383008213687911
 20
3.442675488923505
 10
4.282454234896007
 20
3.528998179587069
 10
4.181459015237166
 20
3.614804695984061
 10
4.080017824453065
 20
3.700086350139062
 10
3.978125932285382
 20
3.784834454076651
 10
3.875778608475794
 20
3.869040319821407
 10
3.772971122765978
 20
3.95269525939791
 10
3.669698744897611
 20
4.035790584830739
 10
3.565956744612371
 20
4.118317608144475
 10
3.461740391651934
 20
4.200267641363696
 10
3.461740391651933
 20
4.200267641363695
 10
3.354967026416331
 20
4.2832480842675
 10
3.247728833738845
 20
4.365611975760366
 10
3.140029375510848
 20
4.447358182791762
 10
3.03187221362371
 20
4.528485572311157
 10
2.923260909968803
 20
4.608993011268019
 10
2.814199026437499
 20
4.688879366611817
 10
2.70469012492117
 20
4.76814350529202
 10
2.594737767311186
 20
4.846784294258096
 10
2.484345515498921
 20
4.924800600459515
 10
2.373516931375744
 20
5.002191290845744
 10
2.262255576833029
 20
5.078955232366253
 10
2.150565013762146
 20
5.15509129197051
 10
2.038448804054467
 20
5.230598336607984
 10
1.925910509601364
 20
5.305475233228143
 10
1.812953692294208
 20
5.379720848780457
 10
1.699581914024372
 20
5.453334050214393
 10
1.585798736683226
 20
5.526313704479421
 10
1.471607722162142
 20
5.598658678525009
 10
1.357012432352491
 20
5.670367839300626
 10
1.242016429145646
 20
5.741440053755741
 10
1.126623274432978
 20
5.811874188839821
 10
1.010836530105859
 20
5.881669111502336
 10
0.8946597580556606
 20
5.950823688692755
 10
0.7780965201737535
 20
6.019336787360547
 10
0.7780965201737527
 20
6.019336787360545
 10
0.6659367603373891
 20
6.084443010438453
 10
0.5534473410386497
 20
6.148947942032311
 10
0.4406346236828365
 20
6.212862222754109
 10
0.3275049696752515
 20
6.276196493215835
 10
0.2140647404211974
 20
6.338961394029478
 10
0.1003202973259763
 20
6.401167565807025
 10
-0.0137219982051097
 20
6.462825649160464
 10
-0.1280557847667582
 20
6.523946284701784
 10
-0.2426747009536671
 20
6.584540113042972
 10
-0.3575723853605339
 20
6.644617774796017
 10
-0.4727424765820567
 20
6.704189910572907
 10
-0.588178613212933
 20
6.76326716098563
 10
-0.7038744338478607
 20
6.821860166646173
 10
-0.7038744338478605
 20
6.821860166646173
 10
-0.8213899484900524
 20
6.880646203789213
 10
-0.939220016756807
 20
6.93876816328947
 10
-1.057352690791365
 20
6.996248727704668
 10
-1.175776022736968
 20
7.053110579592532
 10
-1.294478064736856
 20
7.109376401510787
 10
-1.413446868934271
 20
7.165068876017159
 10
-1.532670487472453
 20
7.220210685669371
 10
-1.652136972494642
 20
7.27482451302515
 10
-1.771834376144081
 20
7.328933040642221
 10
-1.89175075056401
 20
7.382558951078308
 10
-2.01187414789767
 20
7.435724926891135
 10
-2.132192620288301
 20
7.48845365063843
 10
-2.252694219879145
 20
7.540767804877915
 10
-2.373366998813442
 20
7.592690072167316
 10
-2.494199009234434
 20
7.64424313506436
 10
-2.615178303285361
 20
7.695449676126769
 10
-2.615178303285361
 20
7.695449676126769
 10
-2.77282470732521
 20
7.760617197565215
 10
-2.930597969805805
 20
7.82551332580483
 10
-3.088507322329635
 20
7.890093866920783
 10
-3.24656199649919
 20
7.954314626988245
 10
-3.40477122391696
 20
8.018131412082386
 10
-3.563144236185433
 20
8.081500028278377
 10
-3.7216902649071
 20
8.144376281651387
 10
-3.88041854168445
 20
8.206715978276589
 10
-4.039338298119973
 20
8.268474924229151
 10
-4.039338298119973
 20
8.268474924229151
 10
-4.202454318721606
 20
8.33123463652674
 10
-4.36578573088987
 20
8.393514446136324
 10
-4.529331544997688
 20
8.455302099508738
 10
-4.693090771417988
 20
8.516585343094821
 10
-4.857062420523696
 20
8.577351923345405
 10
-5.021245502687737
 20
8.63758958671133
 10
-5.185639028283036
 20
8.697286079643431
 10
-5.350242007682521
 20
8.756429148592545
 10
-5.515053451259115
 20
8.815006540009507
 10
-5.680072369385746
 20
8.873006000345156
 10
-5.845297772435339
 20
8.930415276050327
 10
-6.010728670780819
 20
8.987222113575855
 10
-6.176364074795113
 20
9.043414259372577
 10
-6.342202994851147
 20
9.09897945989133
 10
-6.508244441321846
 20
9.153905461582949
 10
-6.674487424580136
 20
9.208180010898272
 10
-6.840930954998943
 20
9.261790854288134
 10
-7.007574042951192
 20
9.314725738203373
 10
-7.17441569880981
 20
9.366972409094824
 10
-7.341454932947722
 20
9.418518613413322
 10
-7.508690755737854
 20
9.469352097609705
 10
-7.676122177553131
 20
9.51946060813481
 10
-7.84374820876648
 20
9.568831891439472
 10
-7.843748208766478
 20
9.568831891439476
 10
-7.971362815829053
 20
9.605885019515238
 10
-8.09911973895676
 20
9.642519075182047
 10
-8.22701740868279
 20
9.678727205199324
 10
-8.355054255540331
 20
9.714502556326491
 10
-8.483228710062572
 20
9.749838275322971
 10
-8.611539202782704
 20
9.784727508948186
 10
-8.739984164233915
 20
9.819163403961558
 10
-8.868562024949394
 20
9.85313910712251
 10
-8.997271215462331
 20
9.886647765190462
 10
-9.126110166305915
 20
9.919682524924835
 10
-9.255077308013335
 20
9.952236533085056
 10
-9.38417107111778
 20
9.984302936430543
 10
-9.51338988615244
 20
10.01587488172072
 10
-9.642732183650503
 20
10.046945515715
 10
-9.77219639414516
 20
10.07750798517282
 10
-9.901780948169598
 20
10.1075554368536
 10
-10.03148427625701
 20
10.13708101751675
 10
-10.16130480894058
 20
10.1660778739217
 10
-10.2912409767535
 20
10.19453915282787
 10
-10.42129121022896
 20
10.22245800099469
 10
-10.55145393990015
 20
10.24982756518157
 10
-10.68172759630025
 20
10.27664099214794
 10
-10.81211060996247
 20
10.30289142865322
 10
-10.94260141141998
 20
10.32857202145682
 10
-11.07319843120597
 20
10.35367591731819
 10
-11.20390009985364
 20
10.37819626299672
 10
-11.33470484789617
 20
10.40212620525186
 10
-11.46561110586676
 20
10.42545889084301
 10
-11.59661730429859
 20
10.44818746652961
 10
-11.72772187372485
 20
10.47030507907107
 10
-11.85892324467873
 20
10.49180487522682
 10
-11.99021984769342
 20
10.51268000175627
 10
-12.12161011330211
 20
10.53292360541886
 10
-12.25309247203799
 20
10.55252883297399
 10
-12.38466535443424
 20
10.5714888311811
 10
-12.51632719102407
 20
10.5897967467996
 10
-12.64807641234064
 20
10.60744572658892
 10
-12.77991144891717
 20
10.62442891730849
 10
-12.91183073128683
 20
10.64073946571771
 10
-13.04383268998281
 20
10.65637051857602
 10
-13.1759157555383
 20
10.67131522264283
 10
-13.3080783584865
 20
10.68556672467757
 10
-13.44031892936059
 20
10.69911817143967
 10
-13.57263589869376
 20
10.71196270968853
 10
-13.7050276970192
 20
10.72409348618359
 10
-13.8374927548701
 20
10.73550364768427
 10
-13.97002950277964
 20
10.74618634094998
 10
-14.10263637128103
 20
10.75613471274015
 10
-14.23531179090744
 20
10.76534190981421
 10
-14.36805419219207
 20
10.77380107893157
 10
-14.5008620056681
 20
10.78150536685166
 10
-14.63373366186873
 20
10.78844792033389
 10
-14.76666759132714
 20
10.7946218861377
 10
-14.76666759132714
 20
10.79462188613769
 10
-14.88747389217089
 20
10.79955228553593
 10
-15.00828870566441
 20
10.80382528526116
 10
-15.12910941181184
 20
10.80743748895608
 10
-15.24993339061733
 20
10.81038550026341
 10
-15.37075802208503
 20
10.81266592282585
 10
-15.49158068621907
 20
10.8142753602861
 10
-15.6123987630236
 20
10.81521041628686
 10
-15.73320963250277
 20
10.81546769447084
 10
-15.85401067466071
 20
10.81504379848075
 10
-15.97479926950158
 20
10.81393533195928
 10
-16.09557279702952
 20
10.81213889854915
 10
-16.21632863724866
 20
10.80965110189305
 10
-16.33706417016316
 20
10.8064685456337
 10
-16.45777677577716
 20
10.80258783341379
 10
-16.57846383409481
 20
10.79800556887603
 10
-16.69912272512024
 20
10.79271835566313
 10
-16.8197508288576
 20
10.78672279741778
 10
-16.94034552531104
 20
10.7800154977827
 10
-17.0609041944847
 20
10.77259306040059
 10
-17.18142421638272
 20
10.76445208891414
 10
-17.30190297100925
 20
10.75558918696607
 10
-17.42233783836843
 20
10.74600095819909
 10
-17.54272619846441
 20
10.73568400625588
 10
-17.66306543130133
 20
10.72463493477917
 10
-17.78335291688334
 20
10.71285034741165
 10
-17.78335291688334
 20
10.71285034741165
 10
-17.90552231556311
 20
10.70011357029094
 10
-18.02759968743793
 20
10.6866052725766
 10
-18.14958082863858
 20
10.67232588293566
 10
-18.27146153529584
 20
10.65727583003517
 10
-18.3932376035405
 20
10.64145554254214
 10
-18.51490482950335
 20
10.62486544912363
 10
-18.63645900931519
 20
10.60750597844665
 10
-18.75789593910679
 20
10.58937755917825
 10
-18.87921141500895
 20
10.57048061998547
 10
-19.00040123315245
 20
10.55081558953532
 10
-19.12146118966808
 20
10.53038289649486
 10
-19.24238708068663
 20
10.50918296953111
 10
-19.36317470233888
 20
10.4872162373111
 10
-19.48381985075563
 20
10.46448312850188
 10
-19.60431832206766
 20
10.44098407177048
 10
-19.72466591240575
 20
10.41671949578392
 10
-19.84485841790071
 20
10.39168982920925
 10
-19.96489163468331
 20
10.36589550071349
 10
-20.08476135888434
 20
10.33933693896369
 10
-20.20446338663459
 20
10.31201457262688
 10
-20.32399351406485
 20
10.28392883037009
 10
-20.4433475373059
 20
10.25508014086035
 10
-20.56252125248854
 20
10.2254689327647
 10
-20.68151045574355
 20
10.19509563475018
 10
-20.80031094320172
 20
10.16396067548382
 10
-20.80031094320172
 20
10.16396067548382
 10
-20.91664346955008
 20
10.13268579109488
 10
-21.03277230069416
 20
10.10068939297345
 10
-21.14869490711574
 20
10.06797590517112
 10
-21.26440875929664
 20
10.03454975173948
 10
-21.37991132771869
 20
10.00041535673013
 10
-21.49520008286367
 20
9.965577144194684
 10
-21.61027249521342
 20
9.930039538184718
 10
-21.72512603524973
 20
9.893806962751838
 10
-21.83975817345443
 20
9.85688384194764
 10
-21.95416638030931
 20
9.819274599823721
 10
-22.06834812629619
 20
9.780983660431678
 10
-22.18230088189689
 20
9.742015447823108
 10
-22.29602211759322
 20
9.70237438604961
 10
-22.40950930386698
 20
9.66206489916278
 10
-22.52275991119999
 20
9.621091411214216
 10
-22.63577141007405
 20
9.579458346255515
 10
-22.74854127097099
 20
9.537170128338273
 10
-22.8610669643726
 20
9.494231181514088
 10
-22.97334596076071
 20
9.450645929834557
 10
-23.08537573061713
 20
9.406418797351278
 10
-23.19715374442365
 20
9.361554208115848
 10
-23.30867747266211
 20
9.316056586179863
 10
-23.41994438581429
 20
9.269930355594922
 10
-23.53095195436203
 20
9.223179940412622
 10
-23.53095195436202
 20
9.223179940412626
 10
-23.64139706215518
 20
9.175932761271024
 10
-23.7515691804535
 20
9.128069917020459
 10
-23.86147071007042
 20
9.07960153610203
 10
-23.97110405181936
 20
9.030537746956838
 10
-24.08047160651377
 20
8.980888678025982
 10
-24.18957577496708
 20
8.930664457750561
 10
-24.29841895799272
 20
8.879875214571676
 10
-24.40700355640414
 20
8.828531076930426
 10
-24.51533197101477
 20
8.77664217326791
 10
-24.62340660263804
 20
8.72421863202523
 10
-24.7312298520874
 20
8.671270581643485
 10
-24.83880412017628
 20
8.617808150563774
 10
-24.94613180771811
 20
8.563841467227199
 10
-24.9461318077181
 20
8.563841467227204
 10
-25.05580132213053
 20
8.507967873902721
 10
-25.16513561107825
 20
8.451460332787835
 10
-25.2741461130426
 20
8.394343587195251
 10
-25.38284426650493
 20
8.336642380437673
 10
-25.49124150994658
 20
8.278381455827808
 10
-25.59934928184888
 20
8.21958555667836
 10
-25.70717902069318
 20
8.160279426302032
 10
-25.81474216496083
 20
8.100487808011532
 10
-25.92205015313318
 20
8.040235445119563
 10
-26.02911442369155
 20
7.97954708093883
 10
-26.1359464151173
 20
7.918447458782039
 10
-26.24255756589177
 20
7.856961321961894
 10
-26.3489593144963
 20
7.7951134137911
  0
LWPOLYLINE
  5
24C
330
1F
100
AcDbEntity
  8
Vector Layer 1
 62
    18
420
        0
370
    30
100
AcDbPolyline
 90
      593
 70
     0
 43
0.0
 10
65.18686854436916
 20
-8.246021804312317
 10
65.17566143767137
 20
-8.254068552510721
 10
65.17566143767137
 20
-8.254068552510721
 10
65.10206756250585
 20
-8.303836310780752
 10
65.02821509195908
 20
-8.353214712419426
 10
64.95409215124979
 20
-8.402180211120507
 10
64.87968686559674
 20
-8.450709260577765
 10
64.80498736021864
 20
-8.498778314484965
 10
64.72998176033425
 20
-8.546363826535875
 10
64.65465819116229
 20
-8.593442250424262
 10
64.57900477792151
 20
-8.63999003984389
 10
64.50300964583064
 20
-8.68598364848853
 10
64.42666092010843
 20
-8.731399530051946
 10
64.34994672597361
 20
-8.776214138227906
 10
64.27285518864493
 20
-8.820403926710179
 10
64.19537443334111
 20
-8.863945349192528
 10
64.1953744333411
 20
-8.863945349192526
 10
64.11091030231644
 20
-8.910572439245617
 10
64.02616350406339
 20
-8.956639977889521
 10
63.941132189103
 20
-9.002142936086293
 10
63.85581450795632
 20
-9.047076284797993
 10
63.77020861114439
 20
-9.091434994986677
 10
63.68431264918826
 20
-9.135214037614399
 10
63.59812477260899
 20
-9.178408383643221
 10
63.51164313192763
 20
-9.221013004035196
 10
63.42486587766522
 20
-9.263022869752381
 10
63.33779116034282
 20
-9.304432951756835
 10
63.25041713048147
 20
-9.345238221010614
 10
63.16274193860223
 20
-9.385433648475775
 10
63.07476373522614
 20
-9.425014205114374
 10
62.98648067087426
 20
-9.46397486188847
 10
62.98648067087426
 20
-9.46397486188847
 10
62.88478807005432
 20
-9.507987999677517
 10
62.78280740794482
 20
-9.551272405339497
 10
62.68054345051879
 20
-9.593832099202252
 10
62.57800096374936
 20
-9.63567110159362
 10
62.47518471360956
 20
-9.676793432841442
 10
62.37209946607251
 20
-9.717203113273555
 10
62.26874998711125
 20
-9.7569041632178
 10
62.1651410426989
 20
-9.795900603002017
 10
62.06127739880851
 20
-9.834196452954046
 10
61.95716382141316
 20
-9.871795733401725
 10
61.85280507648595
 20
-9.908702464672895
 10
61.74820592999994
 20
-9.944920667095395
 10
61.64337114792822
 20
-9.980454360997066
 10
61.53830549624385
 20
-10.01530756670574
 10
61.43301374091993
 20
-10.04948430454927
 10
61.32750064792954
 20
-10.08298859485549
 10
61.22177098324574
 20
-10.11582445795224
 10
61.11582951284163
 20
-10.14799591416735
 10
61.00968100269028
 20
-10.17950698382867
 10
60.90333021876476
 20
-10.21036168726404
 10
60.79678192703816
 20
-10.2405640448013
 10
60.69004089348356
 20
-10.27011807676828
 10
60.58311188407404
 20
-10.29902780349283
 10
60.47599966478266
 20
-10.32729724530278
 10
60.36870900158252
 20
-10.35493042252598
 10
60.2612446604467
 20
-10.38193135549027
 10
60.15361140734826
 20
-10.40830406452347
 10
60.15361140734826
 20
-10.40830406452348
 10
60.02991573015012
 20
-10.43782620665341
 10
59.90606163258233
 20
-10.46658295098058
 10
59.78205290406769
 20
-10.4945790597253
 10
59.65789333402899
 20
-10.52181929510789
 10
59.53358671188901
 20
-10.54830841934866
 10
59.40913682707055
 20
-10.57405119466794
 10
59.28454746899638
 20
-10.59905238328604
 10
59.15982242708929
 20
-10.62331674742328
 10
59.03496549077209
 20
-10.64684904929997
 10
58.90998044946754
 20
-10.66965405113643
 10
58.78487109259843
 20
-10.69173651515298
 10
58.65964120958756
 20
-10.71310120356994
 10
58.53429458985771
 20
-10.73375287860761
 10
58.40883502283165
 20
-10.75369630248633
 10
58.2832662979322
 20
-10.77293623742641
 10
58.15759220458214
 20
-10.79147744564815
 10
58.03181653220423
 20
-10.80932468937189
 10
57.90594307022129
 20
-10.82648273081794
 10
57.77997560805608
 20
-10.84295633220661
 10
57.65391793513139
 20
-10.85875025575823
 10
57.52777384087004
 20
-10.8738692636931
 10
57.40154711469477
 20
-10.88831811823155
 10
57.27524154602839
 20
-10.90210158159389
 10
57.1488609242937
 20
-10.91522441600045
 10
57.02240903891347
 20
-10.92769138367153
 10
56.89588967931048
 20
-10.93950724682745
 10
56.76930663490754
 20
-10.95067676768854
 10
56.64266369512741
 20
-10.9612047084751
 10
56.51596464939291
 20
-10.97109583140746
 10
56.3892132871268
 20
-10.98035489870594
 10
56.26241339775186
 20
-10.98898667259084
 10
56.13556877069091
 20
-10.99699591528249
 10
56.00868319536671
 20
-11.00438738900121
 10
55.88176046120207
 20
-11.0111658559673
 10
55.75480435761974
 20
-11.0173360784011
 10
55.62781867404255
 20
-11.02290281852291
 10
55.50080719989326
 20
-11.02787083855305
 10
55.37377372459467
 20
-11.03224490071184
 10
55.24672203756955
 20
-11.03602976721959
 10
55.1196559282407
 20
-11.03923020029664
 10
54.99257918603091
 20
-11.04185096216328
 10
54.86549560036296
 20
-11.04389681503983
 10
54.73840896065964
 20
-11.04537252114663
 10
54.61132305634373
 20
-11.04628284270397
 10
54.48424167683803
 20
-11.04663254193219
 10
54.35716861156532
 20
-11.04642638105159
 10
54.23010764994838
 20
-11.04566912228249
 10
54.10306258141002
 20
-11.04436552784521
 10
53.976037195373
 20
-11.04252035996007
 10
53.976037195373
 20
-11.04252035996006
 10
53.82630664259253
 20
-11.03964599413001
 10
53.67657225425554
 20
-11.03600952997954
 10
53.52683854501044
 20
-11.03161353475968
 10
53.37711002950568
 20
-11.02646057572146
 10
53.22739122238969
 20
-11.0205532201159
 10
53.07768663831091
 20
-11.01389403519406
 10
52.92800079191778
 20
-11.00648558820695
 10
52.77833819785873
 20
-10.9983304464056
 10
52.62870337078219
 20
-10.98943117704105
 10
52.47910082533662
 20
-10.97979034736433
 10
52.32953507617043
 20
-10.96941052462646
 10
52.18001063793209
 20
-10.95829427607849
 10
52.03053202526999
 20
-10.94644416897144
 10
51.8811037528326
 20
-10.93386277055635
 10
51.73173033526835
 20
-10.92055264808424
 10
51.58241628722567
 20
-10.90651636880614
 10
51.43316612335301
 20
-10.89175649997309
 10
51.28398435829879
 20
-10.87627560883612
 10
51.13487550671146
 20
-10.86007626264626
 10
50.98584408323945
 20
-10.84316102865454
 10
50.83689460253119
 20
-10.825532474112
 10
50.68803157923513
 20
-10.80719316626965
 10
50.5392595279997
 20
-10.78814567237855
 10
50.39058296347333
 20
-10.7683925596897
 10
50.24200640030446
 20
-10.74793639545416
 10
50.09353435314153
 20
-10.72677974692294
 10
49.94517133663299
 20
-10.70492518134709
 10
49.79692186542725
 20
-10.68237526597762
 10
49.64879045417276
 20
-10.65913256806558
 10
49.50078161751796
 20
-10.63519965486199
 10
49.35289987011127
 20
-10.61057909361789
 10
49.20514972660116
 20
-10.5852734515843
 10
49.05753570163604
 20
-10.55928529601226
 10
48.91006230986435
 20
-10.5326171941528
 10
48.76273406593452
 20
-10.50527171325695
 10
48.615555484495
 20
-10.47725142057574
 10
48.46853108019423
 20
-10.44855888336021
 10
48.32166536768062
 20
-10.41919666886137
 10
48.32166536768063
 20
-10.41919666886137
 10
48.17503444504854
 20
-10.38916445281836
 10
48.02851685964574
 20
-10.35842022227198
 10
47.88211939682025
 20
-10.32696442085756
 10
47.73584884192013
 20
-10.29479749221041
 10
47.58971198029338
 20
-10.26191987996588
 10
47.44371559728807
 20
-10.22833202775929
 10
47.2978664782522
 20
-10.19403437922596
 10
47.15217140853383
 20
-10.15902737800122
 10
47.00663717348098
 20
-10.1233114677204
 10
46.86127055844169
 20
-10.08688709201883
 10
46.71607834876398
 20
-10.04975469453182
 10
46.5710673297959
 20
-10.01191471889472
 10
46.42624428688548
 20
-9.973367608742851
 10
46.28161600538074
 20
-9.934113807711531
 10
46.13718927062974
 20
-9.894153759436091
 10
45.99297086798048
 20
-9.85348790755186
 10
45.84896758278103
 20
-9.812116695694165
 10
45.70518620037939
 20
-9.770040567498332
 10
45.56163350612361
 20
-9.727259966599689
 10
45.41831628536174
 20
-9.683775336633562
 10
45.27524132344178
 20
-9.63958712123528
 10
45.13241540571179
 20
-9.594695764040167
 10
45.1324154057118
 20
-9.594695764040165
 10
45.00144404856303
 20
-9.552816612621722
 10
44.87064024199539
 20
-9.510282338242491
 10
44.74001483253029
 20
-9.46709800576011
 10
44.60957866668916
 20
-9.423268680032212
 10
44.47934259099342
 20
-9.378799425916431
 10
44.3493174519645
 20
-9.333695308270403
 10
44.2195140961238
 20
-9.287961391951764
 10
44.08994336999277
 20
-9.241602741818146
 10
43.96061612009281
 20
-9.194624422727187
 10
43.83154319294535
 20
-9.14703149953652
 10
43.70273543507182
 20
-9.098829037103779
 10
43.70273543507184
 20
-9.098829037103779
 10
43.5867922643137
 20
-9.054764538717149
 10
43.47104605525197
 20
-9.010091595288372
 10
43.35549525230504
 20
-8.964857170575148
 10
43.24013829989129
 20
-8.919108228335183
 10
43.1249736424291
 20
-8.872891732326177
 10
43.00999972433684
 20
-8.826254646305836
 10
43.00999972433685
 20
-8.826254646305836
 10
42.90394680772779
 20
-8.782636370896186
 10
42.79815243129101
 20
-8.73839654605794
 10
42.69259541955044
 20
-8.693590001353511
 10
42.58725459703
 20
-8.64827156634532
 10
42.48210878825359
 20
-8.602496070595783
 10
42.37713681774514
 20
-8.556318343667317
 10
42.27231751002856
 20
-8.509793215122341
 10
42.16762968962778
 20
-8.462975514523272
 10
42.16762968962779
 20
-8.46297551452327
 10
42.0436336838815
 20
-8.406048229507261
 10
41.91975363472205
 20
-8.348870462542498
 10
41.79603263875811
 20
-8.291352725609256
 10
41.6725137925984
 20
-8.233405530687809
 10
41.54924019285163
 20
-8.174939389758433
 10
41.4262549361265
 20
-8.115864814801403
 10
41.4262549361265
 20
-8.115864814801403
 10
41.29846715331364
 20
-8.05369443978477
 10
41.17096508942108
 20
-7.990934112784429
 10
41.04375436148528
 20
-7.927580913677006
 10
40.9168405865427
 20
-7.863631922339123
 10
40.7902293816298
 20
-7.799084218647403
 10
40.66392636378302
 20
-7.733934882478471
 10
40.53793715003884
 20
-7.66818099370895
 10
40.41226735743371
 20
-7.601819632215462
 10
40.28692260300407
 20
-7.534847877874634
 10
40.1619085037864
 20
-7.467262810563086
 10
40.03723067681714
 20
-7.399061510157444
 10
39.91289473913277
 20
-7.330241056534331
 10
39.78890630776972
 20
-7.26079852957037
 10
39.66527099976447
 20
-7.190731009142185
 10
39.54199443215346
 20
-7.120035575126399
 10
39.41908222197316
 20
-7.048709307399636
 10
39.29653998626001
 20
-6.97674928583852
 10
39.17437334205049
 20
-6.904152590319674
 10
39.05258790638104
 20
-6.830916300719722
 10
38.93118929628812
 20
-6.757037496915287
 10
38.81018312880819
 20
-6.682513258782992
 10
38.6895750209777
 20
-6.607340666199462
 10
38.56937058983311
 20
-6.53151679904132
 10
38.44957545241089
 20
-6.455038737185189
 10
38.33019522574748
 20
-6.377903560507693
 10
38.21123552687935
 20
-6.300108348885456
 10
38.21123552687937
 20
-6.300108348885452
 10
38.09529260873621
 20
-6.223364903693624
 10
37.97978193464429
 20
-6.145982421016265
 10
37.86470536586564
 20
-6.067964406752681
 10
37.75006476366228
 20
-5.989314366802179
 10
37.63586198929621
 20
-5.910035807064069
 10
37.52209890402948
 20
-5.830132233437657
 10
37.40877736912409
 20
-5.74960715182225
 10
37.29589924584207
 20
-5.668464068117157
 10
37.18346639544544
 20
-5.586706488221684
 10
37.07148067919623
 20
-5.504337918035139
 10
36.95994395835644
 20
-5.42136186345683
 10
36.84885809418811
 20
-5.337781830386064
 10
36.73822494795325
 20
-5.253601324722149
 10
36.62804638091388
 20
-5.168823852364392
 10
36.51832425433202
 20
-5.0834529192121
 10
36.40906042946971
 20
-4.997492031164581
 10
36.30025676758894
 20
-4.910944694121143
 10
36.19191512995175
 20
-4.823814413981093
 10
36.08403737782016
 20
-4.736104696643738
 10
35.97662537245618
 20
-4.647819048008386
 10
35.86968097512185
 20
-4.558960973974345
 10
35.76320604707917
 20
-4.469533980440922
 10
35.65720244959017
 20
-4.379541573307424
 10
35.65720244959017
 20
-4.379541573307422
 10
35.55090619248723
 20
-4.288320048500641
 10
35.44510330928094
 20
-4.196540012227537
 10
35.33978568380142
 20
-4.104213468153589
 10
35.23494519987879
 20
-4.011352419944274
 10
35.13057374134318
 20
-3.917968871265069
 10
35.02666319202473
 20
-3.824074825781452
 10
34.92320543575355
 20
-3.729682287158901
 10
34.82019235635976
 20
-3.634803259062892
 10
34.71761583767351
 20
-3.539449745158903
 10
34.6154677635249
 20
-3.443633749112413
 10
34.51374001774408
 20
-3.347367274588897
 10
34.41242448416116
 20
-3.250662325253834
 10
34.31151304660627
 20
-3.153530904772702
 10
34.21099758890953
 20
-3.055985016810977
 10
34.11086999490108
 20
-2.958036665034137
 10
34.01112214841102
 20
-2.85969785310766
 10
33.9117459332695
 20
-2.760980584697023
 10
33.81273323330664
 20
-2.661896863467703
 10
33.71407593235256
 20
-2.562458693085178
 10
33.61576591423739
 20
-2.462678077214926
 10
33.51779506279125
 20
-2.362567019522424
 10
33.42015526184428
 20
-2.26213752367315
 10
33.32283839522659
 20
-2.16140159333258
 10
33.22583634676832
 20
-2.060371232166193
 10
33.12914100029959
 20
-1.959058443839465
 10
33.03274423965051
 20
-1.857475232017875
 10
33.03274423965052
 20
-1.857475232017875
 10
32.92447050413102
 20
-1.742750230061394
 10
32.81648098256908
 20
-1.627749706390426
 10
32.70875123110212
 20
-1.512497294315571
 10
32.60125680586754
 20
-1.397016627147429
 10
32.49397326300276
 20
-1.281331338196601
 10
32.38687615864519
 20
-1.165465060773687
 10
32.27994104893226
 20
-1.049441428189288
 10
32.17314349000136
 20
-0.9332840737540045
 10
32.06645903798992
 20
-0.8170166307784361
 10
31.95986324903534
 20
-0.7006627325731836
 10
31.85333167927503
 20
-0.5842460124488475
 10
31.74683988484642
 20
-0.4677901037160283
 10
31.64036342188692
 20
-0.3513186396853262
 10
31.53387784653393
 20
-0.234855253667342
 10
31.42735871492487
 20
-0.1184235789726759
 10
31.32078158319715
 20
-0.0020472489119285
 10
31.21412200748818
 20
0.1142501032043
 10
31.10735554393539
 20
0.230444844065409
 10
31.00045774867617
 20
0.3465133403607981
 10
30.89340417784795
 20
0.4624319587798669
 10
30.78617038758814
 20
0.5781770660120148
 10
30.67873193403415
 20
0.6937250287466416
 10
30.57106437332339
 20
0.8090522136731467
 10
30.46314326159328
 20
0.9241349874809298
 10
30.35494415498122
 20
1.03894971685939
 10
30.24644260962463
 20
1.153472768497928
 10
30.13761418166093
 20
1.267680509085942
 10
30.02843442722753
 20
1.381549305312832
 10
29.91887890246184
 20
1.495055523867998
 10
29.80892316350127
 20
1.608175531440839
 10
29.69854276648323
 20
1.720885694720756
 10
29.58771326754515
 20
1.833162380397147
 10
29.47641022282443
 20
1.944981955159411
 10
29.36460918845849
 20
2.05632078569695
 10
29.25228572058473
 20
2.167155238699161
 10
29.13941537534057
 20
2.277461680855445
 10
29.13941537534057
 20
2.277461680855445
 10
29.04416707431146
 20
2.369704031221183
 10
28.94853902577361
 20
2.461543151000814
 10
28.8525264994687
 20
2.552970352218918
 10
28.7561247651384
 20
2.643976946900076
 10
28.6593290925244
 20
2.734554247068865
 10
28.56213475136836
 20
2.824693564749867
 10
28.46453701141197
 20
2.91438621196766
 10
28.36653114239691
 20
3.003623500746825
 10
28.26811241406485
 20
3.092396743111941
 10
28.16927609615746
 20
3.180697251087587
 10
28.07001745841643
 20
3.268516336698343
 10
27.97033177058343
 20
3.355845311968789
 10
27.87021430240014
 20
3.442675488923505
 10
27.76966032360823
 20
3.528998179587069
 10
27.66866510394939
 20
3.614804695984061
 10
27.56722391316529
 20
3.700086350139062
 10
27.4653320209976
 20
3.784834454076651
 10
27.36298469718802
 20
3.869040319821407
 10
27.2601772114782
 20
3.95269525939791
 10
27.15690483360983
 20
4.035790584830739
 10
27.05316283332458
 20
4.118317608144475
 10
26.94894648036414
 20
4.200267641363696
 10
26.94894648036413
 20
4.200267641363695
 10
26.84217311512855
 20
4.2832480842675
 10
26.73493492245108
 20
4.365611975760366
 10
26.6272354642231
 20
4.447358182791762
 10
26.51907830233597
 20
4.528485572311157
 10
26.41046699868108
 20
4.608993011268019
 10
26.30140511514978
 20
4.688879366611817
 10
26.19189621363345
 20
4.76814350529202
 10
26.08194385602347
 20
4.846784294258096
 10
25.97155160421122
 20
4.924800600459515
 10
25.86072302008804
 20
5.002191290845744
 10
25.74946166554533
 20
5.078955232366253
 10
25.63777110247444
 20
5.15509129197051
 10
25.52565489276676
 20
5.230598336607984
 10
25.41311659831365
 20
5.305475233228143
 10
25.30015978100649
 20
5.379720848780457
 10
25.18678800273665
 20
5.453334050214393
 10
25.0730048253955
 20
5.526313704479421
 10
24.95881381087441
 20
5.598658678525009
 10
24.84421852106475
 20
5.670367839300626
 10
24.7292225178579
 20
5.741440053755741
 10
24.61382936314523
 20
5.811874188839821
 10
24.4980426188181
 20
5.881669111502336
 10
24.3818658467679
 20
5.950823688692755
 10
24.26530260888598
 20
6.019336787360547
 10
24.26530260888597
 20
6.019336787360545
 10
24.15314284904965
 20
6.084443010438453
 10
24.04065342975094
 20
6.148947942032311
 10
23.92784071239514
 20
6.212862222754109
 10
23.81471105838758
 20
6.276196493215835
 10
23.70127082913353
 20
6.338961394029478
 10
23.58752638603831
 20
6.401167565807025
 10
23.47348409050722
 20
6.462825649160464
 10
23.35915030394557
 20
6.523946284701784
 10
23.24453138775865
 20
6.584540113042972
 10
23.12963370335177
 20
6.644617774796017
 10
23.01446361213022
 20
6.704189910572907
 10
22.89902747549932
 20
6.76326716098563
 10
22.78333165486436
 20
6.821860166646173
 10
22.78333165486436
 20
6.821860166646173
 10
22.66581614022219
 20
6.880646203789213
 10
22.54798607195545
 20
6.93876816328947
 10
22.42985339792091
 20
6.996248727704668
 10
22.31143006597532
 20
7.053110579592532
 10
22.19272802397544
 20
7.109376401510787
 10
22.07375921977804
 20
7.165068876017159
 10
21.95453560123986
 20
7.220210685669371
 10
21.83506911621769
 20
7.27482451302515
 10
21.71537171256825
 20
7.328933040642221
 10
21.59545533814833
 20
7.382558951078308
 10
21.47533194081468
 20
7.435724926891135
 10
21.35501346842405
 20
7.48845365063843
 10
21.23451186883322
 20
7.540767804877915
 10
21.11383908989893
 20
7.592690072167316
 10
20.99300707947794
 20
7.64424313506436
 10
20.87202778542703
 20
7.695449676126769
 10
20.87202778542703
 20
7.695449676126769
 10
20.71438138138711
 20
7.760617197565215
 10
20.55660811890647
 20
7.82551332580483
 10
20.39869876638261
 20
7.890093866920783
 10
20.24064409221304
 20
7.954314626988245
 10
20.08243486479528
 20
8.018131412082386
 10
19.92406185252681
 20
8.081500028278377
 10
19.76551582380515
 20
8.144376281651387
 10
19.60678754702781
 20
8.206715978276589
 10
19.4478677905923
 20
8.268474924229151
 10
19.4478677905923
 20
8.268474924229151
 10
19.28475176999066
 20
8.33123463652674
 10
19.12142035782239
 20
8.393514446136324
 10
18.95787454371457
 20
8.455302099508738
 10
18.79411531729427
 20
8.516585343094821
 10
18.63014366818856
 20
8.577351923345405
 10
18.46596058602452
 20
8.63758958671133
 10
18.30156706042923
 20
8.697286079643431
 10
18.13696408102975
 20
8.756429148592545
 10
17.97215263745316
 20
8.815006540009507
 10
17.80713371932654
 20
8.873006000345156
 10
17.64190831627695
 20
8.930415276050327
 10
17.47647741793147
 20
8.987222113575855
 10
17.31084201391718
 20
9.043414259372577
 10
17.14500309386115
 20
9.09897945989133
 10
16.97896164739045
 20
9.153905461582949
 10
16.81271866413216
 20
9.208180010898272
 10
16.64627513371334
 20
9.261790854288134
 10
16.47963204576108
 20
9.314725738203373
 10
16.31279038990245
 20
9.366972409094824
 10
16.14575115576452
 20
9.418518613413322
 10
15.97851533297436
 20
9.469352097609705
 10
15.81108391115905
 20
9.51946060813481
 10
15.64345787994567
 20
9.568831891439472
 10
15.64345787994566
 20
9.568831891439476
 10
15.5158432728831
 20
9.605885019515238
 10
15.38808634975539
 20
9.642519075182047
 10
15.26018868002937
 20
9.678727205199324
 10
15.13215183317184
 20
9.714502556326491
 10
15.0039773786496
 20
9.749838275322971
 10
14.87566688592947
 20
9.784727508948186
 10
14.74722192447827
 20
9.819163403961558
 10
14.61864406376279
 20
9.85313910712251
 10
14.48993487324986
 20
9.886647765190462
 10
14.36109592240628
 20
9.919682524924835
 10
14.23212878069886
 20
9.952236533085056
 10
14.10303501759442
 20
9.984302936430543
 10
13.97381620255976
 20
10.01587488172072
 10
13.8444739050617
 20
10.046945515715
 10
13.71500969456705
 20
10.07750798517282
 10
13.58542514054261
 20
10.1075554368536
 10
13.45572181245521
 20
10.13708101751675
 10
13.32590127977164
 20
10.1660778739217
 10
13.19596511195872
 20
10.19453915282787
 10
13.06591487848326
 20
10.22245800099469
 10
12.93575214881207
 20
10.24982756518157
 10
12.80547849241197
 20
10.27664099214794
 10
12.67509547874976
 20
10.30289142865322
 10
12.54460467729225
 20
10.32857202145682
 10
12.41400765750625
 20
10.35367591731819
 10
12.28330598885859
 20
10.37819626299672
 10
12.15250124081605
 20
10.40212620525186
 10
12.02159498284547
 20
10.42545889084301
 10
11.89058878441364
 20
10.44818746652961
 10
11.75948421498738
 20
10.47030507907107
 10
11.6282828440335
 20
10.49180487522682
 10
11.49698624101881
 20
10.51268000175627
 10
11.36559597541012
 20
10.53292360541886
 10
11.23411361667424
 20
10.55252883297399
 10
11.10254073427798
 20
10.5714888311811
 10
10.97087889768816
 20
10.5897967467996
 10
10.83912967637158
 20
10.60744572658892
 10
10.70729463979505
 20
10.62442891730849
 10
10.5753753574254
 20
10.64073946571771
 10
10.44337339872941
 20
10.65637051857602
 10
10.31129033317391
 20
10.67131522264283
 10
10.17912773022572
 20
10.68556672467757
 10
10.04688715935162
 20
10.69911817143967
 10
9.914570190018455
 20
10.71196270968853
 10
9.782178391693014
 20
10.72409348618359
 10
9.649713333842113
 20
10.73550364768427
 10
9.517176585932563
 20
10.74618634094998
 10
9.384569717431176
 20
10.75613471274015
 10
9.251894297804762
 20
10.76534190981421
 10
9.119151896520131
 20
10.77380107893157
 10
8.986344083044096
 20
10.78150536685166
 10
8.853472426843467
 20
10.78844792033389
 10
8.720538497385053
 20
10.7946218861377
 10
8.720538497385051
 20
10.79462188613769
 10
8.599732196541348
 20
10.79955228553593
 10
8.478917383047868
 20
10.80382528526116
 10
8.358096676900467
 20
10.80743748895608
 10
8.237272698095003
 20
10.81038550026341
 10
8.116448066627331
 20
10.81266592282585
 10
7.995625402493308
 20
10.8142753602861
 10
7.87480732568879
 20
10.81521041628686
 10
7.753996456209633
 20
10.81546769447084
 10
7.633195414051693
 20
10.81504379848075
 10
7.512406819210827
 20
10.81393533195928
 10
7.391633291682891
 20
10.81213889854915
 10
7.270877451463741
 20
10.80965110189305
 10
7.150141918549233
 20
10.8064685456337
 10
7.029429312935224
 20
10.80258783341379
 10
6.908742254617569
 20
10.79800556887603
 10
6.788083363592126
 20
10.79271835566313
 10
6.66745525985475
 20
10.78672279741778
 10
6.546860563401297
 20
10.7800154977827
 10
6.426301894227624
 20
10.77259306040059
 10
6.305781872329587
 20
10.76445208891414
 10
6.185303117703043
 20
10.75558918696607
 10
6.064868250343846
 20
10.74600095819909
 10
5.944479890247855
 20
10.73568400625588
 10
5.824140657410924
 20
10.72463493477917
 10
5.703853171828911
 20
10.71285034741165
 10
5.70385317182891
 20
10.71285034741165
 10
5.581683773149135
 20
10.70011357029094
 10
5.459606401274321
 20
10.6866052725766
 10
5.337625260073679
 20
10.67232588293566
 10
5.215744553416421
 20
10.65727583003517
 10
5.093968485171759
 20
10.64145554254214
 10
4.972301259208907
 20
10.62486544912363
 10
4.850747079397076
 20
10.60750597844665
 10
4.729310149605479
 20
10.58937755917825
 10
4.607994673703327
 20
10.57048061998547
 10
4.486804855559833
 20
10.55081558953532
 10
4.36574489904421
 20
10.53038289649486
 10
4.24481900802567
 20
10.50918296953111
 10
4.124031386373424
 20
10.4872162373111
 10
4.003386237956685
 20
10.46448312850188
 10
3.882887766644665
 20
10.44098407177048
 10
3.762540176306577
 20
10.41671949578392
 10
3.642347670811633
 20
10.39168982920925
 10
3.522314454029045
 20
10.36589550071349
 10
3.402444729828025
 20
10.33933693896369
 10
3.282742702077785
 20
10.31201457262688
 10
3.163212574647538
 20
10.28392883037009
 10
3.043858551406496
 20
10.25508014086035
 10
2.924684836223871
 20
10.2254689327647
 10
2.805695632968877
 20
10.19509563475018
 10
2.686895145510723
 20
10.16396067548382
 10
2.686895145510725
 20
10.16396067548382
 10
2.570562619162358
 20
10.13268579109488
 10
2.454433788018289
 20
10.10068939297345
 10
2.338511181596708
 20
10.06797590517112
 10
2.222797329415802
 20
10.03454975173948
 10
2.107294760993762
 20
10.00041535673013
 10
1.992006005848774
 20
9.965577144194684
 10
1.876933593499029
 20
9.930039538184718
 10
1.762080053462715
 20
9.893806962751838
 10
1.64744791525802
 20
9.85688384194764
 10
1.533039708403133
 20
9.819274599823721
 10
1.418857962416244
 20
9.780983660431678
 10
1.304905206815541
 20
9.742015447823108
 10
1.191183971119212
 20
9.70237438604961
 10
1.077696784845447
 20
9.66206489916278
 10
0.9644461775124343
 20
9.621091411214216
 10
0.8514346786383622
 20
9.579458346255515
 10
0.7386648177414199
 20
9.537170128338273
 10
0.6261391243397961
 20
9.494231181514088
 10
0.5138601279516794
 20
9.450645929834557
 10
0.4018303580952586
 20
9.406418797351278
 10
0.2900523442887226
 20
9.361554208115848
 10
0.1785286160502601
 20
9.316056586179863
 10
0.0672617028980598
 20
9.269930355594922
 10
-0.0437458656496895
 20
9.223179940412622
 10
-0.0437458656496905
 20
9.223179940412626
 10
-0.1541909734428761
 20
9.175932761271024
 10
-0.2643630917412129
 20
9.128069917020459
 10
-0.3742646213581374
 20
9.07960153610203
 10
-0.4838979631070859
 20
9.030537746956838
 10
-0.5932655178014949
 20
8.980888678025982
 10
-0.7023696862548007
 20
8.930664457750561
 10
-0.8112128692804398
 20
8.879875214571676
 10
-0.9197974676918487
 20
8.828531076930426
 10
-1.028125882302463
 20
8.77664217326791
 10
-1.136200513925721
 20
8.72421863202523
 10
-1.244023763375058
 20
8.671270581643485
 10
-1.35159803146391
 20
8.617808150563774
 10
-1.458925719005714
 20
8.563841467227199
 10
-1.458925719005713
 20
8.563841467227204
 10
-1.568595233418139
 20
8.507967873902721
 10
-1.677929522365857
 20
8.451460332787835
 10
-1.786940024330212
 20
8.394343587195251
 10
-1.895638177792543
 20
8.336642380437673
 10
-2.004035421234195
 20
8.278381455827808
 10
-2.112143193136508
 20
8.21958555667836
 10
-2.219972931980825
 20
8.160279426302032
 10
-2.327536076248488
 20
8.100487808011532
 10
-2.434844064420838
 20
8.040235445119563
 10
-2.541908334979218
 20
7.97954708093883
 10
-2.64874032640497
 20
7.918447458782039
 10
-2.755351477179436
 20
7.856961321961894
 10
-2.861753225783957
 20
7.7951134137911
  0
LWPOLYLINE
  5
24D
330
1F
100
AcDbEntity
  8
Vector Layer 1
 62
    18
420
        0
370
    30
100
AcDbPolyline
 90
      196
 70
     0
 43
0.0
 10
28.76195581048009
 20
-8.246021804312317
 10
28.77316291717762
 20
-8.254068552510721
 10
28.77316291717762
 20
-8.254068552510721
 10
28.84675679234319
 20
-8.303836310780752
 10
28.92060926288999
 20
-8.353214712419426
 10
28.9947322035993
 20
-8.402180211120507
 10
29.06913748925236
 20
-8.450709260577765
 10
29.14383699463046
 20
-8.498778314484965
 10
29.21884259451484
 20
-8.546363826535875
 10
29.29416616368677
 20
-8.593442250424262
 10
29.36981957692752
 20
-8.63999003984389
 10
29.44581470901836
 20
-8.68598364848853
 10
29.52216343474053
 20
-8.731399530051946
 10
29.59887762887531
 20
-8.776214138227906
 10
29.67596916620395
 20
-8.820403926710179
 10
29.75344992150773
 20
-8.863945349192528
 10
29.75344992150773
 20
-8.863945349192526
 10
29.83791405253242
 20
-8.910572439245617
 10
29.9226608507855
 20
-8.956639977889521
 10
30.00769216574592
 20
-9.002142936086293
 10
30.09300984689263
 20
-9.047076284797993
 10
30.17861574370459
 20
-9.091434994986677
 10
30.26451170566075
 20
-9.135214037614399
 10
30.35069958224004
 20
-9.178408383643221
 10
30.43718122292142
 20
-9.221013004035196
 10
30.52395847718385
 20
-9.263022869752381
 10
30.61103319450627
 20
-9.304432951756835
 10
30.69840722436764
 20
-9.345238221010614
 10
30.78608241624689
 20
-9.385433648475775
 10
30.87406061962299
 20
-9.425014205114374
 10
30.96234368397488
 20
-9.46397486188847
 10
30.96234368397488
 20
-9.46397486188847
 10
31.06403628479482
 20
-9.507987999677517
 10
31.16601694690434
 20
-9.551272405339497
 10
31.26828090433036
 20
-9.593832099202252
 10
31.37082339109981
 20
-9.63567110159362
 10
31.4736396412396
 20
-9.676793432841442
 10
31.57672488877666
 20
-9.717203113273555
 10
31.68007436773791
 20
-9.7569041632178
 10
31.78368331215026
 20
-9.795900603002017
 10
31.88754695604065
 20
-9.834196452954046
 10
31.99166053343599
 20
-9.871795733401725
 10
32.09601927836319
 20
-9.908702464672895
 10
32.2006184248492
 20
-9.944920667095395
 10
32.30545320692092
 20
-9.980454360997066
 10
32.41051885860527
 20
-10.01530756670574
 10
32.51581061392919
 20
-10.04948430454927
 10
32.62132370691958
 20
-10.08298859485549
 10
32.72705337160336
 20
-10.11582445795224
 10
32.83299484200747
 20
-10.14799591416735
 10
32.93914335215883
 20
-10.17950698382867
 10
33.04549413608434
 20
-10.21036168726404
 10
33.15204242781093
 20
-10.2405640448013
 10
33.25878346136554
 20
-10.27011807676828
 10
33.36571247077507
 20
-10.29902780349283
 10
33.47282469006644
 20
-10.32729724530278
 10
33.58011535326659
 20
-10.35493042252598
 10
33.68757969440242
 20
-10.38193135549027
 10
33.79521294750087
 20
-10.40830406452347
 10
33.79521294750087
 20
-10.40830406452348
 10
33.91890862469902
 20
-10.43782620665341
 10
34.04276272226681
 20
-10.46658295098058
 10
34.16677145078146
 20
-10.4945790597253
 10
34.29093102082017
 20
-10.52181929510789
 10
34.41523764296015
 20
-10.54830841934866
 10
34.53968752777863
 20
-10.57405119466794
 10
34.6642768858528
 20
-10.59905238328604
 10
34.78900192775989
 20
-10.62331674742328
 10
34.91385886407711
 20
-10.64684904929997
 10
35.03884390538166
 20
-10.66965405113643
 10
35.16395326225077
 20
-10.69173651515298
 10
35.28918314526166
 20
-10.71310120356994
 10
35.41452976499151
 20
-10.73375287860761
 10
35.53998933201756
 20
-10.75369630248633
 10
35.66555805691702
 20
-10.77293623742641
 10
35.7912321502671
 20
-10.79147744564815
 10
35.91700782264501
 20
-10.80932468937189
 10
36.04288128462796
 20
-10.82648273081794
 10
36.16884874679318
 20
-10.84295633220661
 10
36.29490641971786
 20
-10.85875025575823
 10
36.42105051397923
 20
-10.8738692636931
 10
36.54727724015449
 20
-10.88831811823155
 10
36.67358280882086
 20
-10.90210158159389
 10
36.79996343055556
 20
-10.91522441600045
 10
36.92641531593579
 20
-10.92769138367153
 10
37.05293467553878
 20
-10.93950724682745
 10
37.17951771994173
 20
-10.95067676768854
 10
37.30616065972185
 20
-10.9612047084751
 10
37.43285970545636
 20
-10.97109583140746
 10
37.55961106772247
 20
-10.98035489870594
 10
37.6864109570974
 20
-10.98898667259084
 10
37.81325558415836
 20
-10.99699591528249
 10
37.94014115948255
 20
-11.00438738900121
 10
38.0670638936472
 20
-11.0111658559673
 10
38.19401999722952
 20
-11.0173360784011
 10
38.32100568080671
 20
-11.02290281852291
 10
38.44801715495601
 20
-11.02787083855305
 10
38.5750506302546
 20
-11.03224490071184
 10
38.70210231727972
 20
-11.03602976721959
 10
38.82916842660856
 20
-11.03923020029664
 10
38.95624516881835
 20
-11.04185096216328
 10
39.0833287544863
 20
-11.04389681503983
 10
39.21041539418962
 20
-11.04537252114663
 10
39.33750129850552
 20
-11.04628284270397
 10
39.46458267801122
 20
-11.04663254193219
 10
39.59165574328393
 20
-11.04642638105159
 10
39.71871670490087
 20
-11.04566912228249
 10
39.84576177343924
 20
-11.04436552784521
 10
39.97278715947626
 20
-11.04252035996007
 10
39.97278715947624
 20
-11.04252035996006
 10
40.12251771225669
 20
-11.03964599413001
 10
40.27225210059367
 20
-11.03600952997954
 10
40.42198580983876
 20
-11.03161353475968
 10
40.57171432534352
 20
-11.02646057572146
 10
40.7214331324595
 20
-11.0205532201159
 10
40.87113771653827
 20
-11.01389403519406
 10
41.0208235629314
 20
-11.00648558820695
 10
41.17048615699044
 20
-10.9983304464056
 10
41.32012098406696
 20
-10.98943117704105
 10
41.46972352951253
 20
-10.97979034736433
 10
41.61928927867871
 20
-10.96941052462646
 10
41.76881371691706
 20
-10.95829427607849
 10
41.91829232957915
 20
-10.94644416897144
 10
42.06772060201653
 20
-10.93386277055635
 10
42.21709401958078
 20
-10.92055264808424
 10
42.36640806762346
 20
-10.90651636880614
 10
42.51565823149612
 20
-10.89175649997309
 10
42.66483999655034
 20
-10.87627560883612
 10
42.81394884813766
 20
-10.86007626264626
 10
42.96298027160967
 20
-10.84316102865454
 10
43.11192975231793
 20
-10.825532474112
 10
43.26079277561399
 20
-10.80719316626965
 10
43.40956482684942
 20
-10.78814567237855
 10
43.55824139137578
 20
-10.7683925596897
 10
43.70681795454465
 20
-10.74793639545416
 10
43.85529000170756
 20
-10.72677974692294
 10
44.00365301821611
 20
-10.70492518134709
 10
44.15190248942184
 20
-10.68237526597762
 10
44.30003390067632
 20
-10.65913256806558
 10
44.44804273733112
 20
-10.63519965486199
 10
44.5959244847378
 20
-10.61057909361789
 10
44.74367462824791
 20
-10.5852734515843
 10
44.89128865321304
 20
-10.55928529601226
 10
45.03876204498473
 20
-10.5326171941528
 10
45.18609028891455
 20
-10.50527171325695
 10
45.33326887035407
 20
-10.47725142057574
 10
45.48029327465485
 20
-10.44855888336021
 10
45.62715898716845
 20
-10.41919666886137
 10
45.62715898716847
 20
-10.41919666886137
 10
45.77378990980057
 20
-10.38916445281836
 10
45.92030749520339
 20
-10.35842022227198
 10
46.06670495802887
 20
-10.32696442085756
 10
46.21297551292901
 20
-10.29479749221041
 10
46.35911237455576
 20
-10.26191987996588
 10
46.50510875756107
 20
-10.22833202775929
 10
46.65095787659693
 20
-10.19403437922596
 10
46.7966529463153
 20
-10.15902737800122
 10
46.94218718136816
 20
-10.1233114677204
 10
47.08755379640744
 20
-10.08688709201883
 10
47.23274600608514
 20
-10.04975469453182
 10
47.37775702505323
 20
-10.01191471889472
 10
47.52258006796365
 20
-9.973367608742851
 10
47.66720834946839
 20
-9.934113807711531
 10
47.8116350842194
 20
-9.894153759436091
 10
47.95585348686866
 20
-9.85348790755186
 10
48.09985677206814
 20
-9.812116695694165
 10
48.24363815446979
 20
-9.770040567498332
 10
48.38719084872558
 20
-9.727259966599689
 10
48.53050806948749
 20
-9.683775336633562
 10
48.67358303140747
 20
-9.63958712123528
 10
48.81640894913751
 20
-9.594695764040167
 10
48.81640894913751
 20
-9.594695764040165
 10
48.94738030628627
 20
-9.552816612621722
 10
49.07818411285392
 20
-9.510282338242491
 10
49.20880952231902
 20
-9.46709800576011
 10
49.33924568816015
 20
-9.423268680032212
 10
49.4694817638559
 20
-9.378799425916431
 10
49.59950690288483
 20
-9.333695308270403
 10
49.72931025872552
 20
-9.287961391951764
 10
49.85888098485656
 20
-9.241602741818146
 10
49.9882082347565
 20
-9.194624422727187
 10
50.11728116190393
 20
-9.14703149953652
 10
50.24608891977743
 20
-9.098829037103779
 10
50.24608891977744
 20
-9.098829037103779
 10
50.36203209053555
 20
-9.054764538717149
 10
50.47777829959724
 20
-9.010091595288372
 10
50.59332910254416
 20
-8.964857170575148
 10
50.70868605495791
 20
-8.919108228335183
 10
50.82385071242011
 20
-8.872891732326177
 10
50.93882463051241
 20
-8.826254646305836
 10
50.93882463051241
 20
-8.826254646305836
 10
51.02927972880745
 20
-8.789097963643557
 10
51.11952314348961
 20
-8.751487304639558
 10
51.20954661914146
 20
-8.713460601639932
 10
51.29934190034552
 20
-8.675055786990773
 10
51.38890073168432
 20
-8.636310793038177
210
0.0
220
0.0
230
-1.0
  0
LWPOLYLINE
  5
24E
330
1F
100
AcDbEntity
  8
Vector Layer 1
 62
    18
420
        0
370
    30
100
AcDbPolyline
 90
      414
 70
     0
 43
0.0
 10
5.274749721767793
 20
-8.246021804312317
 10
5.285956828465194
 20
-8.254068552510721
 10
5.285956828465194
 20
-8.254068552510721
 10
5.359550703630794
 20
-8.303836310780752
 10
5.433403174177626
 20
-8.353214712419426
 10
5.507526114886951
 20
-8.402180211120507
 10
5.581931400540035
 20
-8.450709260577765
 10
5.656630905918141
 20
-8.498778314484965
 10
5.731636505802532
 20
-8.546363826535875
 10
5.806960074974472
 20
-8.593442250424262
 10
5.882613488215224
 20
-8.63999003984389
 10
5.958608620306053
 20
-8.68598364848853
 10
6.034957346028222
 20
-8.731399530051946
 10
6.111671540162995
 20
-8.776214138227906
 10
6.188763077491636
 20
-8.820403926710179
 10
6.266243832795407
 20
-8.863945349192528
 10
6.266243832795407
 20
-8.863945349192526
 10
6.350707963820115
 20
-8.910572439245617
 10
6.435454762073214
 20
-8.956639977889521
 10
6.520486077033654
 20
-9.002142936086293
 10
6.605803758180385
 20
-9.047076284797993
 10
6.691409654992357
 20
-9.091434994986677
 10
6.77730561694852
 20
-9.135214037614399
 10
6.863493493527825
 20
-9.178408383643221
 10
6.949975134209222
 20
-9.221013004035196
 10
7.036752388471661
 20
-9.263022869752381
 10
7.123827105794092
 20
-9.304432951756835
 10
7.211201135655465
 20
-9.345238221010614
 10
7.29887632753473
 20
-9.385433648475775
 10
7.386854530910838
 20
-9.425014205114374
 10
7.475137595262738
 20
-9.46397486188847
 10
7.475137595262738
 20
-9.46397486188847
 10
7.576830196082668
 20
-9.507987999677517
 10
7.67881085819218
 20
-9.551272405339497
 10
7.781074815618196
 20
-9.593832099202252
 10
7.883617302387635
 20
-9.63567110159362
 10
7.986433552527421
 20
-9.676793432841442
 10
8.089518800064473
 20
-9.717203113273555
 10
8.192868279025713
 20
-9.7569041632178
 10
8.296477223438062
 20
-9.795900603002017
 10
8.400340867328441
 20
-9.834196452954046
 10
8.504454444723773
 20
-9.871795733401725
 10
8.608813189650977
 20
-9.908702464672895
 10
8.713412336136974
 20
-9.944920667095395
 10
8.818247118208685
 20
-9.980454360997066
 10
8.923312769893032
 20
-10.01530756670574
 10
9.028604525216936
 20
-10.04948430454927
 10
9.134117618207319
 20
-10.08298859485549
 10
9.239847282891101
 20
-10.11582445795224
 10
9.345788753295204
 20
-10.14799591416735
 10
9.451937263446549
 20
-10.17950698382867
 10
9.558288047372055
 20
-10.21036168726404
 10
9.664836339098647
 20
-10.2405640448013
 10
9.771577372653243
 20
-10.27011807676828
 10
9.878506382062766
 20
-10.29902780349283
 10
9.985618601354136
 20
-10.32729724530278
 10
10.09290926455427
 20
-10.35493042252598
 10
10.2003736056901
 20
-10.38193135549027
 10
10.30800685878854
 20
-10.40830406452347
 10
10.30800685878854
 20
-10.40830406452348
 10
10.4317025359867
 20
-10.43782620665341
 10
10.5555566335545
 20
-10.46658295098058
 10
10.67956536206914
 20
-10.4945790597253
 10
10.80372493210785
 20
-10.52181929510789
 10
10.92803155424784
 20
-10.54830841934866
 10
11.05248143906631
 20
-10.57405119466794
 10
11.17707079714049
 20
-10.59905238328604
 10
11.30179583904758
 20
-10.62331674742328
 10
11.42665277536479
 20
-10.64684904929997
 10
11.55163781666935
 20
-10.66965405113643
 10
11.67674717353846
 20
-10.69173651515298
 10
11.80197705654934
 20
-10.71310120356994
 10
11.9273236762792
 20
-10.73375287860761
 10
12.05278324330525
 20
-10.75369630248633
 10
12.17835196820471
 20
-10.77293623742641
 10
12.30402606155478
 20
-10.79147744564815
 10
12.42980173393269
 20
-10.80932468937189
 10
12.55567519591564
 20
-10.82648273081794
 10
12.68164265808085
 20
-10.84295633220661
 10
12.80770033100553
 20
-10.85875025575823
 10
12.93384442526689
 20
-10.8738692636931
 10
13.06007115144216
 20
-10.88831811823155
 10
13.18637672010853
 20
-10.90210158159389
 10
13.31275734184323
 20
-10.91522441600045
 10
13.43920922722346
 20
-10.92769138367153
 10
13.56572858682644
 20
-10.93950724682745
 10
13.69231163122938
 20
-10.95067676768854
 10
13.8189545710095
 20
-10.9612047084751
 10
13.94565361674401
 20
-10.97109583140746
 10
14.07240497901011
 20
-10.98035489870594
 10
14.19920486838504
 20
-10.98898667259084
 10
14.32604949544599
 20
-10.99699591528249
 10
14.45293507077018
 20
-11.00438738900121
 10
14.57985780493483
 20
-11.0111658559673
 10
14.70681390851714
 20
-11.0173360784011
 10
14.83379959209433
 20
-11.02290281852291
 10
14.96081106624361
 20
-11.02787083855305
 10
15.0878445415422
 20
-11.03224490071184
 10
15.2148962285673
 20
-11.03602976721959
 10
15.34196233789614
 20
-11.03923020029664
 10
15.46903908010593
 20
-11.04185096216328
 10
15.59612266577387
 20
-11.04389681503983
 10
15.72320930547718
 20
-11.04537252114663
 10
15.85029520979308
 20
-11.04628284270397
 10
15.97737658929877
 20
-11.04663254193219
 10
16.10444965457147
 20
-11.04642638105159
 10
16.2315106161884
 20
-11.04566912228249
 10
16.35855568472676
 20
-11.04436552784521
 10
16.48558107076377
 20
-11.04252035996007
 10
16.48558107076378
 20
-11.04252035996006
 10
16.63531162354425
 20
-11.03964599413001
 10
16.78504601188125
 20
-11.03600952997954
 10
16.93477972112635
 20
-11.03161353475968
 10
17.08450823663112
 20
-11.02646057572146
 10
17.23422704374711
 20
-11.0205532201159
 10
17.3839316278259
 20
-11.01389403519406
 10
17.53361747421903
 20
-11.00648558820695
 10
17.68328006827809
 20
-10.9983304464056
 10
17.83291489535463
 20
-10.98943117704105
 10
17.98251744080021
 20
-10.97979034736433
 10
18.1320831899664
 20
-10.96941052462646
 10
18.28160762820475
 20
-10.95829427607849
 10
18.43108624086685
 20
-10.94644416897144
 10
18.58051451330424
 20
-10.93386277055635
 10
18.7298879308685
 20
-10.92055264808424
 10
18.87920197891118
 20
-10.90651636880614
 10
19.02845214278385
 20
-10.89175649997309
 10
19.17763390783807
 20
-10.87627560883612
 10
19.32674275942541
 20
-10.86007626264626
 10
19.47577418289743
 20
-10.84316102865454
 10
19.62472366360569
 20
-10.825532474112
 10
19.77358668690175
 20
-10.80719316626965
 10
19.92235873813719
 20
-10.78814567237855
 10
20.07103530266356
 20
-10.7683925596897
 10
20.21961186583243
 20
-10.74793639545416
 10
20.36808391299535
 20
-10.72677974692294
 10
20.5164469295039
 20
-10.70492518134709
 10
20.66469640070964
 20
-10.68237526597762
 10
20.81282781196413
 20
-10.65913256806558
 10
20.96083664861893
 20
-10.63519965486199
 10
21.10871839602562
 20
-10.61057909361789
 10
21.25646853953574
 20
-10.5852734515843
 10
21.40408256450087
 20
-10.55928529601226
 10
21.55155595627257
 20
-10.5326171941528
 10
21.69888420020239
 20
-10.50527171325695
 10
21.84606278164192
 20
-10.47725142057574
 10
21.9930871859427
 20
-10.44855888336021
 10
22.1399528984563
 20
-10.41919666886137
 10
22.13995289845632
 20
-10.41919666886137
 10
22.28658382108841
 20
-10.38916445281836
 10
22.43310140649122
 20
-10.35842022227198
 10
22.5794988693167
 20
-10.32696442085756
 10
22.72576942421683
 20
-10.29479749221041
 10
22.87190628584357
 20
-10.26191987996588
 10
23.01790266884888
 20
-10.22833202775929
 10
23.16375178788474
 20
-10.19403437922596
 10
23.30944685760312
 20
-10.15902737800122
 10
23.45498109265597
 20
-10.1233114677204
 10
23.60034770769526
 20
-10.08688709201883
 10
23.74553991737297
 20
-10.04975469453182
 10
23.89055093634105
 20
-10.01191471889472
 10
24.03537397925148
 20
-9.973367608742851
 10
24.18000226075621
 20
-9.934113807711531
 10
24.32442899550723
 20
-9.894153759436091
 10
24.46864739815649
 20
-9.85348790755186
 10
24.61265068335596
 20
-9.812116695694165
 10
24.75643206575761
 20
-9.770040567498332
 10
24.8999847600134
 20
-9.727259966599689
 10
25.0433019807753
 20
-9.683775336633562
 10
25.18637694269528
 20
-9.63958712123528
 10
25.3292028604253
 20
-9.594695764040167
 10
25.3292028604253
 20
-9.594695764040165
 10
25.46017421757405
 20
-9.552816612621722
 10
25.59097802414168
 20
-9.510282338242491
 10
25.72160343360677
 20
-9.46709800576011
 10
25.8520395994479
 20
-9.423268680032212
 10
25.98227567514363
 20
-9.378799425916431
 10
26.11230081417255
 20
-9.333695308270403
 10
26.24210417001324
 20
-9.287961391951764
 10
26.37167489614426
 20
-9.241602741818146
 10
26.50100214604419
 20
-9.194624422727187
 10
26.63007507319161
 20
-9.14703149953652
 10
26.7588828310651
 20
-9.098829037103779
 10
26.7588828310651
 20
-9.098829037103779
 10
26.87482600182321
 20
-9.054764538717149
 10
26.99057221088491
 20
-9.010091595288372
 10
27.10612301383184
 20
-8.964857170575148
 10
27.22147996624559
 20
-8.919108228335183
 10
27.33664462370779
 20
-8.872891732326177
 10
27.45161854180006
 20
-8.826254646305836
 10
27.45161854180005
 20
-8.826254646305836
 10
27.55767145840915
 20
-8.782636370896186
 10
27.66346583484594
 20
-8.73839654605794
 10
27.76902284658652
 20
-8.693590001353511
 10
27.87436366910696
 20
-8.64827156634532
 10
27.97950947788335
 20
-8.602496070595783
 10
28.08448144839179
 20
-8.556318343667317
 10
28.18930075610835
 20
-8.509793215122341
 10
28.29398857650911
 20
-8.462975514523272
 10
28.29398857650911
 20
-8.46297551452327
 10
28.41798458225539
 20
-8.406048229507261
 10
28.54186463141485
 20
-8.348870462542498
 10
28.66558562737878
 20
-8.291352725609256
 10
28.78910447353847
 20
-8.233405530687809
 10
28.91237807328522
 20
-8.174939389758433
 10
29.03536333001034
 20
-8.115864814801403
 10
29.03536333001034
 20
-8.115864814801403
 10
29.16315111282321
 20
-8.05369443978477
 10
29.29065317671578
 20
-7.990934112784429
 10
29.41786390465159
 20
-7.927580913677006
 10
29.54477767959417
 20
-7.863631922339123
 10
29.67138888450709
 20
-7.799084218647403
 10
29.79769190235387
 20
-7.733934882478471
 10
29.92368111609806
 20
-7.66818099370895
 10
30.04935090870321
 20
-7.601819632215462
 10
30.17469566313284
 20
-7.534847877874634
 10
30.29970976235052
 20
-7.467262810563086
 10
30.42438758931977
 20
-7.399061510157444
 10
30.54872352700416
 20
-7.330241056534331
 10
30.67271195836721
 20
-7.26079852957037
 10
30.79634726637247
 20
-7.190731009142185
 10
30.91962383398348
 20
-7.120035575126399
 10
31.04253604416379
 20
-7.048709307399636
 10
31.16507827987694
 20
-6.97674928583852
 10
31.28724492408647
 20
-6.904152590319674
 10
31.40903035975592
 20
-6.830916300719722
 10
31.53042896984884
 20
-6.757037496915287
 10
31.65143513732877
 20
-6.682513258782992
 10
31.77204324515926
 20
-6.607340666199462
 10
31.89224767630383
 20
-6.53151679904132
 10
32.01204281372606
 20
-6.455038737185189
 10
32.13142304038946
 20
-6.377903560507693
 10
32.25038273925758
 20
-6.300108348885456
 10
32.25038273925759
 20
-6.300108348885452
 10
32.36632565740073
 20
-6.223364903693624
 10
32.48183633149263
 20
-6.145982421016265
 10
32.59691290027127
 20
-6.067964406752681
 10
32.71155350247463
 20
-5.989314366802179
 10
32.82575627684069
 20
-5.910035807064069
 10
32.93951936210741
 20
-5.830132233437657
 10
33.0528408970128
 20
-5.74960715182225
 10
33.16571902029481
 20
-5.668464068117157
 10
33.27815187069144
 20
-5.586706488221684
 10
33.39013758694066
 20
-5.504337918035139
 10
33.50167430778045
 20
-5.42136186345683
 10
33.61276017194879
 20
-5.337781830386064
 10
33.72339331818365
 20
-5.253601324722149
 10
33.83357188522303
 20
-5.168823852364392
 10
33.94329401180489
 20
-5.0834529192121
 10
34.05255783666721
 20
-4.997492031164581
 10
34.16136149854799
 20
-4.910944694121143
 10
34.26970313618518
 20
-4.823814413981093
 10
34.37758088831677
 20
-4.736104696643738
 10
34.48499289368075
 20
-4.647819048008386
 10
34.59193729101509
 20
-4.558960973974345
 10
34.69841221905776
 20
-4.469533980440922
 10
34.80441581654675
 20
-4.379541573307424
 10
34.80441581654675
 20
-4.379541573307422
 10
34.91071207364969
 20
-4.288320048500641
 10
35.01651495685599
 20
-4.196540012227537
 10
35.12183258233551
 20
-4.104213468153589
 10
35.22667306625813
 20
-4.011352419944274
 10
35.33104452479373
 20
-3.917968871265069
 10
35.43495507411219
 20
-3.824074825781452
 10
35.53841283038337
 20
-3.729682287158901
 10
35.64142590977714
 20
-3.634803259062892
 10
35.7440024284634
 20
-3.539449745158903
 10
35.846150502612
 20
-3.443633749112413
 10
35.94787824839282
 20
-3.347367274588897
 10
36.04919378197574
 20
-3.250662325253834
 10
36.15010521953063
 20
-3.153530904772702
 10
36.25062067722737
 20
-3.055985016810977
 10
36.35074827123582
 20
-2.958036665034137
 10
36.45049611772587
 20
-2.85969785310766
 10
36.54987233286738
 20
-2.760980584697023
 10
36.64888503283024
 20
-2.661896863467703
 10
36.74754233378431
 20
-2.562458693085178
 10
36.84585235189947
 20
-2.462678077214926
 10
36.94382320334559
 20
-2.362567019522424
 10
37.04146300429255
 20
-2.26213752367315
 10
37.13877987091023
 20
-2.16140159333258
 10
37.23578191936848
 20
-2.060371232166193
 10
37.33247726583721
 20
-1.959058443839465
 10
37.42887402648626
 20
-1.857475232017875
 10
37.42887402648626
 20
-1.857475232017875
 10
37.53714776200575
 20
-1.742750230061394
 10
37.64513728356769
 20
-1.627749706390426
 10
37.75286703503465
 20
-1.512497294315571
 10
37.86036146026923
 20
-1.397016627147429
 10
37.967645003134
 20
-1.281331338196601
 10
38.07474210749157
 20
-1.165465060773687
 10
38.18167721720451
 20
-1.049441428189288
 10
38.28847477613541
 20
-0.9332840737540045
 10
38.39515922814686
 20
-0.8170166307784361
 10
38.50175501710145
 20
-0.7006627325731836
 10
38.60828658686175
 20
-0.5842460124488475
 10
38.71477838129037
 20
-0.4677901037160283
 10
38.82125484424989
 20
-0.3513186396853262
 10
38.92774041960289
 20
-0.234855253667342
 10
39.03425955121195
 20
-0.1184235789726759
 10
39.14083668293968
 20
-0.0020472489119285
 10
39.24749625864865
 20
0.1142501032043
 10
39.35426272220146
 20
0.230444844065409
 10
39.46116051746068
 20
0.3465133403607981
 10
39.5682140882889
 20
0.4624319587798669
 10
39.67544787854873
 20
0.5781770660120148
 10
39.78288633210272
 20
0.6937250287466416
 10
39.89055389281349
 20
0.8090522136731467
 10
39.99847500454361
 20
0.9241349874809298
 10
40.10667411115567
 20
1.03894971685939
 10
40.21517565651225
 20
1.153472768497928
 10
40.32400408447595
 20
1.267680509085942
 10
40.43318383890937
 20
1.381549305312832
 10
40.54273936367505
 20
1.495055523867998
 10
40.65269510263561
 20
1.608175531440839
 10
40.76307549965364
 20
1.720885694720756
 10
40.87390499859172
 20
1.833162380397147
 10
40.98520804331243
 20
1.944981955159411
 10
41.09700907767837
 20
2.05632078569695
 10
41.20933254555213
 20
2.167155238699161
 10
41.32220289079628
 20
2.277461680855445
 10
41.32220289079628
 20
2.277461680855445
 10
41.41745119182537
 20
2.369704031221183
 10
41.51307924036322
 20
2.461543151000814
 10
41.60909176666812
 20
2.552970352218918
 10
41.70549350099842
 20
2.643976946900076
 10
41.80228917361243
 20
2.734554247068865
 10
41.89948351476846
 20
2.824693564749867
 10
41.99708125472485
 20
2.91438621196766
 10
42.09508712373992
 20
3.003623500746825
 10
42.19350585207199
 20
3.092396743111941
 10
42.29234216997938
 20
3.180697251087587
 10
42.39160080772042
 20
3.268516336698343
 10
42.49128649555342
 20
3.355845311968789
 10
42.59140396373672
 20
3.442675488923505
 10
42.69195794252862
 20
3.528998179587069
 10
42.79295316218746
 20
3.614804695984061
 10
42.89439435297157
 20
3.700086350139062
 10
42.99628624513924
 20
3.784834454076651
 10
43.09863356894882
 20
3.869040319821407
 10
43.20144105465863
 20
3.95269525939791
 10
43.30471343252698
 20
4.035790584830739
 10
43.4084554328122
 20
4.118317608144475
 10
43.51267178577262
 20
4.200267641363696
 10
43.5126717857726
 20
4.200267641363695
 10
43.6194451510082
 20
4.2832480842675
 10
43.7266833436857
 20
4.365611975760366
 10
43.8343828019137
 20
4.447358182791762
 10
43.94253996380085
 20
4.528485572311157
 10
44.05115126745577
 20
4.608993011268019
 10
44.16021315098707
 20
4.688879366611817
 10
44.26972205250342
 20
4.76814350529202
 10
44.3796744101134
 20
4.846784294258096
 10
44.49006666192569
 20
4.924800600459515
 10
44.60089524604888
 20
5.002191290845744
 10
44.71215660059161
 20
5.078955232366253
 10
44.8238471636625
 20
5.15509129197051
 10
44.93596337337018
 20
5.230598336607984
 10
45.04850166782329
 20
5.305475233228143
 10
45.16145848513046
 20
5.379720848780457
 10
45.2748302634003
 20
5.453334050214393
 10
45.38861344074144
 20
5.526313704479421
 10
45.50280445526253
 20
5.598658678525009
 10
45.61739974507218
 20
5.670367839300626
 10
45.73239574827902
 20
5.741440053755741
 10
45.84778890299168
 20
5.811874188839821
 10
45.9635756473188
 20
5.881669111502336
 10
46.07975241936897
 20
5.950823688692755
 10
46.19631565725087
 20
6.019336787360547
 10
46.19631565725085
 20
6.019336787360545
 10
46.3084754170872
 20
6.084443010438453
 10
46.42096483638593
 20
6.148947942032311
 10
46.53377755374174
 20
6.212862222754109
 10
46.64690720774932
 20
6.276196493215835
 10
46.76034743700337
 20
6.338961394029478
 10
46.87409188009859
 20
6.401167565807025
 10
46.98813417562969
 20
6.462825649160464
 10
47.10246796219134
 20
6.523946284701784
 10
47.21708687837827
 20
6.584540113042972
 10
47.33198456278515
 20
6.644617774796017
 10
47.44715465400669
 20
6.704189910572907
 10
47.56259079063759
 20
6.76326716098563
 10
47.67828661127254
 20
6.821860166646173
 10
47.67828661127255
 20
6.821860166646173
 10
47.79580212591471
 20
6.880646203789213
 10
47.91363219418143
 20
6.93876816328947
 10
48.03176486821597
 20
6.996248727704668
 10
48.15018820016156
 20
7.053110579592532
 10
48.26889024216143
 20
7.109376401510787
 10
48.38785904635884
 20
7.165068876017159
 10
48.50708266489702
 20
7.220210685669371
 10
48.62654914991921
 20
7.27482451302515
 10
48.74624655356864
 20
7.328933040642221
 10
48.86616292798859
 20
7.382558951078308
 10
48.98628632532225
 20
7.435724926891135
 10
49.10660479771289
 20
7.48845365063843
 10
49.22710639730374
 20
7.540767804877915
 10
49.34777917623805
 20
7.592690072167316
 10
49.46861118665906
 20
7.64424313506436
 10
49.58959048071
 20
7.695449676126769
 10
49.58959048071001
 20
7.695449676126769
 10
49.74723688474988
 20
7.760617197565215
 10
49.90501014723047
 20
7.82551332580483
 10
50.06291949975431
 20
7.890093866920783
 10
50.22097417392387
 20
7.954314626988245
 10
50.37918340134163
 20
8.018131412082386
 10
50.5375564136101
 20
8.081500028278377
 10
50.69610244233174
 20
8.144376281651387
 10
50.85483071910907
 20
8.206715978276589
 10
51.01375047554455
 20
8.268474924229151
 10
51.01375047554455
 20
8.268474924229151
 10
51.13877425404821
 20
8.316614418905679
 10
51.26384955872336
 20
8.364360965208648
 10
51.38890073168433
 20
8.411596488536108
210
0.0
220
0.0
230
-1.0
  0
LINE
  5
24F
330
1F
100
AcDbEntity
  8
Vector Layer 1
 62
    18
420
        0
370
    30
100
AcDbLine
 10
-51.38890073168433
 20
8.41159648853611
 30
0.0
 11
-51.38890073168433
 21
-8.636310793038171
 31
0.0
  0
POLYLINE
  5
250
330
1F
100
AcDbEntity
  8
Vector Layer 1
 62
    18
420
        0
370
    30
100
AcDb3dPolyline
 66
     1
 10
0.0
 20
0.0
 30
0.0
 70
     8
  0
VERTEX
  5
251
330
250
100
AcDbEntity
  8
0
 62
    18
420
        0
100
AcDbVertex
100
AcDb3dPolylineVertex
 10
-62.70127075914159
 20
10.76364903593936
 30
0.0
 70
    32
  0
VERTEX
  5
252
330
250
100
AcDbEntity
  8
0
 62
    18
420
        0
100
AcDbVertex
100
AcDb3dPolylineVertex
 10
-62.70127075914159
 20
8.431835487351662
 30
0.0
 70
    32
  0
VERTEX
  5
253
330
250
100
AcDbEntity
  8
0
 62
    18
420
        0
100
AcDbVertex
100
AcDb3dPolylineVertex
 10
-62.70127075914159
 20
8.427561974525588
 30
0.0
 70
    32
  0
VERTEX
  5
254
330
250
100
AcDbEntity
  8
0
 62
    18
420
        0
100
AcDbVertex
100
AcDb3dPolylineVertex
 10
-62.70127075914159
 20
-8.675329668444828
 30
0.0
 70
    32
  0
VERTEX
  5
255
330
250
100
AcDbEntity
  8
0
 62
    18
420
        0
100
AcDbVertex
100
AcDb3dPolylineVertex
 10
-62.70127075914159
 20
-10.65189789418797
 30
0.0
 70
    32
  0
SEQEND
  5
256
330
250
100
AcDbEntity
  8
Vector Layer 1
 62
    18
420
        0
370
    30
  0
LWPOLYLINE
  5
257
330
1F
100
AcDbEntity
  8
Vector Layer 1
 62
    18
420
        0
370
    30
100
AcDbPolyline
 90
       90
 70
     0
 43
0.0
 10
62.70127075914159
 20
8.427561974525588
 10
61.56595920269101
 20
8.311015920026697
 10
61.56595920269101
 20
8.311015920026697
 10
60.96390520921413
 20
8.228188833002832
 10
60.96390520921413
 20
8.228188833002832
 10
60.59533584567998
 20
8.153128217166253
 10
60.59533584567998
 20
8.153128217166253
 10
60.29017033611869
 20
8.055779824982598
 10
60.29017033611869
 20
8.055779824982598
 10
59.92539389534941
 20
7.883779995046244
 10
59.92539389534941
 20
7.883779995046244
 10
59.53424919101603
 20
7.644630002278982
 10
59.53424919101603
 20
7.644630002278982
 10
59.15980284899438
 20
7.368215879332129
 10
59.15980284899438
 20
7.368215879332129
 10
58.79276223885842
 20
7.047068070212109
 10
58.79276223885842
 20
7.047068070212109
 10
58.45360200386978
 20
6.703585438192861
 10
58.45360200386978
 20
6.703585438192861
 10
58.12190048924958
 20
6.315369190177285
 10
58.12190048924958
 20
6.315369190177285
 10
57.80079007130578
 20
5.882423474619026
 10
57.80079007130578
 20
5.882423474619026
 10
57.52423161266721
 20
5.449536762743573
 10
57.52423161266721
 20
5.449536762743573
 10
57.47358129213051
 20
5.358324387431034
 10
57.47358129213051
 20
5.358324387431034
 10
57.25072330361164
 20
4.956996098196364
 10
57.25072330361164
 20
4.956996098196364
 10
57.02736016023599
 20
4.486893591942235
 10
57.02736016023599
 20
4.486893591942235
 10
56.80867849022228
 20
3.949682044479174
 10
56.80867849022228
 20
3.949682044479174
 10
56.62487917388208
 20
3.405059445447269
 10
56.62487917388208
 20
3.405059445447269
 10
56.47708019722294
 20
2.867941773540311
 10
56.47708019722294
 20
2.867941773540311
 10
56.35116037801942
 20
2.286109583762203
 10
56.35116037801942
 20
2.286109583762203
 10
56.26063156643457
 20
1.704324265094149
 10
56.26063156643457
 20
1.704324265094149
 10
56.201064611312
 20
1.137494449717525
 10
56.201064611312
 20
1.137494449717525
 10
56.18966157949058
 20
0.90589256401179
 10
56.18966157949058
 20
0.90589256401179
 10
56.17205697762816
 20
0.548333359382097
 10
56.17205697762816
 20
0.548333359382097
 10
56.17710763213455
 20
-0.1078978661233122
 10
56.17710763213455
 20
-0.1078978661233122
 10
56.21716684276036
 20
-0.7267964818881473
 10
56.21716684276036
 20
-0.7267964818881473
 10
56.28763978656317
 20
-1.315825822228044
 10
56.28763978656317
 20
-1.315825822228044
 10
56.39505867793094
 20
-1.927177979212716
 10
56.39505867793094
 20
-1.927177979212716
 10
56.53462182590428
 20
-2.523573066959929
 10
56.53462182590428
 20
-2.523573066959929
 10
56.69204937843014
 20
-3.060286503237453
 10
56.69204937843014
 20
-3.060286503237453
 10
56.87424443378652
 20
-3.58205263989589
 10
56.87424443378652
 20
-3.58205263989589
 10
57.09805902088511
 20
-4.126135403602003
 10
57.09805902088511
 20
-4.126135403602003
 10
57.34992863218972
 20
-4.647809264736244
 10
57.34992863218972
 20
-4.647809264736244
 10
57.64217698129504
 20
-5.169429649114928
 10
57.64217698129504
 20
-5.169429649114928
 10
57.95844865255954
 20
-5.661189221395324
 10
57.95844865255954
 20
-5.661189221395324
 10
58.26331987536221
 20
-6.078391401908585
 10
58.26331987536221
 20
-6.078391401908585
 10
58.62268679572263
 20
-6.510435907516648
 10
58.62268679572263
 20
-6.510435907516648
 10
58.98287857403368
 20
-6.890278577502305
 10
58.98287857403368
 20
-6.890278577502305
 10
59.36078577412348
 20
-7.240268789440967
 10
59.36078577412348
 20
-7.240268789440967
 10
59.75921678557695
 20
-7.560402823960224
 10
59.75921678557695
 20
-7.560402823960224
 10
60.18344774731787
 20
-7.85067369345207
 10
60.18344774731787
 20
-7.85067369345207
 10
60.62705490579307
 20
-8.10363265637306
 10
60.62705490579307
 20
-8.10363265637306
 10
61.05433152244428
 20
-8.304412503924185
 10
61.05433152244428
 20
-8.304412503924185
 10
61.45457161733505
 20
-8.445570165853034
 10
61.45457161733505
 20
-8.445570165853034
 10
61.98829640657296
 20
-8.564179296360629
 10
61.98829640657296
 20
-8.564179296360629
 10
62.70127075914159
 20
-8.675329668444828
210
0.0
220
0.0
230
-1.0
  0
LWPOLYLINE
  5
258
330
1F
100
AcDbEntity
  8
Vector Layer 1
 62
    18
420
        0
370
    30
100
AcDbPolyline
 90
       32
 70
     0
 43
0.0
 10
62.70127075914159
 20
10.76364903593936
 10
61.88945113241398
 20
10.50768704900844
 10
61.88945113241398
 20
10.50768704900844
 10
61.39427386484011
 20
10.31978121918642
 10
61.39427386484011
 20
10.31978121918642
 10
60.96939116448194
 20
10.11716861655595
 10
60.96939116448194
 20
10.11716861655595
 10
60.55485629700296
 20
9.877298984431471
 10
60.55485629700296
 20
9.877298984431471
 10
60.16056505877006
 20
9.607659185778747
 10
60.16056505877006
 20
9.607659185778747
 10
59.78818885205175
 20
9.308254173479067
 10
59.78818885205175
 20
9.308254173479067
 10
59.41378573304525
 20
8.956640384164522
 10
59.41378573304525
 20
8.956640384164522
 10
59.07469733577121
 20
8.590216165952702
 10
59.07469733577121
 20
8.590216165952702
 10
58.7629278727821
 20
8.201500286191253
 10
58.7629278727821
 20
8.201500286191253
 10
58.47001313519633
 20
7.77555258548645
 10
58.47001313519633
 20
7.77555258548645
 10
58.2285261278123
 20
7.372129897026101
 10
58.2285261278123
 20
7.372129897026101
 10
58.0018570411124
 20
6.924005886658952
 10
58.0018570411124
 20
6.924005886658952
 10
57.80400025518194
 20
6.461052178712363
 10
57.80400025518194
 20
6.461052178712363
 10
57.63120600558147
 20
5.968342584147935
 10
57.63120600558147
 20
5.968342584147935
 10
57.49570809350203
 20
5.468285971489943
 10
57.49570809350203
 20
5.468285971489943
 10
57.47358129213051
 20
5.358324387431051
210
0.0
220
0.0
230
-1.0
  0
LWPOLYLINE
  5
259
330
1F
100
AcDbEntity
  8
Vector Layer 1
 62
    18
420
        0
370
    30
100
AcDbPolyline
 90
       58
 70
     0
 43
0.0
 10
56.18966157949056
 20
0.9058925640117838
 10
56.02692593508003
 20
0.5867032299743312
 10
56.02692593508003
 20
0.5867032299743312
 10
55.86964385069826
 20
0.1984451440428999
 10
55.86964385069826
 20
0.1984451440428999
 10
55.74051110290601
 20
-0.2121021426995933
 10
55.74051110290601
 20
-0.2121021426995933
 10
55.63817058083842
 20
-0.6524001904558414
 10
55.63817058083842
 20
-0.6524001904558414
 10
55.56262091704683
 20
-1.129906541941955
 10
55.56262091704683
 20
-1.129906541941955
 10
55.52021406530199
 20
-1.614772219700795
 10
55.52021406530199
 20
-1.614772219700795
 10
55.5082424456901
 20
-2.151750479111761
 10
55.5082424456901
 20
-2.151750479111761
 10
55.53043496926221
 20
-2.666254883620008
 10
55.53043496926221
 20
-2.666254883620008
 10
55.5878736227866
 20
-3.210484997612043
 10
55.5878736227866
 20
-3.210484997612043
 10
55.68042686346259
 20
-3.754611056234069
 10
55.68042686346259
 20
-3.754611056234069
 10
55.80091736550166
 20
-4.276281712127941
 10
55.80091736550166
 20
-4.276281712127941
 10
55.96002754502691
 20
-4.812753003314158
 10
55.96002754502691
 20
-4.812753003314158
 10
56.14755036663293
 20
-5.326767483072293
 10
56.14755036663293
 20
-5.326767483072293
 10
56.3655245122884
 20
-5.825776648821778
 10
56.3655245122884
 20
-5.825776648821778
 10
56.62775704715923
 20
-6.339569740618735
 10
56.62775704715923
 20
-6.339569740618735
 10
56.92970885215234
 20
-6.853245131947425
 10
56.92970885215234
 20
-6.853245131947425
 10
57.24367979471534
 20
-7.322139674874686
 10
57.24367979471534
 20
-7.322139674874686
 10
57.56906278036482
 20
-7.746255168409028
 10
57.56906278036482
 20
-7.746255168409028
 10
57.90984646038272
 20
-8.133037331608386
 10
57.90984646038272
 20
-8.133037331608386
 10
58.29119329188683
 20
-8.5122417549944
 10
58.29119329188683
 20
-8.5122417549944
 10
58.71545822617117
 20
-8.883861460118847
 10
58.71545822617117
 20
-8.883861460118847
 10
59.16097239531499
 20
-9.225588042539929
 10
59.16097239531499
 20
-9.225588042539929
 10
59.62742543929558
 20
-9.537422421950276
 10
59.62742543929558
 20
-9.537422421950276
 10
60.0939835808534
 20
-9.804511257940408
 10
60.0939835808534
 20
-9.804511257940408
 10
60.55707238089796
 20
-10.02686514267763
 10
60.55707238089796
 20
-10.02686514267763
 10
61.05256520920256
 20
-10.2192928496125
 10
61.05256520920256
 20
-10.2192928496125
 10
61.60380265342418
 20
-10.38172521337294
 10
61.60380265342418
 20
-10.38172521337294
 10
62.53766067538572
 20
-10.60268406346648
 10
62.53766067538572
 20
-10.60268406346648
 10
62.70127075914159
 20
-10.65189789418797
210
0.0
220
0.0
230
-1.0
  0
POLYLINE
  5
25A
330
1F
100
AcDbEntity
  8
Vector Layer 1
 62
    18
420
        0
370
    30
100
AcDb3dPolyline
 66
     1
 10
0.0
 20
0.0
 30
0.0
 70
     8
  0
VERTEX
  5
25B
330
25A
100
AcDbEntity
  8
0
 62
    18
420
        0
100
AcDbVertex
100
AcDb3dPolylineVertex
 10
74.0965461244389
 20
10.39004648287878
 30
0.0
 70
    32
  0
VERTEX
  5
25C
330
25A
100
AcDbEntity
  8
0
 62
    18
420
        0
100
AcDbVertex
100
AcDb3dPolylineVertex
 10
74.0965461244389
 20
4.062700149898255
 30
0.0
 70
    32
  0
VERTEX
  5
25D
330
25A
100
AcDbEntity
  8
0
 62
    18
420
        0
100
AcDbVertex
100
AcDb3dPolylineVertex
 10
74.0965461244389
 20
-10.79670135228561
 30
0.0
 70
    32
  0
SEQEND
  5
25E
330
25A
100
AcDbEntity
  8
Vector Layer 1
 62
    18
420
        0
370
    30
  0
LWPOLYLINE
  5
25F
330
1F
100
AcDbEntity
  8
Vector Layer 1
 62
    18
420
        0
370
    30
100
AcDbPolyline
 90
      462
 70
     0
 43
0.0
 10
74.0965461244389
 20
-10.79670135228562
 10
73.94315068936139
 20
-10.77675295147955
 10
73.78986059271294
 20
-10.75604301815725
 10
73.63668066157721
 20
-10.7345752495558
 10
73.48361572303787
 20
-10.71235334291227
 10
73.33067060417858
 20
-10.68938099546376
 10
73.17785013208298
 20
-10.66566190444733
 10
73.02515913383475
 20
-10.64119976710007
 10
72.87260243651754
 20
-10.61599828065905
 10
72.72018486721501
 20
-10.59006114236136
 10
72.56791125301082
 20
-10.56339204944406
 10
72.41578642098862
 20
-10.53599469914425
 10
72.2638151982321
 20
-10.50787278869899
 10
72.11200241182488
 20
-10.47903001534538
 10
71.96035288885063
 20
-10.44947007632047
 10
71.80887145639303
 20
-10.41919666886137
 10
71.80887145639303
 20
-10.41919666886137
 10
71.6622405337609
 20
-10.38916445281836
 10
71.51572294835808
 20
-10.35842022227198
 10
71.36932548553257
 20
-10.32696442085756
 10
71.22305493063243
 20
-10.29479749221041
 10
71.07691806900567
 20
-10.26191987996588
 10
70.93092168600034
 20
-10.22833202775929
 10
70.78507256696447
 20
-10.19403437922596
 10
70.63937749724608
 20
-10.15902737800122
 10
70.49384326219322
 20
-10.1233114677204
 10
70.34847664715392
 20
-10.08688709201883
 10
70.2032844374762
 20
-10.04975469453182
 10
70.0582734185081
 20
-10.01191471889472
 10
69.91345037559767
 20
-9.973367608742851
 10
69.76882209409293
 20
-9.934113807711531
 10
69.62439535934191
 20
-9.894153759436091
 10
69.48017695669263
 20
-9.85348790755186
 10
69.33617367149314
 20
-9.812116695694165
 10
69.19239228909147
 20
-9.770040567498332
 10
69.04883959483566
 20
-9.727259966599689
 10
68.90552237407373
 20
-9.683775336633562
 10
68.76244741215372
 20
-9.63958712123528
 10
68.61962149442367
 20
-9.594695764040167
 10
68.61962149442371
 20
-9.594695764040165
 10
68.488650137275
 20
-9.552816612621722
 10
68.35784633070741
 20
-9.510282338242491
 10
68.22722092124235
 20
-9.46709800576011
 10
68.09678475540124
 20
-9.423268680032212
 10
67.96654867970552
 20
-9.378799425916431
 10
67.83652354067662
 20
-9.333695308270403
 10
67.70672018483594
 20
-9.287961391951764
 10
67.57714945870493
 20
-9.241602741818146
 10
67.44782220880499
 20
-9.194624422727187
 10
67.31874928165756
 20
-9.14703149953652
 10
67.18994152378406
 20
-9.098829037103779
 10
67.18994152378406
 20
-9.098829037103779
 10
67.07399835302585
 20
-9.054764538717149
 10
66.9582521439641
 20
-9.010091595288372
 10
66.84270134101716
 20
-8.964857170575148
 10
66.72734438860342
 20
-8.919108228335183
 10
66.61217973114124
 20
-8.872891732326177
 10
66.49720581304901
 20
-8.826254646305836
 10
66.49720581304899
 20
-8.826254646305836
 10
66.39115289643995
 20
-8.782636370896186
 10
66.28535852000317
 20
-8.73839654605794
 10
66.1798015082626
 20
-8.693590001353511
 10
66.07446068574216
 20
-8.64827156634532
 10
65.96931487696576
 20
-8.602496070595783
 10
65.86434290645733
 20
-8.556318343667317
 10
65.75952359874083
 20
-8.509793215122341
 10
65.65483577834014
 20
-8.462975514523272
 10
65.65483577834014
 20
-8.46297551452327
 10
65.53083977259372
 20
-8.406048229507261
 10
65.40695972343421
 20
-8.348870462542498
 10
65.28323872747027
 20
-8.291352725609256
 10
65.1597198813106
 20
-8.233405530687809
 10
65.03644628156386
 20
-8.174939389758433
 10
64.91346102483873
 20
-8.115864814801403
 10
64.91346102483871
 20
-8.115864814801403
 10
64.78567324202585
 20
-8.05369443978477
 10
64.65817117813329
 20
-7.990934112784429
 10
64.53096045019748
 20
-7.927580913677006
 10
64.4040466752549
 20
-7.863631922339123
 10
64.277435470342
 20
-7.799084218647403
 10
64.15113245249521
 20
-7.733934882478471
 10
64.02514323875102
 20
-7.66818099370895
 10
63.89947344614589
 20
-7.601819632215462
 10
63.77412869171625
 20
-7.534847877874634
 10
63.64911459249858
 20
-7.467262810563086
 10
63.52443676552933
 20
-7.399061510157444
 10
63.40010082784495
 20
-7.330241056534331
 10
63.2761123964819
 20
-7.26079852957037
 10
63.15247708847664
 20
-7.190731009142185
 10
63.02920052086562
 20
-7.120035575126399
 10
62.90628831068531
 20
-7.048709307399636
 10
62.78374607497216
 20
-6.97674928583852
 10
62.66157943076263
 20
-6.904152590319674
 10
62.53979399509317
 20
-6.830916300719722
 10
62.41839538500024
 20
-6.757037496915287
 10
62.29738921752031
 20
-6.682513258782992
 10
62.17678110968982
 20
-6.607340666199462
 10
62.05657667854524
 20
-6.53151679904132
 10
61.93678154112301
 20
-6.455038737185189
 10
61.81740131445961
 20
-6.377903560507693
 10
61.69844161559147
 20
-6.300108348885456
 10
61.6984416155915
 20
-6.300108348885452
 10
61.58249869744837
 20
-6.223364903693624
 10
61.46698802335649
 20
-6.145982421016265
 10
61.35191145457786
 20
-6.067964406752681
 10
61.23727085237451
 20
-5.989314366802179
 10
61.12306807800847
 20
-5.910035807064069
 10
61.00930499274174
 20
-5.830132233437657
 10
60.89598345783636
 20
-5.74960715182225
 10
60.78310533455435
 20
-5.668464068117157
 10
60.67067248415773
 20
-5.586706488221684
 10
60.55868676790851
 20
-5.504337918035139
 10
60.44715004706873
 20
-5.42136186345683
 10
60.33606418290038
 20
-5.337781830386064
 10
60.22543103666552
 20
-5.253601324722149
 10
60.11525246962614
 20
-5.168823852364392
 10
60.00553034304428
 20
-5.0834529192121
 10
59.89626651818196
 20
-4.997492031164581
 10
59.78746285630119
 20
-4.910944694121143
 10
59.679121218664
 20
-4.823814413981093
 10
59.57124346653241
 20
-4.736104696643738
 10
59.46383146116843
 20
-4.647819048008386
 10
59.35688706383411
 20
-4.558960973974345
 10
59.25041213579144
 20
-4.469533980440922
 10
59.14440853830246
 20
-4.379541573307424
 10
59.14440853830244
 20
-4.379541573307422
 10
59.03811228119951
 20
-4.288320048500641
 10
58.93230939799322
 20
-4.196540012227537
 10
58.82699177251371
 20
-4.104213468153589
 10
58.72215128859108
 20
-4.011352419944274
 10
58.61777983005548
 20
-3.917968871265069
 10
58.51386928073704
 20
-3.824074825781452
 10
58.41041152446586
 20
-3.729682287158901
 10
58.3073984450721
 20
-3.634803259062892
 10
58.20482192638585
 20
-3.539449745158903
 10
58.10267385223725
 20
-3.443633749112413
 10
58.00094610645643
 20
-3.347367274588897
 10
57.89963057287352
 20
-3.250662325253834
 10
57.79871913531864
 20
-3.153530904772702
 10
57.69820367762191
 20
-3.055985016810977
 10
57.59807608361346
 20
-2.958036665034137
 10
57.49832823712342
 20
-2.85969785310766
 10
57.39895202198191
 20
-2.760980584697023
 10
57.29993932201905
 20
-2.661896863467703
 10
57.20128202106497
 20
-2.562458693085178
 10
57.10297200294981
 20
-2.462678077214926
 10
57.00500115150369
 20
-2.362567019522424
 10
56.90736135055672
 20
-2.26213752367315
 10
56.81004448393903
 20
-2.16140159333258
 10
56.71304243548076
 20
-2.060371232166193
 10
56.61634708901203
 20
-1.959058443839465
 10
56.51995032836296
 20
-1.857475232017875
 10
56.51995032836296
 20
-1.857475232017875
 10
56.41167659284347
 20
-1.742750230061394
 10
56.30368707128154
 20
-1.627749706390426
 10
56.19595731981458
 20
-1.512497294315571
 10
56.08846289458
 20
-1.397016627147429
 10
55.98117935171523
 20
-1.281331338196601
 10
55.87408224735767
 20
-1.165465060773687
 10
55.76714713764474
 20
-1.049441428189288
 10
55.66034957871384
 20
-0.9332840737540045
 10
55.55366512670238
 20
-0.8170166307784361
 10
55.44706933774779
 20
-0.7006627325731836
 10
55.34053776798749
 20
-0.5842460124488475
 10
55.23404597355887
 20
-0.4677901037160283
 10
55.12756951059936
 20
-0.3513186396853262
 10
55.02108393524636
 20
-0.234855253667342
 10
54.91456480363729
 20
-0.1184235789726759
 10
54.80798767190957
 20
-0.0020472489119285
 10
54.70132809620059
 20
0.1142501032043
 10
54.59456163264778
 20
0.230444844065409
 10
54.48766383738856
 20
0.3465133403607981
 10
54.38061026656034
 20
0.4624319587798669
 10
54.27337647630052
 20
0.5781770660120148
 10
54.16593802274651
 20
0.6937250287466416
 10
54.05827046203575
 20
0.8090522136731467
 10
53.95034935030563
 20
0.9241349874809298
 10
53.84215024369357
 20
1.03894971685939
 10
53.73364869833697
 20
1.153472768497928
 10
53.62482027037327
 20
1.267680509085942
 10
53.51564051593986
 20
1.381549305312832
 10
53.40608499117417
 20
1.495055523867998
 10
53.29612925221359
 20
1.608175531440839
 10
53.18574885519556
 20
1.720885694720756
 10
53.07491935625748
 20
1.833162380397147
 10
52.96361631153676
 20
1.944981955159411
 10
52.85181527717081
 20
2.05632078569695
 10
52.73949180929704
 20
2.167155238699161
 10
52.6266214640529
 20
2.277461680855445
 10
52.62662146405289
 20
2.277461680855445
 10
52.53137316302378
 20
2.369704031221183
 10
52.43574511448595
 20
2.461543151000814
 10
52.33973258818104
 20
2.552970352218918
 10
52.24333085385075
 20
2.643976946900076
 10
52.14653518123675
 20
2.734554247068865
 10
52.04934084008072
 20
2.824693564749867
 10
51.95174310012433
 20
2.91438621196766
 10
51.85373723110927
 20
3.003623500746825
 10
51.75531850277721
 20
3.092396743111941
 10
51.65648218486982
 20
3.180697251087587
 10
51.55722354712879
 20
3.268516336698343
 10
51.4575378592958
 20
3.355845311968789
 10
51.35742039111251
 20
3.442675488923505
 10
51.25686641232061
 20
3.528998179587069
 10
51.15587119266177
 20
3.614804695984061
 10
51.05443000187768
 20
3.700086350139062
 10
50.95253810971
 20
3.784834454076651
 10
50.85019078590041
 20
3.869040319821407
 10
50.7473833001906
 20
3.95269525939791
 10
50.64411092232225
 20
4.035790584830739
 10
50.54036892203702
 20
4.118317608144475
 10
50.43615256907659
 20
4.200267641363696
 10
50.43615256907659
 20
4.200267641363695
 10
50.32937920384101
 20
4.2832480842675
 10
50.22214101116355
 20
4.365611975760366
 10
50.11444155293557
 20
4.447358182791762
 10
50.00628439104845
 20
4.528485572311157
 10
49.89767308739356
 20
4.608993011268019
 10
49.78861120386226
 20
4.688879366611817
 10
49.67910230234593
 20
4.76814350529202
 10
49.56914994473595
 20
4.846784294258096
 10
49.45875769292368
 20
4.924800600459515
 10
49.3479291088005
 20
5.002191290845744
 10
49.23666775425778
 20
5.078955232366253
 10
49.12497719118689
 20
5.15509129197051
 10
49.0128609814792
 20
5.230598336607984
 10
48.90032268702608
 20
5.305475233228143
 10
48.78736586971891
 20
5.379720848780457
 10
48.67399409144906
 20
5.453334050214393
 10
48.5602109141079
 20
5.526313704479421
 10
48.4460198995868
 20
5.598658678525009
 10
48.33142460977714
 20
5.670367839300626
 10
48.21642860657028
 20
5.741440053755741
 10
48.10103545185759
 20
5.811874188839821
 10
47.98524870753045
 20
5.881669111502336
 10
47.86907193548024
 20
5.950823688692755
 10
47.75250869759831
 20
6.019336787360547
 10
47.75250869759832
 20
6.019336787360545
 10
47.64034893776197
 20
6.084443010438453
 10
47.52785951846323
 20
6.148947942032311
 10
47.41504680110742
 20
6.212862222754109
 10
47.30191714709985
 20
6.276196493215835
 10
47.1884769178458
 20
6.338961394029478
 10
47.07473247475057
 20
6.401167565807025
 10
46.96069017921948
 20
6.462825649160464
 10
46.84635639265784
 20
6.523946284701784
 10
46.73173747647093
 20
6.584540113042972
 10
46.61683979206407
 20
6.644617774796017
 10
46.50166970084256
 20
6.704189910572907
 10
46.38623356421168
 20
6.76326716098563
 10
46.27053774357675
 20
6.821860166646173
 10
46.27053774357676
 20
6.821860166646173
 10
46.15302222893458
 20
6.880646203789213
 10
46.03519216066783
 20
6.93876816328947
 10
45.91705948663327
 20
6.996248727704668
 10
45.79863615468767
 20
7.053110579592532
 10
45.67993411268779
 20
7.109376401510787
 10
45.56096530849038
 20
7.165068876017159
 10
45.44174168995221
 20
7.220210685669371
 10
45.32227520493002
 20
7.27482451302515
 10
45.20257780128058
 20
7.328933040642221
 10
45.08266142686065
 20
7.382558951078308
 10
44.962538029527
 20
7.435724926891135
 10
44.84221955713636
 20
7.48845365063843
 10
44.72171795754552
 20
7.540767804877915
 10
44.60104517861122
 20
7.592690072167316
 10
44.48021316819023
 20
7.64424313506436
 10
44.3592338741393
 20
7.695449676126769
 10
44.3592338741393
 20
7.695449676126769
 10
44.18177315888162
 20
7.768529441201709
 10
44.0042501041111
 20
7.841458581094677
 10
43.82661981854784
 20
7.914135181922404
 10
43.82661981854785
 20
7.914135181922405
 10
43.6784489607568
 20
7.974248459698046
 10
43.53006091619452
 20
8.033815786719566
 10
43.38149253531458
 20
8.092929629835202
 10
43.23278066857057
 20
8.151682455893189
 10
43.08396216641606
 20
8.210166731741761
 10
42.93507387930465
 20
8.268474924229154
 10
42.93507387930464
 20
8.268474924229151
 10
42.77195785870302
 20
8.33123463652674
 10
42.60862644653475
 20
8.393514446136324
 10
42.44508063242694
 20
8.455302099508738
 10
42.28132140600664
 20
8.516585343094821
 10
42.11734975690094
 20
8.577351923345405
 10
41.9531666747369
 20
8.63758958671133
 10
41.78877314914161
 20
8.697286079643431
 10
41.62417016974213
 20
8.756429148592545
 10
41.45935872616554
 20
8.815006540009507
 10
41.29433980803892
 20
8.873006000345156
 10
41.12911440498932
 20
8.930415276050327
 10
40.96368350664385
 20
8.987222113575855
 10
40.79804810262955
 20
9.043414259372577
 10
40.63220918257353
 20
9.09897945989133
 10
40.46616773610282
 20
9.153905461582949
 10
40.29992475284453
 20
9.208180010898272
 10
40.13348122242571
 20
9.261790854288134
 10
39.96683813447346
 20
9.314725738203373
 10
39.79999647861482
 20
9.366972409094824
 10
39.63295724447689
 20
9.418518613413322
 10
39.46572142168674
 20
9.469352097609705
 10
39.29828999987144
 20
9.51946060813481
 10
39.13066396865806
 20
9.568831891439472
 10
39.13066396865806
 20
9.568831891439476
 10
39.0030493615955
 20
9.605885019515238
 10
38.8752924384678
 20
9.642519075182047
 10
38.74739476874177
 20
9.678727205199324
 10
38.61935792188424
 20
9.714502556326491
 10
38.491183467362
 20
9.749838275322971
 10
38.36287297464187
 20
9.784727508948186
 10
38.23442801319067
 20
9.819163403961558
 10
38.10585015247519
 20
9.85313910712251
 10
37.97714096196226
 20
9.886647765190462
 10
37.84830201111868
 20
9.919682524924835
 10
37.71933486941126
 20
9.952236533085056
 10
37.59024110630682
 20
9.984302936430543
 10
37.46102229127215
 20
10.01587488172072
 10
37.33167999377409
 20
10.046945515715
 10
37.20221578327944
 20
10.07750798517282
 10
37.072631229255
 20
10.1075554368536
 10
36.94292790116759
 20
10.13708101751675
 10
36.81310736848401
 20
10.1660778739217
 10
36.68317120067109
 20
10.19453915282787
 10
36.55312096719563
 20
10.22245800099469
 10
36.42295823752444
 20
10.24982756518157
 10
36.29268458112433
 20
10.27664099214794
 10
36.16230156746212
 20
10.30289142865322
 10
36.03181076600461
 20
10.32857202145682
 10
35.90121374621862
 20
10.35367591731819
 10
35.77051207757094
 20
10.37819626299672
 10
35.63970732952841
 20
10.40212620525186
 10
35.50880107155782
 20
10.42545889084301
 10
35.377794873126
 20
10.44818746652961
 10
35.24669030369973
 20
10.47030507907107
 10
35.11548893274585
 20
10.49180487522682
 10
34.98419232973116
 20
10.51268000175627
 10
34.85280206412247
 20
10.53292360541886
 10
34.72131970538658
 20
10.55252883297399
 10
34.58974682299033
 20
10.5714888311811
 10
34.45808498640051
 20
10.5897967467996
 10
34.32633576508393
 20
10.60744572658892
 10
34.1945007285074
 20
10.62442891730849
 10
34.06258144613774
 20
10.64073946571771
 10
33.93057948744176
 20
10.65637051857602
 10
33.79849642188626
 20
10.67131522264283
 10
33.66633381893807
 20
10.68556672467757
 10
33.53409324806398
 20
10.69911817143967
 10
33.40177627873081
 20
10.71196270968853
 10
33.26938448040537
 20
10.72409348618359
 10
33.13691942255447
 20
10.73550364768427
 10
33.00438267464492
 20
10.74618634094998
 10
32.87177580614354
 20
10.75613471274015
 10
32.73910038651713
 20
10.76534190981421
 10
32.60635798523251
 20
10.77380107893157
 10
32.47355017175648
 20
10.78150536685166
 10
32.34067851555585
 20
10.78844792033389
 10
32.20774458609744
 20
10.7946218861377
 10
32.20774458609743
 20
10.79462188613769
 10
32.08693828525369
 20
10.79955228553593
 10
31.96612347176017
 20
10.80382528526116
 10
31.84530276561273
 20
10.80743748895608
 10
31.72447878680724
 20
10.81038550026341
 10
31.60365415533954
 20
10.81266592282585
 10
31.4828314912055
 20
10.8142753602861
 10
31.36201341440096
 20
10.81521041628686
 10
31.24120254492179
 20
10.81546769447084
 10
31.12040150276384
 20
10.81504379848075
 10
30.99961290792297
 20
10.81393533195928
 10
30.87883938039503
 20
10.81213889854915
 10
30.75808354017588
 20
10.80965110189305
 10
30.63734800726137
 20
10.8064685456337
 10
30.51663540164736
 20
10.80258783341379
 10
30.39594834332972
 20
10.79800556887603
 10
30.27528945230428
 20
10.79271835566313
 10
30.15466134856691
 20
10.78672279741778
 10
30.03406665211347
 20
10.7800154977827
 10
29.91350798293981
 20
10.77259306040059
 10
29.79298796104179
 20
10.76445208891414
 10
29.67250920641525
 20
10.75558918696607
 10
29.55207433905607
 20
10.74600095819909
 10
29.43168597896009
 20
10.73568400625588
 10
29.31134674612317
 20
10.72463493477917
 10
29.19105926054117
 20
10.71285034741165
 10
29.19105926054117
 20
10.71285034741165
 10
29.0688898618614
 20
10.70011357029094
 10
28.9468124899866
 20
10.6866052725766
 10
28.82483134878596
 20
10.67232588293566
 10
28.70295064212871
 20
10.65727583003517
 10
28.58117457388405
 20
10.64145554254214
 10
28.45950734792121
 20
10.62486544912363
 10
28.33795316810938
 20
10.60750597844665
 10
28.21651623831778
 20
10.58937755917825
 10
28.09520076241563
 20
10.57048061998547
 10
27.97401094427214
 20
10.55081558953532
 10
27.85295098775652
 20
10.53038289649486
 10
27.73202509673797
 20
10.50918296953111
 10
27.61123747508572
 20
10.4872162373111
 10
27.49059232666898
 20
10.46448312850188
 10
27.37009385535696
 20
10.44098407177048
 10
27.24974626501886
 20
10.41671949578392
 10
27.12955375952391
 20
10.39168982920925
 10
27.00952054274131
 20
10.36589550071349
 10
26.88965081854028
 20
10.33933693896369
 10
26.76994879079003
 20
10.31201457262688
 10
26.65041866335977
 20
10.28392883037009
 10
26.53106464011872
 20
10.25508014086035
 10
26.41189092493608
 20
10.2254689327647
 10
26.29290172168107
 20
10.19509563475018
 10
26.17410123422289
 20
10.16396067548382
 10
26.1741012342229
 20
10.16396067548382
 10
26.05776870787454
 20
10.13268579109488
 10
25.94163987673048
 20
10.10068939297345
 10
25.8257172703089
 20
10.06797590517112
 10
25.71000341812801
 20
10.03454975173948
 10
25.59450084970598
 20
10.00041535673013
 10
25.47921209456099
 20
9.965577144194684
 10
25.36413968221126
 20
9.930039538184718
 10
25.24928614217495
 20
9.893806962751838
 10
25.13465400397026
 20
9.85688384194764
 10
25.02024579711538
 20
9.819274599823721
 10
24.9060640511285
 20
9.780983660431678
 10
24.79211129552781
 20
9.742015447823108
 10
24.67839005983149
 20
9.70237438604961
 10
24.56490287355773
 20
9.66206489916278
 10
24.45165226622473
 20
9.621091411214216
 10
24.33864076735066
 20
9.579458346255515
 10
24.22587090645373
 20
9.537170128338273
 10
24.11334521305212
 20
9.494231181514088
 10
24.00106621666402
 20
9.450645929834557
 10
23.88903644680761
 20
9.406418797351278
 10
23.77725843300109
 20
9.361554208115848
 10
23.66573470476264
 20
9.316056586179863
 10
23.55446779161046
 20
9.269930355594922
 10
23.44346022306273
 20
9.223179940412622
 10
23.44346022306273
 20
9.223179940412626
 10
23.33301511526954
 20
9.175932761271024
 10
23.22284299697119
 20
9.128069917020459
 10
23.11294146735426
 20
9.07960153610203
 10
23.0033081256053
 20
9.030537746956838
 10
22.89394057091088
 20
8.980888678025982
 10
22.78483640245757
 20
8.930664457750561
 10
22.67599321943192
 20
8.879875214571676
 10
22.56740862102051
 20
8.828531076930426
 10
22.45908020640989
 20
8.77664217326791
 10
22.35100557478663
 20
8.72421863202523
 10
22.24318232533729
 20
8.671270581643485
 10
22.13560805724844
 20
8.617808150563774
 10
22.02828036970664
 20
8.563841467227199
 10
22.02828036970663
 20
8.563841467227204
 10
21.9186108552942
 20
8.507967873902721
 10
21.80927656634647
 20
8.451460332787835
 10
21.7002660643821
 20
8.394343587195251
 10
21.59156791091976
 20
8.336642380437673
 10
21.48317066747809
 20
8.278381455827808
 10
21.37506289557577
 20
8.21958555667836
 10
21.26723315673144
 20
8.160279426302032
 10
21.15967001246376
 20
8.100487808011532
 10
21.0523620242914
 20
8.040235445119563
 10
20.94529775373301
 20
7.97954708093883
 10
20.83846576230724
 20
7.918447458782039
 10
20.73185461153277
 20
7.856961321961894
 10
20.62545286292824
 20
7.7951134137911
  0
LWPOLYLINE
  5
260
330
1F
100
AcDbEntity
  8
Vector Layer 1
 62
    18
420
        0
370
    30
100
AcDbPolyline
 90
      254
 70
     0
 43
0.0
 10
74.0965461244389
 20
4.062700149898256
 10
74.03913146643225
 20
4.108918237215436
 10
73.98137204690795
 20
4.154735491527735
 10
73.92335865778886
 20
4.200267641363696
 10
73.92335865778886
 20
4.200267641363695
 10
73.81658529255329
 20
4.2832480842675
 10
73.70934709987583
 20
4.365611975760366
 10
73.60164764164784
 20
4.447358182791762
 10
73.49349047976073
 20
4.528485572311157
 10
73.38487917610582
 20
4.608993011268019
 10
73.27581729257452
 20
4.688879366611817
 10
73.16630839105819
 20
4.76814350529202
 10
73.05635603344821
 20
4.846784294258096
 10
72.94596378163594
 20
4.924800600459515
 10
72.83513519751275
 20
5.002191290845744
 10
72.72387384297002
 20
5.078955232366253
 10
72.61218327989912
 20
5.15509129197051
 10
72.50006707019143
 20
5.230598336607984
 10
72.38752877573832
 20
5.305475233228143
 10
72.27457195843114
 20
5.379720848780457
 10
72.16120018016129
 20
5.453334050214393
 10
72.04741700282013
 20
5.526313704479421
 10
71.93322598829903
 20
5.598658678525009
 10
71.81863069848936
 20
5.670367839300626
 10
71.7036346952825
 20
5.741440053755741
 10
71.58824154056983
 20
5.811874188839821
 10
71.4724547962427
 20
5.881669111502336
 10
71.3562780241925
 20
5.950823688692755
 10
71.2397147863106
 20
6.019336787360547
 10
71.23971478631054
 20
6.019336787360545
 10
71.1275550264742
 20
6.084443010438453
 10
71.01506560717549
 20
6.148947942032311
 10
70.90225288981971
 20
6.212862222754109
 10
70.78912323581214
 20
6.276196493215835
 10
70.67568300655811
 20
6.338961394029478
 10
70.56193856346292
 20
6.401167565807025
 10
70.44789626793184
 20
6.462825649160464
 10
70.33356248137019
 20
6.523946284701784
 10
70.21894356518328
 20
6.584540113042972
 10
70.1040458807764
 20
6.644617774796017
 10
69.98887578955484
 20
6.704189910572907
 10
69.87343965292392
 20
6.76326716098563
 10
69.75774383228894
 20
6.821860166646173
 10
69.75774383228894
 20
6.821860166646173
 10
69.64022831764676
 20
6.880646203789213
 10
69.52239824938001
 20
6.93876816328947
 10
69.40426557534546
 20
6.996248727704668
 10
69.28584224339985
 20
7.053110579592532
 10
69.16714020139997
 20
7.109376401510787
 10
69.04817139720255
 20
7.165068876017159
 10
68.92894777866437
 20
7.220210685669371
 10
68.80948129364218
 20
7.27482451302515
 10
68.68978388999273
 20
7.328933040642221
 10
68.56986751557281
 20
7.382558951078308
 10
68.44974411823915
 20
7.435724926891135
 10
68.32942564584851
 20
7.48845365063843
 10
68.20892404625768
 20
7.540767804877915
 10
68.08825126732338
 20
7.592690072167316
 10
67.9674192569024
 20
7.64424313506436
 10
67.84643996285149
 20
7.695449676126769
 10
67.84643996285149
 20
7.695449676126769
 10
67.66897924759378
 20
7.768529441201701
 10
67.49145619282322
 20
7.841458581094663
 10
67.31382590725992
 20
7.914135181922399
 10
67.31382590725992
 20
7.9141351819224
 10
67.16565504946885
 20
7.974248459698048
 10
67.01726700490656
 20
8.033815786719573
 10
66.86869862402661
 20
8.092929629835209
 10
66.7199867572826
 20
8.151682455893194
 10
66.57116825512808
 20
8.210166731741763
 10
66.42227996801667
 20
8.268474924229153
 10
66.42227996801665
 20
8.268474924229151
 10
66.25916394741501
 20
8.33123463652674
 10
66.09583253524675
 20
8.393514446136324
 10
65.93228672113895
 20
8.455302099508738
 10
65.76852749471867
 20
8.516585343094821
 10
65.60455584561298
 20
8.577351923345405
 10
65.44037276344894
 20
8.63758958671133
 10
65.27597923785366
 20
8.697286079643431
 10
65.1113762584542
 20
8.756429148592545
 10
64.94656481487763
 20
8.815006540009507
 10
64.78154589675103
 20
8.873006000345156
 10
64.61632049370145
 20
8.930415276050327
 10
64.45088959535599
 20
8.987222113575855
 10
64.28525419134171
 20
9.043414259372577
 10
64.11941527128568
 20
9.09897945989133
 10
63.953373824815
 20
9.153905461582949
 10
63.78713084155672
 20
9.208180010898272
 10
63.62068731113792
 20
9.261790854288134
 10
63.45404422318567
 20
9.314725738203373
 10
63.28720256732705
 20
9.366972409094824
 10
63.12016333318913
 20
9.418518613413322
 10
62.95292751039898
 20
9.469352097609705
 10
62.78549608858368
 20
9.51946060813481
 10
62.6178700573703
 20
9.568831891439472
 10
62.61787005737031
 20
9.568831891439476
 10
62.49025545030775
 20
9.605885019515238
 10
62.36249852718005
 20
9.642519075182047
 10
62.23460085745403
 20
9.678727205199324
 10
62.1065640105965
 20
9.714502556326491
 10
61.97838955607426
 20
9.749838275322971
 10
61.85007906335414
 20
9.784727508948186
 10
61.72163410190293
 20
9.819163403961558
 10
61.59305624118746
 20
9.85313910712251
 10
61.46434705067452
 20
9.886647765190462
 10
61.33550809983095
 20
9.919682524924835
 10
61.20654095812352
 20
9.952236533085056
 10
61.07744719501909
 20
9.984302936430543
 10
60.94822837998442
 20
10.01587488172072
 10
60.81888608248636
 20
10.046945515715
 10
60.68942187199171
 20
10.07750798517282
 10
60.55983731796727
 20
10.1075554368536
 10
60.43013398987986
 20
10.13708101751675
 10
60.30031345719629
 20
10.1660778739217
 10
60.17037728938337
 20
10.19453915282787
 10
60.04032705590791
 20
10.22245800099469
 10
59.91016432623672
 20
10.24982756518157
 10
59.77989066983661
 20
10.27664099214794
 10
59.64950765617439
 20
10.30289142865322
 10
59.51901685471688
 20
10.32857202145682
 10
59.38841983493088
 20
10.35367591731819
 10
59.25771816628321
 20
10.37819626299672
 10
59.12691341824068
 20
10.40212620525186
 10
58.99600716027009
 20
10.42545889084301
 10
58.86500096183826
 20
10.44818746652961
 10
58.73389639241199
 20
10.47030507907107
 10
58.60269502145811
 20
10.49180487522682
 10
58.47139841844342
 20
10.51268000175627
 10
58.34000815283472
 20
10.53292360541886
 10
58.20852579409883
 20
10.55252883297399
 10
58.07695291170258
 20
10.5714888311811
 10
57.94529107511276
 20
10.5897967467996
 10
57.81354185379617
 20
10.60744572658892
 10
57.68170681721965
 20
10.62442891730849
 10
57.54978753484999
 20
10.64073946571771
 10
57.41778557615401
 20
10.65637051857602
 10
57.2857025105985
 20
10.67131522264283
 10
57.15353990765031
 20
10.68556672467757
 10
57.02129933677621
 20
10.69911817143967
 10
56.88898236744305
 20
10.71196270968853
 10
56.75659056911761
 20
10.72409348618359
 10
56.62412551126671
 20
10.73550364768427
 10
56.49158876335715
 20
10.74618634094998
 10
56.35898189485577
 20
10.75613471274015
 10
56.22630647522936
 20
10.76534190981421
 10
56.09356407394474
 20
10.77380107893157
 10
55.96075626046871
 20
10.78150536685166
 10
55.82788460426808
 20
10.78844792033389
 10
55.69495067480967
 20
10.7946218861377
 10
55.69495067480966
 20
10.79462188613769
 10
55.57414437396595
 20
10.79955228553593
 10
55.45332956047247
 20
10.80382528526116
 10
55.33250885432508
 20
10.80743748895608
 10
55.2116848755196
 20
10.81038550026341
 10
55.09086024405194
 20
10.81266592282585
 10
54.97003757991791
 20
10.8142753602861
 10
54.84921950311339
 20
10.81521041628686
 10
54.72840863363424
 20
10.81546769447084
 10
54.60760759147629
 20
10.81504379848075
 10
54.48681899663543
 20
10.81393533195928
 10
54.36604546910749
 20
10.81213889854915
 10
54.24528962888834
 20
10.80965110189305
 10
54.12455409597383
 20
10.8064685456337
 10
54.00384149035982
 20
10.80258783341379
 10
53.88315443204216
 20
10.79800556887603
 10
53.76249554101672
 20
10.79271835566313
 10
53.64186743727934
 20
10.78672279741778
 10
53.52127274082589
 20
10.7800154977827
 10
53.40071407165222
 20
10.77259306040059
 10
53.28019404975418
 20
10.76445208891414
 10
53.15971529512765
 20
10.75558918696607
 10
53.03928042776846
 20
10.74600095819909
 10
52.91889206767247
 20
10.73568400625588
 10
52.79855283483554
 20
10.72463493477917
 10
52.67826534925354
 20
10.71285034741165
 10
52.67826534925352
 20
10.71285034741165
 10
52.55609595057373
 20
10.70011357029094
 10
52.43401857869891
 20
10.6866052725766
 10
52.31203743749826
 20
10.67232588293566
 10
52.19015673084101
 20
10.65727583003517
 10
52.06838066259634
 20
10.64145554254214
 10
51.94671343663348
 20
10.62486544912363
 10
51.82515925682166
 20
10.60750597844665
 10
51.70372232703006
 20
10.58937755917825
 10
51.58240685112792
 20
10.57048061998547
 10
51.46121703298444
 20
10.55081558953532
 10
51.34015707646882
 20
10.53038289649486
 10
51.21923118545028
 20
10.50918296953111
 10
51.09844356379804
 20
10.4872162373111
 10
50.9777984153813
 20
10.46448312850188
 10
50.85729994406929
 20
10.44098407177048
 10
50.73695235373121
 20
10.41671949578392
 10
50.61675984823627
 20
10.39168982920925
 10
50.49672663145369
 20
10.36589550071349
 10
50.37685690725266
 20
10.33933693896369
 10
50.25715487950242
 20
10.31201457262688
 10
50.13762475207217
 20
10.28392883037009
 10
50.01827072883113
 20
10.25508014086035
 10
49.89909701364849
 20
10.2254689327647
 10
49.78010781039349
 20
10.19509563475018
 10
49.66130732293532
 20
10.16396067548382
 10
49.66130732293533
 20
10.16396067548382
 10
49.54497479658695
 20
10.13268579109488
 10
49.42884596544288
 20
10.10068939297345
 10
49.3129233590213
 20
10.06797590517112
 10
49.19720950684038
 20
10.03454975173948
 10
49.08170693841834
 20
10.00041535673013
 10
48.96641818327335
 20
9.965577144194684
 10
48.85134577092361
 20
9.930039538184718
 10
48.7364922308873
 20
9.893806962751838
 10
48.6218600926826
 20
9.85688384194764
 10
48.50745188582772
 20
9.819274599823721
 10
48.39327013984084
 20
9.780983660431678
 10
48.27931738424013
 20
9.742015447823108
 10
48.16559614854381
 20
9.70237438604961
 10
48.05210896227006
 20
9.66206489916278
 10
47.93885835493704
 20
9.621091411214216
 10
47.82584685606297
 20
9.579458346255515
 10
47.71307699516604
 20
9.537170128338273
 10
47.60055130176443
 20
9.494231181514088
 10
47.48827230537632
 20
9.450645929834557
 10
47.37624253551991
 20
9.406418797351278
 10
47.26446452171338
 20
9.361554208115848
 10
47.15294079347493
 20
9.316056586179863
 10
47.04167388032273
 20
9.269930355594922
 10
46.930666311775
 20
9.223179940412622
 10
46.93066631177497
 20
9.223179940412626
 10
46.82022120398181
 20
9.175932761271024
 10
46.71004908568349
 20
9.128069917020459
 10
46.60014755606657
 20
9.07960153610203
 10
46.49051421431763
 20
9.030537746956838
 10
46.38114665962321
 20
8.980888678025982
 10
46.2720424911699
 20
8.930664457750561
 10
46.16319930814425
 20
8.879875214571676
 10
46.05461470973283
 20
8.828531076930426
 10
45.94628629512221
 20
8.77664217326791
 10
45.83821166349894
 20
8.72421863202523
 10
45.73038841404959
 20
8.671270581643485
 10
45.62281414596074
 20
8.617808150563774
 10
45.51548645841894
 20
8.563841467227199
 10
45.51548645841894
 20
8.563841467227204
 10
45.40581694400651
 20
8.507967873902721
 10
45.29648265505878
 20
8.451460332787835
 10
45.18747215309441
 20
8.394343587195251
 10
45.07877399963208
 20
8.336642380437673
 10
44.97037675619043
 20
8.278381455827808
 10
44.8622689842881
 20
8.21958555667836
 10
44.75443924544378
 20
8.160279426302032
 10
44.64687610117611
 20
8.100487808011532
 10
44.53956811300375
 20
8.040235445119563
 10
44.43250384244535
 20
7.97954708093883
 10
44.32567185101959
 20
7.918447458782039
 10
44.21906070024511
 20
7.856961321961894
 10
44.11265895164056
 20
7.7951134137911
  0
LWPOLYLINE
  5
261
330
1F
100
AcDbEntity
  8
Vector Layer 1
 62
    18
420
        0
370
    30
100
AcDbPolyline
 90
       62
 70
     0
 43
0.0
 10
74.0965461244389
 20
10.39004648287878
 10
73.97744978782561
 20
10.36443131459551
 10
73.85851490595111
 20
10.33805786110677
 10
73.73974535823378
 20
10.31092732820943
 10
73.62114502409198
 20
10.28304092170035
 10
73.50271778294409
 20
10.25439984737638
 10
73.38446751420845
 20
10.2250053110344
 10
73.26639809730345
 20
10.19485851847126
 10
73.14851341164746
 20
10.16396067548382
 10
73.14851341164747
 20
10.16396067548382
 10
73.03218088529909
 20
10.13268579109488
 10
72.91605205415503
 20
10.10068939297345
 10
72.80012944773345
 20
10.06797590517112
 10
72.68441559555255
 20
10.03454975173948
 10
72.5689130271305
 20
10.00041535673013
 10
72.45362427198552
 20
9.965577144194684
 10
72.33855185963577
 20
9.930039538184718
 10
72.22369831959946
 20
9.893806962751838
 10
72.10906618139478
 20
9.85688384194764
 10
71.9946579745399
 20
9.819274599823721
 10
71.88047622855302
 20
9.780983660431678
 10
71.76652347295233
 20
9.742015447823108
 10
71.65280223725601
 20
9.70237438604961
 10
71.53931505098225
 20
9.66206489916278
 10
71.42606444364925
 20
9.621091411214216
 10
71.31305294477519
 20
9.579458346255515
 10
71.20028308387826
 20
9.537170128338273
 10
71.08775739047665
 20
9.494231181514088
 10
70.97547839408855
 20
9.450645929834557
 10
70.86344862423215
 20
9.406418797351278
 10
70.75167061042562
 20
9.361554208115848
 10
70.64014688218716
 20
9.316056586179863
 10
70.52887996903497
 20
9.269930355594922
 10
70.41787240048724
 20
9.223179940412622
 10
70.41787240048724
 20
9.223179940412626
 10
70.30742729269405
 20
9.175932761271024
 10
70.19725517439574
 20
9.128069917020459
 10
70.08735364477883
 20
9.07960153610203
 10
69.97772030302989
 20
9.030537746956838
 10
69.86835274833549
 20
8.980888678025982
 10
69.7592485798822
 20
8.930664457750561
 10
69.65040539685656
 20
8.879875214571676
 10
69.54182079844514
 20
8.828531076930426
 10
69.43349238383452
 20
8.77664217326791
 10
69.32541775221124
 20
8.72421863202523
 10
69.21759450276185
 20
8.671270581643485
 10
69.11002023467294
 20
8.617808150563774
 10
69.00269254713106
 20
8.563841467227199
 10
69.00269254713105
 20
8.563841467227204
 10
68.89302303271861
 20
8.507967873902721
 10
68.78368874377091
 20
8.451460332787835
 10
68.67467824180656
 20
8.394343587195251
 10
68.56598008834424
 20
8.336642380437673
 10
68.45758284490262
 20
8.278381455827808
 10
68.34947507300032
 20
8.21958555667836
 10
68.24164533415602
 20
8.160279426302032
 10
68.13408218988837
 20
8.100487808011532
 10
68.02677420171604
 20
8.040235445119563
 10
67.91970993115765
 20
7.97954708093883
 10
67.81287793973189
 20
7.918447458782039
 10
67.70626678895741
 20
7.856961321961894
 10
67.59986504035286
 20
7.7951134137911
  0
ENDSEC
  0
SECTION
  2
OBJECTS
  0
DICTIONARY
  5
C
330
0
100
AcDbDictionary
281
     1
  3
ACAD_CIP_PREVIOUS_PRODUCT_INFO
350
216
  3
ACAD_COLOR
350
6B
  3
ACAD_DETAILVIEWSTYLE
350
21B
  3
ACAD_GROUP
350
D
  3
ACAD_LAYOUT
350
1A
  3
ACAD_MATERIAL
350
6A
  3
ACAD_MLEADERSTYLE
350
12D
  3
ACAD_MLINESTYLE
350
17
  3
ACAD_PLOTSETTINGS
350
19
  3
ACAD_PLOTSTYLENAME
350
E
  3
ACAD_SCALELIST
350
10C
  3
ACAD_SECTIONVIEWSTYLE
350
219
  3
ACAD_TABLESTYLE
350
7E
  3
ACAD_VISUALSTYLE
350
EF
  3
ACDB_RECOMPOSE_DATA
350
264
  3
AcDbVariableDictionary
350
5E
  3
AcDsDecomposeData
350
26A
  0
DICTIONARY
  5
1FF
330
2
100
AcDbDictionary
280
     1
281
     1
  3
ACAD_LAYERSTATES
360
200
  0
DICTIONARY
  5
13C
330
10
100
AcDbDictionary
280
     1
281
     1
  0
DICTIONARY
  5
1CE
330
1F
100
AcDbDictionary
280
     1
281
     1
  0
XRECORD
  5
216
102
{ACAD_REACTORS
330
C
102
}
330
C
100
AcDbXrecord
280
     1
300
ACD
300
2015
300

  0
DICTIONARY
  5
6B
102
{ACAD_REACTORS
330
C
102
}
330
C
100
AcDbDictionary
281
     1
  0
DICTIONARY
  5
21B
102
{ACAD_REACTORS
330
C
102
}
330
C
100
AcDbDictionary
281
     1
  3
Metric50
350
21C
  0
DICTIONARY
  5
D
102
{ACAD_REACTORS
330
C
102
}
330
C
100
AcDbDictionary
281
     1
  0
DICTIONARY
  5
1A
102
{ACAD_REACTORS
330
C
102
}
330
C
100
AcDbDictionary
281
     1
  3
Layout1
350
D3
  3
Layout2
350
D7
  3
Model
350
22
  0
DICTIONARY
  5
6A
102
{ACAD_REACTORS
330
C
102
}
330
C
100
AcDbDictionary
281
     1
  3
ByBlock
350
ED
  3
ByLayer
350
EC
  3
Global
350
EE
  0
DICTIONARY
  5
12D
102
{ACAD_REACTORS
330
C
102
}
330
C
100
AcDbDictionary
281
     1
  3
Annotative
350
13B
  3
Standard
350
12E
  0
DICTIONARY
  5
17
102
{ACAD_REACTORS
330
C
102
}
330
C
100
AcDbDictionary
281
     1
  3
Standard
350
18
  0
DICTIONARY
  5
19
102
{ACAD_REACTORS
330
C
102
}
330
C
100
AcDbDictionary
281
     1
  0
ACDBDICTIONARYWDFLT
  5
E
102
{ACAD_REACTORS
330
C
102
}
330
C
100
AcDbDictionary
281
     1
  3
Normal
350
F
100
AcDbDictionaryWithDefault
340
F
  0
DICTIONARY
  5
10C
102
{ACAD_REACTORS
330
C
102
}
330
C
100
AcDbDictionary
281
     1
  3
A0
350
10D
  3
A1
350
1BE
  3
A2
350
1BF
  3
A3
350
1C0
  3
A4
350
1C1
  3
A5
350
1C2
  3
A6
350
1C3
  3
A7
350
1C4
  3
A8
350
1C5
  3
A9
350
1C6
  3
B0
350
1C7
  3
B1
350
1C8
  3
B2
350
1C9
  3
B3
350
1CA
  3
B4
350
1CB
  3
B5
350
1CC
  3
B6
350
1CD
  0
DICTIONARY
  5
219
102
{ACAD_REACTORS
330
C
102
}
330
C
100
AcDbDictionary
281
     1
  3
Metric50
350
21A
  0
DICTIONARY
  5
7E
102
{ACAD_REACTORS
330
C
102
}
330
C
100
AcDbDictionary
281
     1
  3
Standard
350
7F
  0
DICTIONARY
  5
EF
102
{ACAD_REACTORS
330
C
102
}
330
C
100
AcDbDictionary
281
     1
  3
2dWireframe
350
F5
  3
Basic
350
F4
  3
Brighten
350
FB
  3
ColorChange
350
FF
  3
Conceptual
350
F8
  3
Dim
350
FA
  3
EdgeColorOff
350
1E6
  3
Facepattern
350
FE
  3
Flat
350
F0
  3
FlatWithEdges
350
F1
  3
Gouraud
350
F2
  3
GouraudWithEdges
350
F3
  3
Hidden
350
F7
  3
JitterOff
350
1E4
  3
Linepattern
350
FD
  3
OverhangOff
350
1E5
  3
Realistic
350
F9
  3
Shaded
350
1F3
  3
Shaded with edges
350
1F2
  3
Shades of Gray
350
1EF
  3
Sketchy
350
1F0
  3
Thicken
350
FC
  3
Wireframe
350
F6
  3
X-Ray
350
1F1
  0
XRECORD
  5
264
102
{ACAD_REACTORS
330
C
102
}
330
C
100
AcDbXrecord
280
     1
 90
        1
330
7F
  0
DICTIONARY
  5
5E
102
{ACAD_REACTORS
330
C
102
}
330
C
100
AcDbDictionary
281
     1
  3
CANNOSCALE
350
146
  3
CMLEADERSTYLE
350
145
  3
CTABLESTYLE
350
84
  3
CVIEWDETAILSTYLE
350
227
  3
CVIEWSECTIONSTYLE
350
228
  3
DIMASSOC
350
5F
  3
HIDETEXT
350
63
  3
LAYEREVAL
350
1AE
  3
LAYERNOTIFY
350
1AF
  3
XCLIPFRAME
350
262
  0
DICTIONARY
  5
26A
102
{ACAD_REACTORS
330
C
102
}
330
C
100
AcDbDictionary
281
     1
  3
AcDsRecords
350
26C
  3
AcDsSchemas
350
26B
1001
ACAD
1070
     2
  0
DICTIONARY
  5
200
102
{ACAD_REACTORS
330
1FF
102
}
330
1FF
100
AcDbDictionary
281
     1
  0
ACDBDETAILVIEWSTYLE
  5
21C
102
{ACAD_XDICTIONARY
360
236
102
}
102
{ACAD_REACTORS
330
21B
102
}
330
21B
100
AcDbModelDocViewStyle
 70
     0
  3
Metric50
290
     0
100
AcDbDetailViewStyle
 70
     0
 71
     0
 90
        3
 71
     1
340
11
 62
   256
 40
5.0
340
0
 62
   256
 40
5.0
300

 40
0.0
280
     1
 71
     2
340
16
 90
       25
 62
   256
 71
     3
340
11
 62
   256
 40
5.0
 90
        0
 40
15.0
 90
        1
300
%<\AcVar ViewDetailId>% (%<\AcVar ViewScale \f "%sn">%)
 71
     4
340
16
 90
       25
 62
   256
340
16
 90
       25
 62
   256
280
     0
  0
LAYOUT
  5
D3
102
{ACAD_REACTORS
330
1A
102
}
330
1A
100
AcDbPlotSettings
  1

  2
C:\Documents and Settings\basas\Application Data\Autodesk\AutoCAD 2005\R16.1\enu\plotters\Default Windows System Printer.pc3
  4

  6

 40
0.0
 41
0.0
 42
0.0
 43
0.0
 44
0.0
 45
0.0
 46
0.0
 47
0.0
 48
0.0
 49
0.0
140
0.0
141
0.0
142
1.0
143
1.0
 70
   688
 72
     0
 73
     0
 74
     5
  7

 75
    16
147
1.0
 76
     0
 77
     2
 78
   300
148
0.0
149
0.0
100
AcDbLayout
  1
Layout1
 70
     1
 71
     1
 10
0.0
 20
0.0
 11
12.0
 21
9.0
 12
0.0
 22
0.0
 32
0.0
 14
0.0
 24
0.0
 34
0.0
 15
0.0
 25
0.0
 35
0.0
146
0.0
 13
0.0
 23
0.0
 33
0.0
 16
1.0
 26
0.0
 36
0.0
 17
0.0
 27
1.0
 37
0.0
 76
     0
330
D2
  0
LAYOUT
  5
D7
102
{ACAD_REACTORS
330
1A
102
}
330
1A
100
AcDbPlotSettings
  1

  2
C:\Documents and Settings\basas\Application Data\Autodesk\AutoCAD 2005\R16.1\enu\plotters\Default Windows System Printer.pc3
  4

  6

 40
0.0
 41
0.0
 42
0.0
 43
0.0
 44
0.0
 45
0.0
 46
0.0
 47
0.0
 48
0.0
 49
0.0
140
0.0
141
0.0
142
1.0
143
1.0
 70
   688
 72
     0
 73
     0
 74
     5
  7

 75
    16
147
1.0
 76
     0
 77
     2
 78
   300
148
0.0
149
0.0
100
AcDbLayout
  1
Layout2
 70
     1
 71
     2
 10
0.0
 20
0.0
 11
12.0
 21
9.0
 12
0.0
 22
0.0
 32
0.0
 14
0.0
 24
0.0
 34
0.0
 15
0.0
 25
0.0
 35
0.0
146
0.0
 13
0.0
 23
0.0
 33
0.0
 16
1.0
 26
0.0
 36
0.0
 17
0.0
 27
1.0
 37
0.0
 76
     0
330
D6
  0
LAYOUT
  5
22
102
{ACAD_XDICTIONARY
360
205
102
}
102
{ACAD_REACTORS
330
1A
102
}
330
1A
100
AcDbPlotSettings
  1

  2
none_device
  4
ISO_A4_(210.00_x_297.00_MM)
  6

 40
7.5
 41
20.0
 42
7.5
 43
20.0
 44
210.0
 45
297.0
 46
11.54999923706054
 47
-13.65000009536743
 48
0.0
 49
0.0
140
0.0
141
0.0
142
1.0
143
8.704084754739808
 70
 11952
 72
     1
 73
     0
 74
     0
  7

 75
     0
147
0.1148885871608098
 76
     0
 77
     2
 78
   300
148
0.0
149
0.0
100
AcDbLayout
  1
Model
 70
     1
 71
     0
 10
0.0
 20
0.0
 11
12.0
 21
9.0
 12
0.0
 22
0.0
 32
0.0
 14
0.0
 24
0.0
 34
0.0
 15
0.0
 25
0.0
 35
0.0
146
0.0
 13
0.0
 23
0.0
 33
0.0
 16
1.0
 26
0.0
 36
0.0
 17
0.0
 27
1.0
 37
0.0
 76
     0
330
1F
331
EA
1001
ACAD_PSEXT
1000
None
1000
None
1000
Not applicable
1000
The layout will not be plotted unless a new plotter configuration name is selected.
1070
     0
  0
MATERIAL
  5
ED
102
{ACAD_XDICTIONARY
360
1F9
102
}
102
{ACAD_REACTORS
330
6A
102
}
330
6A
100
AcDbMaterial
  1
ByBlock
 94
       63
  0
MATERIAL
  5
EC
102
{ACAD_XDICTIONARY
360
1F7
102
}
102
{ACAD_REACTORS
330
6A
102
}
330
6A
100
AcDbMaterial
  1
ByLayer
 94
       63
  0
MATERIAL
  5
EE
102
{ACAD_XDICTIONARY
360
173
102
}
102
{ACAD_REACTORS
330
6A
102
}
330
6A
100
AcDbMaterial
  1
Global
 43
0.0007999999797903
 43
0.0
 43
0.0
 43
0.0
 43
0.0
 43
0.0007999999797903
 43
0.0
 43
0.0
 43
0.0
 43
0.0
 43
1.0
 43
0.0
 43
0.0
 43
0.0
 43
0.0
 43
1.0
 49
0.0007999999797903
 49
0.0
 49
0.0
 49
0.0
 49
0.0
 49
0.0007999999797903
 49
0.0
 49
0.0
 49
0.0
 49
0.0
 49
1.0
 49
0.0
 49
0.0
 49
0.0
 49
0.0
 49
1.0
142
0.0007999999797903
142
0.0
142
0.0
142
0.0
142
0.0
142
0.0007999999797903
142
0.0
142
0.0
142
0.0
142
0.0
142
1.0
142
0.0
142
0.0
142
0.0
142
0.0
142
1.0
144
0.0007999999797903
144
0.0
144
0.0
144
0.0
144
0.0
144
0.0007999999797903
144
0.0
144
0.0
144
0.0
144
0.0
144
1.0
144
0.0
144
0.0
144
0.0
144
0.0
144
1.0
 94
       63
1001
ACAD
1070
    -1
1070
     3
1070
     0
1000

1071
        0
1070
     0
  0
MLEADERSTYLE
  5
13B
102
{ACAD_REACTORS
330
12D
102
}
330
12D
100
AcDbMLeaderStyle
170
     2
171
     1
172
     0
 90
        2
 40
0.0
 41
0.0
173
     1
 91
-1056964608
340
14
 92
       -2
290
     1
 42
2.0
291
     1
 43
8.0
  3
Standard
 44
4.0
300

342
11
174
     1
178
     1
175
     1
176
     0
 93
-1056964608
 45
4.0
292
     0
297
     0
 46
4.0
 94
-1056964608
 47
1.0
 49
1.0
140
1.0
293
     1
141
0.0
294
     1
177
     0
142
1.0
295
     0
296
     1
143
3.75
1001
ACAD_MLEADERVER
1070
     2
  0
MLEADERSTYLE
  5
12E
102
{ACAD_REACTORS
330
12D
102
}
330
12D
100
AcDbMLeaderStyle
170
     2
171
     1
172
     0
 90
        2
 40
0.0
 41
0.0
173
     1
 91
-1056964608
340
14
 92
       -2
290
     1
 42
2.0
291
     1
 43
8.0
  3
Standard
 44
4.0
300

342
11
174
     1
178
     1
175
     1
176
     0
 93
-1056964608
 45
4.0
292
     0
297
     0
 46
4.0
 94
-1056964608
 47
1.0
 49
1.0
140
1.0
293
     1
141
0.0
294
     1
177
     0
142
1.0
295
     0
296
     0
143
3.75
1001
ACAD_MLEADERVER
1070
     2
  0
MLINESTYLE
  5
18
102
{ACAD_REACTORS
330
17
102
}
330
17
100
AcDbMlineStyle
  2
STANDARD
 70
     0
  3

 62
   256
 51
90.0
 52
90.0
 71
     2
 49
0.5
 62
   256
  6
BYLAYER
 49
-0.5
 62
   256
  6
BYLAYER
  0
ACDBPLACEHOLDER
  5
F
102
{ACAD_REACTORS
330
E
102
}
330
E
  0
SCALE
  5
10D
102
{ACAD_REACTORS
330
10C
102
}
330
10C
100
AcDbScale
 70
     0
300
1:1
140
1.0
141
1.0
290
     1
  0
SCALE
  5
1BE
102
{ACAD_REACTORS
330
10C
102
}
330
10C
100
AcDbScale
 70
     0
300
1:2
140
1.0
141
2.0
290
     0
  0
SCALE
  5
1BF
102
{ACAD_REACTORS
330
10C
102
}
330
10C
100
AcDbScale
 70
     0
300
1:4
140
1.0
141
4.0
290
     0
  0
SCALE
  5
1C0
102
{ACAD_REACTORS
330
10C
102
}
330
10C
100
AcDbScale
 70
     0
300
1:5
140
1.0
141
5.0
290
     0
  0
SCALE
  5
1C1
102
{ACAD_REACTORS
330
10C
102
}
330
10C
100
AcDbScale
 70
     0
300
1:8
140
1.0
141
8.0
290
     0
  0
SCALE
  5
1C2
102
{ACAD_REACTORS
330
10C
102
}
330
10C
100
AcDbScale
 70
     0
300
1:10
140
1.0
141
10.0
290
     0
  0
SCALE
  5
1C3
102
{ACAD_REACTORS
330
10C
102
}
330
10C
100
AcDbScale
 70
     0
300
1:16
140
1.0
141
16.0
290
     0
  0
SCALE
  5
1C4
102
{ACAD_REACTORS
330
10C
102
}
330
10C
100
AcDbScale
 70
     0
300
1:20
140
1.0
141
20.0
290
     0
  0
SCALE
  5
1C5
102
{ACAD_REACTORS
330
10C
102
}
330
10C
100
AcDbScale
 70
     0
300
1:30
140
1.0
141
30.0
290
     0
  0
SCALE
  5
1C6
102
{ACAD_REACTORS
330
10C
102
}
330
10C
100
AcDbScale
 70
     0
300
1:40
140
1.0
141
40.0
290
     0
  0
SCALE
  5
1C7
102
{ACAD_REACTORS
330
10C
102
}
330
10C
100
AcDbScale
 70
     0
300
1:50
140
1.0
141
50.0
290
     0
  0
SCALE
  5
1C8
102
{ACAD_REACTORS
330
10C
102
}
330
10C
100
AcDbScale
 70
     0
300
1:100
140
1.0
141
100.0
290
     0
  0
SCALE
  5
1C9
102
{ACAD_REACTORS
330
10C
102
}
330
10C
100
AcDbScale
 70
     0
300
2:1
140
2.0
141
1.0
290
     0
  0
SCALE
  5
1CA
102
{ACAD_REACTORS
330
10C
102
}
330
10C
100
AcDbScale
 70
     0
300
4:1
140
4.0
141
1.0
290
     0
  0
SCALE
  5
1CB
102
{ACAD_REACTORS
330
10C
102
}
330
10C
100
AcDbScale
 70
     0
300
8:1
140
8.0
141
1.0
290
     0
  0
SCALE
  5
1CC
102
{ACAD_REACTORS
330
10C
102
}
330
10C
100
AcDbScale
 70
     0
300
10:1
140
10.0
141
1.0
290
     0
  0
SCALE
  5
1CD
102
{ACAD_REACTORS
330
10C
102
}
330
10C
100
AcDbScale
 70
     0
300
100:1
140
100.0
141
1.0
290
     0
  0
ACDBSECTIONVIEWSTYLE
  5
21A
102
{ACAD_XDICTIONARY
360
234
102
}
102
{ACAD_REACTORS
330
219
102
}
330
219
100
AcDbModelDocViewStyle
 70
     0
  3
Metric50
290
     0
100
AcDbSectionViewStyle
 70
     0
 71
     0
 90
      102
 71
     1
340
11
 62
   256
 40
5.0
340
0
340
0
 62
   256
 40
5.0
300
I, O, Q, S, X, Z
 40
10.0
 90
        0
 40
2.5
 90
        0
 71
     2
340
16
 90
       25
 62
   256
340
16
 90
       50
 62
   256
 40
5.0
 40
2.5
 40
5.0
 71
     3
340
11
 62
   256
 40
5.0
 90
        0
 40
15.0
 90
        1
300
%<\AcVar ViewSectionStartId>%-%<\AcVar ViewSectionEndId>% (%<\AcVar ViewScale \f "%sn">%)
 71
     4
 62
   256
 62
   257
300
ANSI31
 40
1.0
 90
        0
290
     0
290
     0
 90
        6
 40
0.0
 40
1.570796326794896
 40
0.2617993877991494
 40
1.308996938995747
 40
-0.2617993877991494
 40
1.832595714594046
  0
TABLESTYLE
  5
7F
102
{ACAD_XDICTIONARY
360
162
102
}
102
{ACAD_REACTORS
330
7E
102
}
330
7E
100
AcDbTableStyle
  3
Standard
 70
     0
 71
     0
 40
1.5
 41
1.5
280
     0
281
     0
  7
Standard
140
4.5
170
     2
 62
     0
 63
     7
283
     0
 90
      512
 91
        0
  1

274
    -2
284
     1
 64
     0
275
    -2
285
     1
 65
     0
276
    -2
286
     1
 66
     0
277
    -2
287
     1
 67
     0
278
    -2
288
     1
 68
     0
279
    -2
289
     1
 69
     0
  7
Standard
140
6.0
170
     5
 62
     0
 63
     7
283
     0
 90
      512
 91
        0
  1

274
    -2
284
     1
 64
     0
275
    -2
285
     1
 65
     0
276
    -2
286
     1
 66
     0
277
    -2
287
     1
 67
     0
278
    -2
288
     1
 68
     0
279
    -2
289
     1
 69
     0
  7
Standard
140
4.5
170
     5
 62
     0
 63
     7
283
     0
 90
      512
 91
        0
  1

274
    -2
284
     1
 64
     0
275
    -2
285
     1
 65
     0
276
    -2
286
     1
 66
     0
277
    -2
287
     1
 67
     0
278
    -2
288
     1
 68
     0
279
    -2
289
     1
 69
     0
  0
VISUALSTYLE
  5
F5
102
{ACAD_XDICTIONARY
360
277
102
}
102
{ACAD_REACTORS
330
EF
102
}
330
EF
100
AcDbVisualStyle
  2
2dWireframe
 70
     4
 71
     0
 72
     2
 73
     1
 90
        0
 40
-0.6
 41
-30.0
 62
     5
 63
     7
421
 16777215
 74
     1
 91
        4
 64
     7
 65
   257
 75
     1
175
     1
 42
1.0
 92
        0
 66
   257
 43
1.0
 76
     1
 77
     6
 78
     2
 67
     7
 79
     5
170
     0
171
     0
290
     0
174
     0
 93
        1
 44
0.0
173
     0
291
     0
 45
0.0
1001
ACAD
1000
AcDbSavedByObjectVersion
1070
     0
  0
VISUALSTYLE
  5
F4
102
{ACAD_XDICTIONARY
360
275
102
}
102
{ACAD_REACTORS
330
EF
102
}
330
EF
100
AcDbVisualStyle
  2
Basic
 70
     7
 71
     1
 72
     0
 73
     1
 90
        0
 40
-0.6
 41
-30.0
 62
     5
 63
     7
421
 16777215
 74
     0
 91
        4
 64
     7
 65
   257
 75
     1
175
     1
 42
1.0
 92
        8
 66
     7
 43
1.0
 76
     1
 77
     6
 78
     2
 67
     7
 79
     5
170
     0
171
     0
290
     0
174
     0
 93
        1
 44
0.0
173
     0
291
     1
 45
0.0
1001
ACAD
1000
AcDbSavedByObjectVersion
1070
     0
  0
VISUALSTYLE
  5
FB
102
{ACAD_XDICTIONARY
360
283
102
}
102
{ACAD_REACTORS
330
EF
102
}
330
EF
100
AcDbVisualStyle
  2
Brighten
 70
    12
 71
     2
 72
     2
 73
     1
 90
        0
 40
-0.6
 41
-30.0
 62
     5
 63
     7
421
 16777215
 74
     1
 91
        4
 64
     7
 65
   257
 75
     1
175
     1
 42
1.0
 92
        8
 66
     7
 43
1.0
 76
     1
 77
     6
 78
     2
 67
     7
 79
     5
170
     0
171
     0
290
     0
174
     0
 93
        1
 44
50.0
173
     0
291
     1
 45
0.0
1001
ACAD
1000
AcDbSavedByObjectVersion
1070
     0
  0
VISUALSTYLE
  5
FF
102
{ACAD_XDICTIONARY
360
28B
102
}
102
{ACAD_REACTORS
330
EF
102
}
330
EF
100
AcDbVisualStyle
  2
ColorChange
 70
    16
 71
     2
 72
     2
 73
     3
 90
        0
 40
-0.6
 41
-30.0
 62
     5
 63
     8
421
  8421504
 74
     1
 91
        4
 64
     7
 65
   257
 75
     1
175
     1
 42
1.0
 92
        8
 66
     8
424
  8421504
 43
1.0
 76
     1
 77
     6
 78
     2
 67
     7
 79
     5
170
     0
171
     0
290
     0
174
     0
 93
        1
 44
0.0
173
     0
291
     1
 45
0.0
1001
ACAD
1000
AcDbSavedByObjectVersion
1070
     0
  0
VISUALSTYLE
  5
F8
102
{ACAD_XDICTIONARY
360
27D
102
}
102
{ACAD_REACTORS
330
EF
102
}
330
EF
100
AcDbVisualStyle
  2
Conceptual
 70
     9
 71
     3
 72
     2
 73
     1
 90
        0
 40
-0.6
 41
-30.0
 62
     5
 63
     7
421
 16777215
 74
     2
 91
        2
 64
     7
 65
   257
 75
     1
175
     1
 42
40.0
 92
        8
 66
     7
 43
1.0
 76
     1
 77
     6
 78
     2
 67
     7
 79
     3
170
     0
171
     0
290
     0
174
     0
 93
        1
 44
0.0
173
     0
291
     0
 45
0.0
1001
ACAD
1000
AcDbSavedByObjectVersion
1070
     0
  0
VISUALSTYLE
  5
FA
102
{ACAD_XDICTIONARY
360
281
102
}
102
{ACAD_REACTORS
330
EF
102
}
330
EF
100
AcDbVisualStyle
  2
Dim
 70
    11
 71
     2
 72
     2
 73
     1
 90
        0
 40
-0.6
 41
-30.0
 62
     5
 63
     7
421
 16777215
 74
     1
 91
        4
 64
     7
 65
   257
 75
     1
175
     1
 42
1.0
 92
        8
 66
     7
 43
1.0
 76
     1
 77
     6
 78
     2
 67
     7
 79
     5
170
     0
171
     0
290
     0
174
     0
 93
        1
 44
-50.0
173
     0
291
     1
 45
0.0
1001
ACAD
1000
AcDbSavedByObjectVersion
1070
     0
  0
VISUALSTYLE
  5
1E6
102
{ACAD_XDICTIONARY
360
291
102
}
102
{ACAD_REACTORS
330
EF
102
}
330
EF
100
AcDbVisualStyle
  2
EdgeColorOff
 70
    22
 71
     2
 72
     2
 73
     0
 90
        0
 40
-0.6
 41
-30.0
 62
     5
 63
     7
421
 16777215
 74
     1
 91
        4
 64
     7
 65
   257
 75
     1
175
     1
 42
1.0
 92
        8
 66
     7
 43
1.0
 76
     1
 77
     6
 78
     2
 67
     7
 79
     5
170
     0
171
     0
290
     0
174
     0
 93
        1
 44
0.0
173
     0
291
     1
 45
0.0
1001
ACAD
1000
AcDbSavedByObjectVersion
1070
     0
  0
VISUALSTYLE
  5
FE
102
{ACAD_XDICTIONARY
360
289
102
}
102
{ACAD_REACTORS
330
EF
102
}
330
EF
100
AcDbVisualStyle
  2
Facepattern
 70
    15
 71
     2
 72
     2
 73
     1
 90
        0
 40
-0.6
 41
-30.0
 62
     5
 63
     7
421
 16777215
 74
     1
 91
        4
 64
     7
 65
   257
 75
     1
175
     1
 42
1.0
 92
        8
 66
     7
 43
1.0
 76
     1
 77
     6
 78
     2
 67
     7
 79
     5
170
     0
171
     0
290
     0
174
     0
 93
        1
 44
0.0
173
     0
291
     1
 45
0.0
1001
ACAD
1000
AcDbSavedByObjectVersion
1070
     0
  0
VISUALSTYLE
  5
F0
102
{ACAD_XDICTIONARY
360
26D
102
}
102
{ACAD_REACTORS
330
EF
102
}
330
EF
100
AcDbVisualStyle
  2
Flat
 70
     0
 71
     2
 72
     1
 73
     1
 90
        2
 40
-0.6
 41
30.0
 62
     5
 63
     7
421
 16777215
 74
     0
 91
        0
 64
     7
 65
   257
 75
     1
175
     1
 42
1.0
 92
        8
 66
     7
 43
1.0
 76
     1
 77
     6
 78
     2
 67
     7
 79
     5
170
     0
171
     0
290
     0
174
     0
 93
       13
 44
0.0
173
     0
291
     1
 45
0.0
1001
ACAD
1000
AcDbSavedByObjectVersion
1070
     0
  0
VISUALSTYLE
  5
F1
102
{ACAD_XDICTIONARY
360
26F
102
}
102
{ACAD_REACTORS
330
EF
102
}
330
EF
100
AcDbVisualStyle
  2
FlatWithEdges
 70
     1
 71
     2
 72
     1
 73
     1
 90
        2
 40
-0.6
 41
30.0
 62
     5
 63
     7
421
 16777215
 74
     1
 91
        0
 64
     7
 65
   257
 75
     1
175
     1
 42
1.0
 92
        0
 66
   257
 43
1.0
 76
     1
 77
     6
 78
     2
 67
     7
 79
     5
170
     0
171
     0
290
     0
174
     0
 93
       13
 44
0.0
173
     0
291
     1
 45
0.0
1001
ACAD
1000
AcDbSavedByObjectVersion
1070
     0
  0
VISUALSTYLE
  5
F2
102
{ACAD_XDICTIONARY
360
271
102
}
102
{ACAD_REACTORS
330
EF
102
}
330
EF
100
AcDbVisualStyle
  2
Gouraud
 70
     2
 71
     2
 72
     2
 73
     1
 90
        2
 40
-0.6
 41
30.0
 62
     5
 63
     7
421
 16777215
 74
     0
 91
        0
 64
     7
 65
   257
 75
     1
175
     1
 42
1.0
 92
        0
 66
     7
 43
1.0
 76
     1
 77
     6
 78
     2
 67
     7
 79
     5
170
     0
171
     0
290
     0
174
     0
 93
       13
 44
0.0
173
     0
291
     1
 45
0.0
1001
ACAD
1000
AcDbSavedByObjectVersion
1070
     0
  0
VISUALSTYLE
  5
F3
102
{ACAD_XDICTIONARY
360
273
102
}
102
{ACAD_REACTORS
330
EF
102
}
330
EF
100
AcDbVisualStyle
  2
GouraudWithEdges
 70
     3
 71
     2
 72
     2
 73
     1
 90
        2
 40
-0.6
 41
30.0
 62
     5
 63
     7
421
 16777215
 74
     1
 91
        0
 64
     7
 65
   257
 75
     1
175
     1
 42
1.0
 92
        0
 66
   257
 43
1.0
 76
     1
 77
     6
 78
     2
 67
     7
 79
     5
170
     0
171
     0
290
     0
174
     0
 93
       13
 44
0.0
173
     0
291
     1
 45
0.0
1001
ACAD
1000
AcDbSavedByObjectVersion
1070
     0
  0
VISUALSTYLE
  5
F7
102
{ACAD_XDICTIONARY
360
27B
102
}
102
{ACAD_REACTORS
330
EF
102
}
330
EF
100
AcDbVisualStyle
  2
Hidden
 70
     6
 71
     1
 72
     2
 73
     2
 90
        0
 40
-0.6
 41
-30.0
 62
     5
 63
     7
421
 16777215
 74
     2
 91
        2
 64
     7
 65
   257
 75
     2
175
     1
 42
40.0
 92
        0
 66
   257
 43
1.0
 76
     1
 77
     6
 78
     2
 67
     7
 79
     3
170
     0
171
     0
290
     0
174
     0
 93
        1
 44
0.0
173
     0
291
     0
 45
0.0
1001
ACAD
1000
AcDbSavedByObjectVersion
1070
     0
  0
VISUALSTYLE
  5
1E4
102
{ACAD_XDICTIONARY
360
28D
102
}
102
{ACAD_REACTORS
330
EF
102
}
330
EF
100
AcDbVisualStyle
  2
JitterOff
 70
    20
 71
     2
 72
     2
 73
     0
 90
        0
 40
-0.6
 41
-30.0
 62
     5
 63
     7
421
 16777215
 74
     1
 91
        4
 64
     7
 65
   257
 75
     1
175
     1
 42
1.0
 92
       10
 66
     7
 43
1.0
 76
     1
 77
     6
 78
     2
 67
     7
 79
     5
170
     0
171
     0
290
     0
174
     0
 93
        1
 44
0.0
173
     0
291
     1
 45
0.0
1001
ACAD
1000
AcDbSavedByObjectVersion
1070
     0
  0
VISUALSTYLE
  5
FD
102
{ACAD_XDICTIONARY
360
287
102
}
102
{ACAD_REACTORS
330
EF
102
}
330
EF
100
AcDbVisualStyle
  2
Linepattern
 70
    14
 71
     2
 72
     2
 73
     1
 90
        0
 40
-0.6
 41
-30.0
 62
     5
 63
     7
421
 16777215
 74
     1
 91
        4
 64
     7
 65
   257
 75
     7
175
     7
 42
1.0
 92
        8
 66
     7
 43
1.0
 76
     1
 77
     6
 78
     2
 67
     7
 79
     5
170
     0
171
     0
290
     0
174
     0
 93
        1
 44
0.0
173
     0
291
     1
 45
0.0
1001
ACAD
1000
AcDbSavedByObjectVersion
1070
     0
  0
VISUALSTYLE
  5
1E5
102
{ACAD_XDICTIONARY
360
28F
102
}
102
{ACAD_REACTORS
330
EF
102
}
330
EF
100
AcDbVisualStyle
  2
OverhangOff
 70
    21
 71
     2
 72
     2
 73
     0
 90
        0
 40
-0.6
 41
-30.0
 62
     5
 63
     7
421
 16777215
 74
     1
 91
        4
 64
     7
 65
   257
 75
     1
175
     1
 42
1.0
 92
        9
 66
     7
 43
1.0
 76
     1
 77
     6
 78
     2
 67
     7
 79
     5
170
     0
171
     0
290
     0
174
     0
 93
        1
 44
0.0
173
     0
291
     1
 45
0.0
1001
ACAD
1000
AcDbSavedByObjectVersion
1070
     0
  0
VISUALSTYLE
  5
F9
102
{ACAD_XDICTIONARY
360
27F
102
}
102
{ACAD_REACTORS
330
EF
102
}
330
EF
100
AcDbVisualStyle
  2
Realistic
 70
     8
 71
     2
 72
     3
 73
     0
 90
        2
 40
-0.6
 41
30.0
 62
     5
 63
     7
421
 16777215
 74
     0
 91
        0
 64
     7
 65
   257
 75
     1
175
     1
 42
1.0
 92
        8
 66
   257
 43
1.0
 76
     1
 77
     6
 78
     2
 67
     7
 79
     3
170
     0
171
     0
290
     0
174
     0
 93
       13
 44
0.0
173
     0
291
     0
 45
0.0
1001
ACAD
1000
AcDbSavedByObjectVersion
1070
     0
  0
VISUALSTYLE
  5
1F3
102
{ACAD_XDICTIONARY
360
29B
102
}
102
{ACAD_REACTORS
330
EF
102
}
330
EF
100
AcDbVisualStyle
  2
Shaded
 70
    27
 71
     2
 72
     2
 73
     1
 90
        2
 40
-0.6
 41
30.0
 62
     5
 63
     7
421
 16777215
 74
     0
 91
        4
 64
     7
 65
   257
 75
     1
175
     1
 42
1.0
 92
        8
 66
   257
 43
1.0
 76
     1
 77
     6
 78
     2
 67
     8
425
  7895160
 79
     3
170
     0
171
     0
290
     0
174
     0
 93
        5
 44
0.0
173
     0
291
     0
 45
0.0
1001
ACAD
1000
AcDbSavedByObjectVersion
1070
     0
  0
VISUALSTYLE
  5
1F2
102
{ACAD_XDICTIONARY
360
299
102
}
102
{ACAD_REACTORS
330
EF
102
}
330
EF
100
AcDbVisualStyle
  2
Shaded with edges
 70
    26
 71
     2
 72
     2
 73
     1
 90
        2
 40
-0.6
 41
30.0
 62
     5
 63
     7
421
 16777215
 74
     1
 91
       10
 64
     7
 65
   257
 75
     2
175
     1
 42
1.0
 92
        8
 66
   257
 43
1.0
 76
     1
 77
     6
 78
     2
 67
     7
 79
     3
170
     0
171
     0
290
     0
174
     0
 93
        5
 44
0.0
173
     0
291
     0
 45
0.0
1001
ACAD
1000
AcDbSavedByObjectVersion
1070
     0
  0
VISUALSTYLE
  5
1EF
102
{ACAD_XDICTIONARY
360
293
102
}
102
{ACAD_REACTORS
330
EF
102
}
330
EF
100
AcDbVisualStyle
  2
Shades of Gray
 70
    23
 71
     2
 72
     2
 73
     3
 90
        0
 40
-0.6
 41
-30.0
 62
     5
 63
     7
421
 16777215
 74
     2
 91
        2
 64
     7
 65
     7
 75
     1
175
     1
 42
40.0
 92
        8
 66
     7
 43
1.0
 76
     1
 77
     6
 78
     2
 67
     7
 79
     3
170
     0
171
     0
290
     0
174
     0
 93
        1
 44
0.0
173
     0
291
     0
 45
0.0
1001
ACAD
1000
AcDbSavedByObjectVersion
1070
     0
  0
VISUALSTYLE
  5
1F0
102
{ACAD_XDICTIONARY
360
295
102
}
102
{ACAD_REACTORS
330
EF
102
}
330
EF
100
AcDbVisualStyle
  2
Sketchy
 70
    24
 71
     1
 72
     2
 73
     2
 90
        0
 40
-0.6
 41
-30.0
 62
     5
 63
     7
421
 16777215
 74
     2
 91
        2
 64
     7
 65
     7
 75
     1
175
     1
 42
40.0
 92
       11
 66
     7
 43
1.0
 76
     1
 77
     6
 78
     2
 67
     7
 79
     6
170
     0
171
     0
290
     0
174
     0
 93
        1
 44
0.0
173
     0
291
     0
 45
0.0
1001
ACAD
1000
AcDbSavedByObjectVersion
1070
     0
  0
VISUALSTYLE
  5
FC
102
{ACAD_XDICTIONARY
360
285
102
}
102
{ACAD_REACTORS
330
EF
102
}
330
EF
100
AcDbVisualStyle
  2
Thicken
 70
    13
 71
     2
 72
     2
 73
     1
 90
        0
 40
-0.6
 41
-30.0
 62
     5
 63
     7
421
 16777215
 74
     1
 91
        4
 64
     7
 65
   257
 75
     1
175
     1
 42
1.0
 92
       12
 66
     7
 43
1.0
 76
     1
 77
     6
 78
     2
 67
     7
 79
     5
170
     0
171
     0
290
     0
174
     0
 93
        1
 44
0.0
173
     0
291
     1
 45
0.0
1001
ACAD
1000
AcDbSavedByObjectVersion
1070
     0
  0
VISUALSTYLE
  5
F6
102
{ACAD_XDICTIONARY
360
279
102
}
102
{ACAD_REACTORS
330
EF
102
}
330
EF
100
AcDbVisualStyle
  2
Wireframe
 70
     5
 71
     0
 72
     2
 73
     0
 90
        0
 40
-0.6
 41
-30.0
 62
     5
 63
     7
421
 16777215
 74
     1
 91
        4
 64
     7
 65
   257
 75
     1
175
     1
 42
1.0
 92
        0
 66
   257
 43
1.0
 76
     1
 77
     6
 78
     2
 67
     7
 79
     3
170
     0
171
     0
290
     0
174
     0
 93
        1
 44
0.0
173
     0
291
     0
 45
0.0
1001
ACAD
1000
AcDbSavedByObjectVersion
1070
     0
  0
VISUALSTYLE
  5
1F1
102
{ACAD_XDICTIONARY
360
297
102
}
102
{ACAD_REACTORS
330
EF
102
}
330
EF
100
AcDbVisualStyle
  2
X-Ray
 70
    25
 71
     2
 72
     2
 73
     1
 90
        1
 40
0.5
 41
-30.0
 62
     5
 63
     7
421
 16777215
 74
     1
 91
        0
 64
     7
 65
   257
 75
     1
175
     1
 42
1.0
 92
        8
 66
     7
 43
1.0
 76
     1
 77
     6
 78
     2
 67
     7
 79
     3
170
     0
171
     0
290
     0
174
     0
 93
       13
 44
0.0
173
     0
291
     0
 45
0.0
1001
ACAD
1000
AcDbSavedByObjectVersion
1070
     0
  0
DICTIONARYVAR
  5
146
102
{ACAD_REACTORS
330
5E
102
}
330
5E
100
DictionaryVariables
280
     0
  1
1:1
  0
DICTIONARYVAR
  5
145
102
{ACAD_REACTORS
330
5E
102
}
330
5E
100
DictionaryVariables
280
     0
  1
STANDARD
  0
DICTIONARYVAR
  5
84
102
{ACAD_REACTORS
330
5E
102
}
330
5E
100
DictionaryVariables
280
     0
  1
STANDARD
  0
DICTIONARYVAR
  5
227
102
{ACAD_REACTORS
330
5E
102
}
330
5E
100
DictionaryVariables
280
     0
  1
Metric50
  0
DICTIONARYVAR
  5
228
102
{ACAD_REACTORS
330
5E
102
}
330
5E
100
DictionaryVariables
280
     0
  1
Metric50
  0
DICTIONARYVAR
  5
5F
102
{ACAD_REACTORS
330
5E
102
}
330
5E
100
DictionaryVariables
280
     0
  1
2
  0
DICTIONARYVAR
  5
63
102
{ACAD_REACTORS
330
5E
102
}
330
5E
100
DictionaryVariables
280
     0
  1
1
  0
DICTIONARYVAR
  5
1AE
102
{ACAD_REACTORS
330
5E
102
}
330
5E
100
DictionaryVariables
280
     0
  1
0
  0
DICTIONARYVAR
  5
1AF
102
{ACAD_REACTORS
330
5E
102
}
330
5E
100
DictionaryVariables
280
     0
  1
0
  0
DICTIONARYVAR
  5
262
102
{ACAD_REACTORS
330
5E
102
}
330
5E
100
DictionaryVariables
280
     0
  1
2
  0
DICTIONARY
  5
26C
102
{ACAD_REACTORS
330
26A
102
}
330
26A
100
AcDbDictionary
281
     1
  0
DICTIONARY
  5
26B
102
{ACAD_REACTORS
330
26A
102
}
330
26A
100
AcDbDictionary
281
     1
  3
140689245494864
350
265
  3
140689245494880
350
266
  3
140689245494896
350
267
  3
140689245494912
350
268
  3
140689245494928
350
269
  0
DICTIONARY
  5
236
330
21C
100
AcDbDictionary
280
     1
281
     1
  3
ACAD_XREC_ROUNDTRIP
360
29E
  0
DICTIONARY
  5
205
330
22
100
AcDbDictionary
280
     1
281
     1
  0
DICTIONARY
  5
1F9
330
ED
100
AcDbDictionary
280
     1
281
     1
  3
FBXASSET
360
1FA
  0
DICTIONARY
  5
1F7
330
EC
100
AcDbDictionary
280
     1
281
     1
  3
FBXASSET
360
1F8
  0
DICTIONARY
  5
173
330
EE
100
AcDbDictionary
280
     1
281
     1
  3
BUMPTILE
360
175
  3
DIFFUSETILE
360
174
  3
FBXASSET
360
1FB
  3
OPACITYTILE
360
176
  3
REFLECTIONTILE
360
177
  0
DICTIONARY
  5
234
330
21A
100
AcDbDictionary
280
     1
281
     1
  3
ACAD_XREC_ROUNDTRIP
360
29D
  0
DICTIONARY
  5
162
330
7F
100
AcDbDictionary
280
     1
281
     1
  3
ACAD_ROUNDTRIP_2008_TABLESTYLE_CELLSTYLEMAP
360
263
  0
DICTIONARY
  5
277
330
F5
100
AcDbDictionary
280
     1
281
     1
  3
ACAD_XREC_ROUNDTRIP
360
278
  0
DICTIONARY
  5
275
330
F4
100
AcDbDictionary
280
     1
281
     1
  3
ACAD_XREC_ROUNDTRIP
360
276
  0
DICTIONARY
  5
283
330
FB
100
AcDbDictionary
280
     1
281
     1
  3
ACAD_XREC_ROUNDTRIP
360
284
  0
DICTIONARY
  5
28B
330
FF
100
AcDbDictionary
280
     1
281
     1
  3
ACAD_XREC_ROUNDTRIP
360
28C
  0
DICTIONARY
  5
27D
330
F8
100
AcDbDictionary
280
     1
281
     1
  3
ACAD_XREC_ROUNDTRIP
360
27E
  0
DICTIONARY
  5
281
330
FA
100
AcDbDictionary
280
     1
281
     1
  3
ACAD_XREC_ROUNDTRIP
360
282
  0
DICTIONARY
  5
291
330
1E6
100
AcDbDictionary
280
     1
281
     1
  3
ACAD_XREC_ROUNDTRIP
360
292
  0
DICTIONARY
  5
289
330
FE
100
AcDbDictionary
280
     1
281
     1
  3
ACAD_XREC_ROUNDTRIP
360
28A
  0
DICTIONARY
  5
26D
330
F0
100
AcDbDictionary
280
     1
281
     1
  3
ACAD_XREC_ROUNDTRIP
360
26E
  0
DICTIONARY
  5
26F
330
F1
100
AcDbDictionary
280
     1
281
     1
  3
ACAD_XREC_ROUNDTRIP
360
270
  0
DICTIONARY
  5
271
330
F2
100
AcDbDictionary
280
     1
281
     1
  3
ACAD_XREC_ROUNDTRIP
360
272
  0
DICTIONARY
  5
273
330
F3
100
AcDbDictionary
280
     1
281
     1
  3
ACAD_XREC_ROUNDTRIP
360
274
  0
DICTIONARY
  5
27B
330
F7
100
AcDbDictionary
280
     1
281
     1
  3
ACAD_XREC_ROUNDTRIP
360
27C
  0
DICTIONARY
  5
28D
330
1E4
100
AcDbDictionary
280
     1
281
     1
  3
ACAD_XREC_ROUNDTRIP
360
28E
  0
DICTIONARY
  5
287
330
FD
100
AcDbDictionary
280
     1
281
     1
  3
ACAD_XREC_ROUNDTRIP
360
288
  0
DICTIONARY
  5
28F
330
1E5
100
AcDbDictionary
280
     1
281
     1
  3
ACAD_XREC_ROUNDTRIP
360
290
  0
DICTIONARY
  5
27F
330
F9
100
AcDbDictionary
280
     1
281
     1
  3
ACAD_XREC_ROUNDTRIP
360
280
  0
DICTIONARY
  5
29B
330
1F3
100
AcDbDictionary
280
     1
281
     1
  3
ACAD_XREC_ROUNDTRIP
360
29C
  0
DICTIONARY
  5
299
330
1F2
100
AcDbDictionary
280
     1
281
     1
  3
ACAD_XREC_ROUNDTRIP
360
29A
  0
DICTIONARY
  5
293
330
1EF
100
AcDbDictionary
280
     1
281
     1
  3
ACAD_XREC_ROUNDTRIP
360
294
  0
DICTIONARY
  5
295
330
1F0
100
AcDbDictionary
280
     1
281
     1
  3
ACAD_XREC_ROUNDTRIP
360
296
  0
DICTIONARY
  5
285
330
FC
100
AcDbDictionary
280
     1
281
     1
  3
ACAD_XREC_ROUNDTRIP
360
286
  0
DICTIONARY
  5
279
330
F6
100
AcDbDictionary
280
     1
281
     1
  3
ACAD_XREC_ROUNDTRIP
360
27A
  0
DICTIONARY
  5
297
330
1F1
100
AcDbDictionary
280
     1
281
     1
  3
ACAD_XREC_ROUNDTRIP
360
298
  0
XRECORD
  5
265
102
{ACAD_REACTORS
330
26B
102
}
330
26B
100
AcDbXrecord
280
     1
  1
AcDb_Thumbnail_Schema
102
{ATTRRECORD
341
266
  2
AcDbDs::TreatedAsObjectData
280
     1
291
     1
102
ATTRRECORD}
102
{ATTRRECORD
341
267
  2
AcDbDs::Legacy
280
     1
291
     1
102
ATTRRECORD}
  2
AcDbDs::ID
280
    10
 91
        8
102
{ATTRRECORD
341
268
  2
AcDs:Indexable
280
     1
291
     1
102
ATTRRECORD}
102
{ATTRRECORD
341
269
  2
AcDbDs::HandleAttribute
280
     7
282
     1
102
ATTRRECORD}
  2
Thumbnail_Data
280
    15
 91
        0
  0
XRECORD
  5
266
102
{ACAD_REACTORS
330
26B
102
}
330
26B
100
AcDbXrecord
280
     1
  1
AcDbDs::TreatedAsObjectDataSchema
  2
AcDbDs::TreatedAsObjectData
280
     1
 91
        0
  0
XRECORD
  5
267
102
{ACAD_REACTORS
330
26B
102
}
330
26B
100
AcDbXrecord
280
     1
  1
AcDbDs::LegacySchema
  2
AcDbDs::Legacy
280
     1
 91
        0
  0
XRECORD
  5
268
102
{ACAD_REACTORS
330
26B
102
}
330
26B
100
AcDbXrecord
280
     1
  1
AcDbDs::IndexedPropertySchema
  2
AcDs:Indexable
280
     1
 91
        0
  0
XRECORD
  5
269
102
{ACAD_REACTORS
330
26B
102
}
330
26B
100
AcDbXrecord
280
     1
  1
AcDbDs::HandleAttributeSchema
  2
AcDbDs::HandleAttribute
280
     7
 91
        1
284
     1
  0
XRECORD
  5
29E
102
{ACAD_REACTORS
330
236
102
}
330
236
100
AcDbXrecord
280
     1
102
DISPLAYNAME
  1
Metric50
102
FLAGS
 90
        0
  0
XRECORD
  5
1FA
102
{ACAD_REACTORS
330
1F9
102
}
330
1F9
100
AcDbXrecord
280
     1
 70
     1
 90
429727718
  1
D62C5603-E3A1-4AEA-B7FB-FE5D8D0755AF
310
504B03040A0000080000CC70623B3DEE336E79000000790000001B0000006175746F6465736B2D64657369676E2D7061636B6167652E786D6C3C3F786D6C2076657273696F6E3D22312E302220656E636F64696E673D227574662D3822203F3E3C666F726D6174733E3C666F726D61743E687474703A2F2F736368656D612E
310
6175746F6465736B2E636F6D2F64657369676E2D7061636B6167652F323030393C2F666F726D61743E3C2F666F726D6174733E504B0304140006080800CC70623BD486FD9CA0000000F4000000130000005B436F6E74656E745F54797065735D2E786D6C7D8EC10E82300C865F65E91D8A1E8C310C0EEA1BF002731658846E
310
D98AC1B77784ABF1D8FE5FBFBF75BBCE937A534CCEB38643598122B6FEE978D0B0485F9C41B54DDD7D022595594E1A469170414C76A4D9A4D207E29CF43ECE46F218070CC6BECC4078ACAA135ACF422C856C0E68EA1BF5669944DDD7BCDE7B1F8E415D77AECB980613C2E4AC91FC167A2B244592486606FC29C8FD7F045B9A
310
EF7053A7E60B504B0304140006080800CC70623B853B8169EB0000007C01000008000000636F72652E786D6C8D90416EC3201045AF62CDB6C206821CC7C244919D9CA01740401C94182C03558F5F9C3852BBEB6A467FFE9B197D7EFC9E1EC5975982F5AE035262288C535E5B377690E21535501C055FBC8FBF6C503839990E
310
5619041F179FE64D52DE45E362569DD7661365082642A11EB9E920A89B99642953CC8E702F67A9EE7234257977194EC9EAE275C4EABCCF5EAD5940D4AC6F0E35A568B8F43562CD7046CD199FD07E60174276A7BE677B5EADB0E0D14EEFFB6A31321A0D82627C4084204C3F096B71DD52F6819B16635EADF63F509AF53FA164
310
5DDCD1EDDD17164090FCC8732078B56691CB33A85CD7DCC40F504B0304140006080800CC70623B55019EA25F0000007C00000007000000636E782E786D6C4DCB3B0E80201045D1AD90E915ED2CF8AC45050C11660C8261F98AB1B07AC9C97D42D718D865D3E909258CFD00CCE24AC6E326A164D74DC0B4128928FF32603847
310
2BA13128B1252AC747C6BAB984FC68F0B87FE8960A5C09FE86CFB69FBA01504B0304140006080800CC70623BDBABAAF470010000D40300000C0000006662782F636F72652E786D6CC553D16E823014FD95A6AF4B694182CC941A83FA05FB810A9511A125A5257EFE2E82712ECEB8A7F100CD39F7F69E734AF9FADC366850B6
310
AF8DCE7018308C942E4C59EB2AC3DE1D498AD15A706B8CFB56869196ADCAF00863C12B6B7C374385D14E6907A836A59A41D9F7CA615434B0C8705F7CAA5606D23BA8E84F41278B93AC54100640439DE0BDB320004D43C63716C7C399D30917DCFBBA9CD9BA8469F5B156168B24CED3F7248AC8769F27244EB73B92EED8862C
310
B7F13E0C179B3C8F979C8ECD82BBBABDAA2BAC924E9558448CBD9330242CFA08E3154B5651FCC6D215639C8EE5774DBE2B5F6CF2B5768B68963BB5F5588420E442FC700B1139D4CB01F450C1E918227C2E09DF070D8140C84E1E9AAB8F1340832A9CB13130A5F1376A908D57309505ECF2A0DF179C4E9D30F5B239B87E3823
310
7A79C6F31DE1A8A5AEC08474B03C7837EAE4938639B44E5932B833D2C6B6B279CDC613877FA26EE21F4A2A4C63EC7F29A2F301D1F9F7A0E37D145F504B0304140006080800CC70623B9C113CC27E0000009D0000000B0000006662782F636E782E786D6C4DCCDF0A83201C86E15B91DFB94BFB330DD428C8FB886521330DA7
310
6397BF1A1DECE883878F57749FCDA1B7892F1BBC047A23808C7F84D9FA55424E0BE6803A256208E9EF06C84F9B91703228B1C690F78B66B34CD9A5439DF5CF0BFBF65E35BCA1B8D6A5C6F540381E886698B5741C695F9503EBA150A2F8958E3DC3EA0B504B0304140006080800CC70623B7DF2F77C2A010000120200003100
310
00006662782F41393633353835312D344632462D344230382D423046372D3739314545314133324237412F636F72652E786D6C8D51DB8EC22014FC15C2939B0D2DB4B45643319AE817EC0F6041255A68B86CFCFC856D4D76DF7CE190393373060EDB3DC707F856CE6B6B7A480A0C81328395DA5C7B18C3057510EC3873D686
310
3F34088C18550F330C39BB3A1BA7051AAC09CA84841A2BD5020AEF55806078A44B0FFD7053A328440C89E1EFC52486BBB8AA8214A99D789CF9E05200300FC927E4FB4D5B375D43103D5527440FB843077C5AA3F5861C8F645F5787F59E95B390B318B55CE45AA638FAA2957BD7248B390B7A7CC51F9C124149C82B8C378810
310
84AB2F42B7B8DD56F413775B8C5999E9FF4471926F8AA236A1AE96B8B3CC434E5839373893369E1FAF30EA395917409EB7F26AF8801C171837A4A6AC9C89E9F9C9B1A58BA30FD6A5EF5DDDCF894B9AD9B6A59C957943A9FCAE2FD5BC4DFE03504B0304140006080800CC70623BAD7543B64E01000033030000300000006662
310
782F41393633353835312D344632462D344230382D423046372D3739314545314133324237412F636E782E786D6CD593CD6EC32010845F0571AD6CE3D48AD20813A9873E410FBD12D82434182C7EAAE6EDBB2424CD25871E7B41D6EC30B3FA84F9E67BB2E40B4234DE8DB46F1925E094D7C6ED479AD3AE5951B2113C789FEE
310
6C943839C1488B4C05DF079FE72A69D8C96C13AAD6B8631503449F83828872B949AC57D26200B826A308D316B4064D6E46FCDA41C05550DC9E483A00797BFD207EFB092A45DE9514C1BBD22178396BD39D891265658C238DEA00936C654E5E433CB65A26D9F6EDB5EBC14EBF49A45CB856E66048291F6939A9A81BB5C89177
310
38143CA680F4AA299D66A042CEB3354A2684DC9D8D178FE0D9B8B41CAAD720F880EE7EF93C0C18769E099ECC04D5A102C8049A8A05632F4DDF376CF1DE0F6BB65C2F8627B65A33C6BB62177CEBBDAD973006829F89F22E814B54F4BC2BE347F8AA8F681390B50FA73F804400B5F542E796F19FF974E7F78DB802FE05E20750
310
4B0304140006080800CC70623BE75B7789680500003C100000340000006662782F41393633353835312D344632462D344230382D423046372D3739314545314133324237412F6F626A656374732E786D6CAD575B8F9B3818FD2B887D06C22499CB8AA1CA655245D5B455A356FB305264C061D8018C6C3393D95FBFC7600890
310
A4CD5EF210B0B1BFEBF98E3F7B1FF6596ABC522E1296DF9BAE3D320D9A872C4AF2F8DE2CE5CEBA358D0FBEC719939D65A691938CDE9B6ADAF4BD98B3B2D05311DD91329583D9D5FC0F438434A7A611A644887B5384CF34233629258BA878B12322891DEFF6B66BD70BFB62634E8AE781D082709A4B588AF91C528CDA28B73F
310
1C998EEF39EABBEFA97FBD6A7C7E9553F9D3D79FE442923C3C523610337627CB87ABE99D359D4CC6D6E4FACAB5E6ABF9D2726FC6A3C5F56271377BB88362213924694B38DD99FE47C48627A1E7D49F5A8BB5E1A74C0A599ED3B0F21F1E56366B89112D681E218F0915D0D6F17AD41FBA2A369DCF6335D62ABBD39779D5DDD1
310
11D4D8DE3CBB96B2E04FB8202E41051754A1AA8E8F76B4C6DFE810B580B1547F4B84911149794252234D024EF8BBE963A95AE27B3D310A9D5C215C7960FAEE415ED75694C6AFB17BCACA5D99A60A9AA65F217B0BFC53292ACB92BF283FAD0D3621576592CB5BED907C2FA8E9DF794E35E97BEA31BED21FEB401ABB94C44839
310
DCACBF0E1C5DA8DA5B2F4DFFD32AD86F543D9E565E7056502E157C00AD2671CD534549AB752FCA9CDA00677A313F04E51B22FF19E57B300579E3C97EB29F682D92935CEC18CF901B7B54FD8C51F362B56FC72FE0B3C1EAE335EDCCBF5AEC39ADB17DC238973F804BA5E6F6BFE7AF1FB32E523BE9F3BD571418E3631DCA4D48
310
5250CF639223210A9446CA30052EDF057BD35F8329C1ECD84552BF0DC8D18BE7BCE23BFE6BD960AB4A7DE79923A103BEBD80F911CBAA2C60DB19B01CF164A5583B772EE6D3FFA56666CBCDA74DC97724A48F9A58967497E489C4D979006FD7A05E227A1EBDD0F737C623387A9C844D3709995625106D157315F8B8392CD4E0
310
A0B9A720C4BE9829CEF37EA1E13111214D53925356365ADA634861B52519DD27A00AEB808EAF0628E6F435519D446F45CF2C9CF5214F0A15B2F6D06B79DA3EE3CBF7F56780D2F4E7EF73A0F5E5B02A38D07DC852C6B7C1FBB6664213E0C39E3EBA7FF4E1AD23EA2829407C85E586727488B751B2DB9502BC7B228A3FD68B6E
310
A65A22397E690AA8D158D7E404EC8CDA235CC3B7D1898680131CEC2CDF2638C65196279577750F15884AEE19F94199155B92B13297978469D4F8D358DF0AEF7631E28DC8F0D9F437D5D39A83B2231A1D52D543813A824EF8D44BCFF2FA6A31BD1E8DAD87F1CCB526B3879935BF59CDADD5C37479BB1CDD4CA7B3556B516589
310
EF352754B706114D9C885EC9131DE6EFEB43D99AFE2391C2F958179413D7CFEF6B1B6DB1E7600F00DE6E5C67454A339A4BA2E0FBA85ED26F045D454F463DBFCE484C2F90F2E5E3666003662ED8F755951A7D1BECD5B30B550B2785C8E7320B7292A4838DDA71BBC863ED7613CAF659337A3354231D4FF4A182A54904C2898C
310
98B28C4AD0CE056CCF332A80986E571EE9DBC305BB5FEB7E509220A58D25CF042D712A806AC0AD0C657FDEF80D2D9CEAA2EE4D1C76F60BFE74219A06527D6F82DF6412526107381E55E353090704D085B52408A8913C4ED159D79BDA71BB4BC506F4831350EB6F975CD22D69BF7AC49B91A2C0A9DDA3D5CA36AD20FC478E37
310
E61844E2352865EBCB61A275A65283CAAA9DD27703B4102F5AF51EF5F573B75CBB5AD38BC845F7A49F82A0966A49C2E3EA5EA0ECD326CD965F1DB402C6FA8B51A4658C5C5E2EC9E214602E55810345408596591009A82E7E7FFACA19EEA299B14A0081A705CB3296EBC14CDF658DCD336EA6D1136881AAEB87B81AB9EE53D5
310
F5EB8BC8362082DA24122F98680A4E7930C01A0079749CEA14382A0783E5EBA5A10F8C098456A03D6A4AEB6BB881E2513747552A5DB22C7EDAF83BD5528081A365F7FF06504B0304140006080000CC70623B000000000000000000000000350000006662782F41393633353835312D344632462D344230382D423046372D37
310
39314545314133324237412F76657274696365732E62696E504B0304140006080800CC70623BF270F1330600000004000000360000006662782F41393633353835312D344632462D344230382D423046372D3739314545314133324237412F747269616E676C65732E62696E636660600000504B0304140006080000CC7062
310
3B000000000000000000000000370000006662782F41393633353835312D344632462D344230382D423046372D3739314545314133324237412F617474726962757465732E62696E504B0304140006080800CC70623B08DA0BD19000000041010000360000006662782F41393633353835312D344632462D344230382D4230
310
46372D3739314545314133324237412F6469726563746F72792E786D6C858F410AC3201045AF22B36F53E9A60B35CBEEBAE80D244E44489C6234F4F835464A48035D0DF398FF9F8AF63D0E6CC63039F212F8F9020C7D47C6792B21C5FE7403D62A1188E2E60C98D7234A5830286103A55745067B9D86B8A3CF9C7F90C11DE6
310
07FB144396D7B6A82D282E9A152AD114D5EF2CB866EEE831B8EEA07A7BB5A8D7D61A2BAAEB7FD5F70921FF497D00504B0304140006080800CC70623BEDD1DC58FD000000A00100003B0000006662782F41393633353835312D344632462D344230382D423046372D3739314545314133324237412F7265736F75726365732F
310
636F72652E786D6C8D504B6E833010BD0A9A6D65B00922041947112427E8052C33A156828DFCA97AFC9A40A576D7CDCCE87D344F8F9FBFE667F689CE6B6B3A6039850C8DB2A336530731DC4903D95970676DF82583CCC8193B5861107C72362E3BA4AC096842428D1D7107A5F7182053CF7474E0D507CE32973124857FE48B
310
540F3961CEF244279DE03EB81420DB9EAC1384436FA353E879B1B182C7A8C75DA3C7F453DF353A1075D537A7BA6464B8F535A99AE14A9A2BBD90E350DD183B5CFABE3AF262350B1EF4FC9351399401471025A527C218A1E53BAB5A5AB765F5469B96525EACF23FA6B88CFF34456DC2A1DCE36E360F82A5202F42F062ED2BAD
310
579969AFDD8A6F504B010214000A0000080000CC70623B3DEE336E79000000790000001B00000000000000000000000000000000006175746F6465736B2D64657369676E2D7061636B6167652E786D6C504B01021400140006080800CC70623BD486FD9CA0000000F40000001300000000000000000000000000B20000005B
310
436F6E74656E745F54797065735D2E786D6C504B01021400140006080800CC70623B853B8169EB0000007C010000080000000000000000000000000083010000636F72652E786D6C504B01021400140006080800CC70623B55019EA25F0000007C000000070000000000000000000000000094020000636E782E786D6C504B
310
01021400140006080800CC70623BDBABAAF470010000D40300000C00000000000000000000000000180300006662782F636F72652E786D6C504B01021400140006080800CC70623B9C113CC27E0000009D0000000B00000000000000000000000000B20400006662782F636E782E786D6C504B01021400140006080800CC70
310
623B7DF2F77C2A010000120200003100000000000000000000000000590500006662782F41393633353835312D344632462D344230382D423046372D3739314545314133324237412F636F72652E786D6C504B01021400140006080800CC70623BAD7543B64E010000330300003000000000000000000000000000D2060000
310
6662782F41393633353835312D344632462D344230382D423046372D3739314545314133324237412F636E782E786D6C504B01021400140006080800CC70623BE75B7789680500003C10000034000000000000000000000000006E0800006662782F41393633353835312D344632462D344230382D423046372D3739314545
310
314133324237412F6F626A656374732E786D6C504B01021400140006080000CC70623B0000000000000000000000003500000000000000000000000000280E00006662782F41393633353835312D344632462D344230382D423046372D3739314545314133324237412F76657274696365732E62696E504B01021400140006
310
080800CC70623BF270F133060000000400000036000000000000000000000000007B0E00006662782F41393633353835312D344632462D344230382D423046372D3739314545314133324237412F747269616E676C65732E62696E504B01021400140006080000CC70623B0000000000000000000000003700000000000000
310
000000000000D50E00006662782F41393633353835312D344632462D344230382D423046372D3739314545314133324237412F617474726962757465732E62696E504B01021400140006080800CC70623B08DA0BD1900000004101000036000000000000000000000000002A0F00006662782F41393633353835312D344632
310
462D344230382D423046372D3739314545314133324237412F6469726563746F72792E786D6C504B01021400140006080800CC70623BEDD1DC58FD000000A00100003B000000000000000000000000000E1000006662782F41393633353835312D344632462D344230382D423046372D3739314545314133324237412F7265
310
736F75726365732F636F72652E786D6C504B0506000000000E000E0080040000641100000000
  0
XRECORD
  5
1F8
102
{ACAD_REACTORS
330
1F7
102
}
330
1F7
100
AcDbXrecord
280
     1
 70
     1
 90
429727718
  1
30362254-06B7-45E0-A893-8CFA70E3D6BC
310
504B03040A0000080000CC70623B3DEE336E79000000790000001B0000006175746F6465736B2D64657369676E2D7061636B6167652E786D6C3C3F786D6C2076657273696F6E3D22312E302220656E636F64696E673D227574662D3822203F3E3C666F726D6174733E3C666F726D61743E687474703A2F2F736368656D612E
310
6175746F6465736B2E636F6D2F64657369676E2D7061636B6167652F323030393C2F666F726D61743E3C2F666F726D6174733E504B0304140006080800CC70623BD486FD9CA0000000F4000000130000005B436F6E74656E745F54797065735D2E786D6C7D8EC10E82300C865F65E91D8A1E8C310C0EEA1BF002731658846E
310
D98AC1B77784ABF1D8FE5FBFBF75BBCE937A534CCEB38643598122B6FEE978D0B0485F9C41B54DDD7D022595594E1A469170414C76A4D9A4D207E29CF43ECE46F218070CC6BECC4078ACAA135ACF422C856C0E68EA1BF5669944DDD7BCDE7B1F8E415D77AECB980613C2E4AC91FC167A2B244592486606FC29C8FD7F045B9A
310
EF7053A7E60B504B0304140006080800CC70623B1EC5D7A3EB0000007C01000008000000636F72652E786D6C8D90416EC3201045AF82665B6103C6756C6122AB4D4ED00B204C5C94182C03558F5F9C3852BBEB6A467FFE9B197D71FC9E6FE8CBACC17AD7032D0820E3B41FAD9B7A48F1820F808E52ACDEC75F36404ECDA687
310
4D0629A6D5A76597B477D1B89855E747B38B2A041301E95B6E7A08FAD3CCAA50296647B8168BD2573599823EBB0CA76447F43862C7BCCF5EAC59410E4DDD9C7973C2755553CCCFA4C603E3040F1565ED3B1FDE4E432BCA0D9622DAF9795FAF464533826484B498524CD807E51D79ED187F21878E10516EF63F505AC67F42C9
310
BA58B1FDDD071640D2FCC87D2045B96591CB3DA85CB7DCE40F504B0304140006080800CC70623B55019EA25F0000007C00000007000000636E782E786D6C4DCB3B0E80201045D1AD90E915ED2CF8AC45050C11660C8261F98AB1B07AC9C97D42D718D865D3E909258CFD00CCE24AC6E326A164D74DC0B4128928FF32603847
310
2BA13128B1252AC747C6BAB984FC68F0B87FE8960A5C09FE86CFB69FBA01504B0304140006080800CC70623B8C9102E971010000D40300000C0000006662782F636F72652E786D6CC5535B6E833010BC8AE5DF0A6C08340F1947A84D4ED00B38C6A128602363A31CBFCB234A53A551FA553EC09AD9F5CE8C31DB9E9B1AF5CA
310
7695D1198E428A91D2D214952E33ECDD315861B4E5CC1AE3BE9561A445A3323CC098B3D21ADFCE9034DA29ED00D5A6503328BA4E398C640D8B0C77F253352214DE4145770A5B214FA2546114020D759C75CE8200340D19DE981F0F6746269C33EFAB6266AB02A655C74A59CCF365BADC27CB5D902ED22848F6340DF238A141
310
BE88E2F57B92BFEDF23523433367AE6A2EEAA455C2A902F398D2751045018D3FA264435F3771F242571B4A1919CA6F9A7C5B3CD9E42BED16F12C776AEB308F40C848FC700B1139D4891EF410CEC810227CC6846F8386402064270EF5C5C709A05E49676C024C61FC95EA45ED154CA5211D1FF4FB8291A913A68E9B83EBBB33
310
E2A7673CDE118E5AE8124C0807CB8377834E366998436B950D7A7746DAD846D4CFD978E0F04FD455FC5D49D2D4C6FE9722321F10997F0F32DC47FE05504B0304140006080800CC70623BFFEA85907E0000009D0000000B0000006662782F636E782E786D6C4DCCD10A83201886E15B91FFDC95D95A811AB6F23E625948A6C3
310
E9D8E5AF46073BFAE0E1E365ED67B3E8ADC3CB78C7815C7240DA3DFC64DCC221C519D7805AC182F7F1EF06C88D9BE6703008B6049F9E274D7A1E938DBB5AE3D6131B2589BA0D3D965551E0B2EA732C9B9A624AAEB41E3A557677029960D9AFB4EF11165F504B0304140006080800CC70623B4FEEA4082C0100001202000031
310
0000006662782F39464131463745442D413632322D343644302D413938332D3331353338454246344243312F636F72652E786D6C8D515B6EC32010BC0AE2AB55850DD871ED0813254D72825EC00192A2C460F1A872FC42ED48ED5F7E00CDCECCCEB26C731F6FE05B39AFADE921293004CA082BB5B9F43086336A21D870E6AC
310
0D7F68109861543DCC30E4ECE26C9C164858139409093556AA051CBC570102714B8F1E7AF1A5C6A11862480C7F2DA6415C878B2A4891CA89C7990F2E050073937C42DE1DB7E4F87ED8A36D4329AA9B3D46DBAEAD504556557BD81DEBDD0761E52CE42C462D17B996298E3E6BE59E35C962CE821E1FF18553435012728A7187
310
0841987E927A8D9B35ADDF70BBC6989599FE4F1427F9A4286A132ABAC49D651EF234CD5CE04CDA78BA3DC2A8FB645D00B9DF8B57E215725C60BCA2A463E54C4CE327C7A65E1C7DB02E7DEFCBF594B864C5CA6CDBD49C957943E9FA5D5FBAF336F90F504B0304140006080800CC70623BAD7543B64E01000033030000300000
310
006662782F39464131463745442D413632322D343644302D413938332D3331353338454246344243312F636E782E786D6CD593CD6EC32010845F0571AD6CE3D48AD20813A9873E410FBD12D82434182C7EAAE6EDBB2424CD25871E7B41D6EC30B3FA84F9E67BB2E40B4234DE8DB46F1925E094D7C6ED479AD3AE5951B2113C
310
789FEE6C943839C1488B4C05DF079FE72A69D8C96C13AAD6B8631503449F83828872B949AC57D26200B826A308D316B4064D6E46FCDA41C05550DC9E483A00797BFD207EFB092A45DE9514C1BBD22178396BD39D891265658C238DEA00936C654E5E433CB65A26D9F6EDB5EBC14EBF49A45CB856E66048291F6939A9A81BB5
310
C8917738143CA680F4AA299D66A042CEB3354A2684DC9D8D178FE0D9B8B41CAAD720F880EE7EF93C0C18769E099ECC04D5A102C8049A8A05632F4DDF376CF1DE0F6BB65C2F8627B65A33C6BB62177CEBBDAD973006829F89F22E814B54F4BC2BE347F8AA8F681390B50FA73F804400B5F542E796F19FF974E7F78DB802FE05
310
E207504B0304140006080800CC70623B16AB87BA640500003C100000340000006662782F39464131463745442D413632322D343644302D413938332D3331353338454246344243312F6F626A656374732E786D6CAD575B6FA33818FD2B887DE6924B3BED8A326A92B68A663B534DD4D13E548A0C38942D60649B369D5FBFC7
310
600890A493BDE42160637FD7F31D7FF63E6FB3D478A55C242CBF3247B66B1A340F5994E4F19559CA8D75611A9F7D8F33263BCB4C232719BD32D5B4E97B316765A1A722BA21652A07B3B7B33F0D11D29C9A46981221AE4C113ED38CD8A4942CA2E2C58E882476BCD9DA23BB5ED8171B73523C0F841684D35CC252CCE79062D4
310
468DFA43D7747CCF51DF7D4FFDEB5593E3AB9CCA9FBEFE241792E4E19EB28198C968BAB8199F5D5A67D3E9C49A9E8F47D6EC76B6B0469F26EEFC7C3EBFBCBEB98462213924694B38DD98FE1D62C393D073EA4FADC5DAF04326852CCF6958F90F0F2B9BB5C48816348F90C7840A68EB78EDF68723159BCEE7891A6B95DDE9D3
310
BCEAEEE8086A6C6F9E5D4B59F0175C10A7A0820BAA5055C7473B5AE3CFDD452D602CD5DF12616444529E90D448938013FE6EFA58AA96F85E4F8C42275708571E98FE6827AF6B2B4AE3D7D83D64E5A64C53054DD3AF90BD06FEA9149565C94FCA0F6B834DC85599E4F2423B24DF0B6AFA979E534DFA9E7A4CC6FA631D486393
310
921829879BF5D781A373557BCB85E97FB90DB62B558F8795179C15944B051F40AB495CF35451D26A4727654E6D8033BD98EF82F21D91FF8AF2DD9982BCF1643BDD4EB516C9492E368C67C88DED563FC36D5EACF66DFF057C3658BDBFA69DF9578B3DA735B64F18C7F20770A9D45CFCF7FCF563D6456A277DBEF78A02637CA2
310
43B90A490AEAB94F72244481D24819A6C0E59B606BFA4B3025981DBB48EAB701D97BF19C577CC77F2D1B6C55A9EF3C732474C0B727303F625995056C3B02963D9EAC146BE78EC5FCEC7FA999EBC5EACBAAE41B12D27B4D2C0BBA49F244E2ECDC81B76B502F113D8F5EE8FB1BE3111CDD4FC2AA9B844CAB1288B68AB90A7CDC
310
1C166AB0D3DC5310625FCC14E779BFD0709F8890A629C9292B1B2DED31A4B0DA928CEE135085754027E3018A397D4D5427D15BD1330B677DC8934285AC3DF45A9EB68FF8F2B8FC0A509AFEECFD0FF2DE25CC6047F7214B195F07EFEB9A094D800F7BFAE8FED187B78EA8A3A400F115961BCAD1215E47C966530AF0EE8128FE
310
58CEBB996A8964FFA529A046635D9353B0336A8F700DDF46271A024E70B0B37C9DE01847591E54DED53D54202AB947E4076556AC49C6CA5C9E1226B7F1A7B1BE15DEED62C41B91E1B3E9AFAAA735036547343A925075041DF0A9979E893B391F8FCFA6967B3EFB644DCF6E5CEBFAE272625DCC6FAF3FB93793C5F90CE1EF57
310
407342756B10D1C489E8953CD1617E5CEECAD6F4EF8914CE5D5D504E5C3F1F9736DA62CFC11E00BCDDB8CC8A9466349744C1F75EBDA4DF09BA8A9E8C7A7E9991989E20E5DBDD6A6003664ED8F7A04A8DBE0DF6EAD9B9AA858342E47399053949D2C146EDB85DE4B176BB0965FBAC19BD19AA918E27FA50C1D22402E144464C
310
59462568E704B6E71915404CB72B8FF4EDE184DDAF753F284990D2C6926782963815403548A70C657FDEF80D2D9CEAA2AE4C1C76F60BFE74219A06527D6582DF6412526107381E55E353090704D085B52408D0933C4ED159D79BDA71BB4BC506F4831350EB6F979CD22D69BF7AC49B91A2C0A9DDA3D5CA36AD20FC478E37E6
310
1844E2352865EBCB6EA275A652E3836BE04EFB400BF1A2556F515F1FBB35B2AB35BD889C744FFA1004B5544B121E57F70215746DD2F5E2C1412B602CBF19455AC6C8E5E9922C4E01E65215385004546899059180EAFCF7A707CE7017CD8CDB0410789AB32C63B91E5CEBBBACB17AC6CD347A022D5075FD106377347AAABA7E
310
7D11590744509B44E205134DC1290F06580320F78E537D3D73540E06CB970B431F185308AD40BBD794D6D77003C5A36E8EAA54BA64597CD8F83BD552A080A365F7FF06504B0304140006080000CC70623B000000000000000000000000350000006662782F39464131463745442D413632322D343644302D413938332D3331
310
353338454246344243312F76657274696365732E62696E504B0304140006080800CC70623BF270F1330600000004000000360000006662782F39464131463745442D413632322D343644302D413938332D3331353338454246344243312F747269616E676C65732E62696E636660600000504B0304140006080000CC70623B
310
000000000000000000000000370000006662782F39464131463745442D413632322D343644302D413938332D3331353338454246344243312F617474726962757465732E62696E504B0304140006080800CC70623B08DA0BD19000000041010000360000006662782F39464131463745442D413632322D343644302D413938
310
332D3331353338454246344243312F6469726563746F72792E786D6C858F410AC3201045AF22B36F53E9A60B35CBEEBAE80D244E44489C6234F4F835464A48035D0DF398FF9F8AF63D0E6CC63039F212F8F9020C7D47C6792B21C5FE7403D62A1188E2E60C98D7234A5830286103A55745067B9D86B8A3CF9C7F90C11DE607
310
FB144396D7B6A82D282E9A152AD114D5EF2CB866EEE831B8EEA07A7BB5A8D7D61A2BAAEB7FD5F70921FF497D00504B0304140006080800CC70623B0D6EF93BFE000000A00100003B0000006662782F39464131463745442D413632322D343644302D413938332D3331353338454246344243312F7265736F75726365732F63
310
6F72652E786D6C8D50596E833010BD0A9ADFCA60B334011947A8694ED00B586642AC041B79A97AFC9A40A5F6AF3F33A3B7689E1E3F7DCD8FEC139DD7D6F4C0720A191A65476DA61E62B892236427C19DB5E1970C322367EC618541F0C9D9B8EC90B226A009093576C41D94DE63804C3DD2D18357379C652E63480A7FCF17A9
310
EE72C29CE5894E3AC17D702940B63D59270887DE46A7D0F36263058F518FBB468FE9A7BE6A7420864373B8D4873369AA8691FA421B3294352543C5CAF65C0F6FEF43CB8BD52C78D0F34F46E550061C419494B6843142CB0F5677F4B52BEB177AEC28E5C52AFF638ACBF84F53D42654E51E77B379102C05791282176B5F693D
310
CB4C7BED567C03504B010214000A0000080000CC70623B3DEE336E79000000790000001B00000000000000000000000000000000006175746F6465736B2D64657369676E2D7061636B6167652E786D6C504B01021400140006080800CC70623BD486FD9CA0000000F40000001300000000000000000000000000B20000005B
310
436F6E74656E745F54797065735D2E786D6C504B01021400140006080800CC70623B1EC5D7A3EB0000007C010000080000000000000000000000000083010000636F72652E786D6C504B01021400140006080800CC70623B55019EA25F0000007C000000070000000000000000000000000094020000636E782E786D6C504B
310
01021400140006080800CC70623B8C9102E971010000D40300000C00000000000000000000000000180300006662782F636F72652E786D6C504B01021400140006080800CC70623BFFEA85907E0000009D0000000B00000000000000000000000000B30400006662782F636E782E786D6C504B01021400140006080800CC70
310
623B4FEEA4082C0100001202000031000000000000000000000000005A0500006662782F39464131463745442D413632322D343644302D413938332D3331353338454246344243312F636F72652E786D6C504B01021400140006080800CC70623BAD7543B64E010000330300003000000000000000000000000000D5060000
310
6662782F39464131463745442D413632322D343644302D413938332D3331353338454246344243312F636E782E786D6C504B01021400140006080800CC70623B16AB87BA640500003C1000003400000000000000000000000000710800006662782F39464131463745442D413632322D343644302D413938332D3331353338
310
454246344243312F6F626A656374732E786D6C504B01021400140006080000CC70623B0000000000000000000000003500000000000000000000000000270E00006662782F39464131463745442D413632322D343644302D413938332D3331353338454246344243312F76657274696365732E62696E504B01021400140006
310
080800CC70623BF270F133060000000400000036000000000000000000000000007A0E00006662782F39464131463745442D413632322D343644302D413938332D3331353338454246344243312F747269616E676C65732E62696E504B01021400140006080000CC70623B0000000000000000000000003700000000000000
310
000000000000D40E00006662782F39464131463745442D413632322D343644302D413938332D3331353338454246344243312F617474726962757465732E62696E504B01021400140006080800CC70623B08DA0BD190000000410100003600000000000000000000000000290F00006662782F39464131463745442D413632
310
322D343644302D413938332D3331353338454246344243312F6469726563746F72792E786D6C504B01021400140006080800CC70623B0D6EF93BFE000000A00100003B000000000000000000000000000D1000006662782F39464131463745442D413632322D343644302D413938332D3331353338454246344243312F7265
310
736F75726365732F636F72652E786D6C504B0506000000000E000E0080040000641100000000
  0
XRECORD
  5
175
102
{ACAD_REACTORS
330
173
102
}
330
173
100
AcDbXrecord
280
     1
270
     1
271
     1
  0
XRECORD
  5
174
102
{ACAD_REACTORS
330
173
102
}
330
173
100
AcDbXrecord
280
     1
270
     1
271
     1
  0
XRECORD
  5
1FB
102
{ACAD_REACTORS
330
173
102
}
330
173
100
AcDbXrecord
280
     1
 70
     0
 90
1673772943
  1
ECE7A1D2-D628-4531-984C-D00F80459256
310
504B03040A0000080000CC70623B3DEE336E79000000790000001B0000006175746F6465736B2D64657369676E2D7061636B6167652E786D6C3C3F786D6C2076657273696F6E3D22312E302220656E636F64696E673D227574662D3822203F3E3C666F726D6174733E3C666F726D61743E687474703A2F2F736368656D612E
310
6175746F6465736B2E636F6D2F64657369676E2D7061636B6167652F323030393C2F666F726D61743E3C2F666F726D6174733E504B0304140006080800CC70623BD486FD9CA0000000F4000000130000005B436F6E74656E745F54797065735D2E786D6C7D8EC10E82300C865F65E91D8A1E8C310C0EEA1BF002731658846E
310
D98AC1B77784ABF1D8FE5FBFBF75BBCE937A534CCEB38643598122B6FEE978D0B0485F9C41B54DDD7D022595594E1A469170414C76A4D9A4D207E29CF43ECE46F218070CC6BECC4078ACAA135ACF422C856C0E68EA1BF5669944DDD7BCDE7B1F8E415D77AECB980613C2E4AC91FC167A2B244592486606FC29C8FD7F045B9A
310
EF7053A7E60B504B0304140006080800CC70623BD9DDAED0EC0000007C01000008000000636F72652E786D6C8D90416EC3201045AF82665B61836D9CD8C2444DD39CA01740405C94182C03558F5F9C3852BBEB6A467FFE9B197D7EF89E6EE8CB2CC17A37002D0820E394D7D68D03A478C17B4007C117EFE32F1B20272733C0
310
2A83E0E3E2D3BC49CABB685CCCAAF3DA6CA20CC14440EA969B0182FA34932C648AD911AEC52CD5558EA6A0CF2EC329598D1E47ACCEFBECC59A050463A7EA5833865FEBDD0E37353BE3EE8DBDE3F6786A48D375FBF6CC78B9C282473B3DEFABC5C86834888A900E538A49F5419B9EB47DD5BC907D4F082F57FB1F28CDFA9F50
310
B22ED6D5F6EE030B20687EE43E10BC5CB3C8E51E54AE6B6EE207504B0304140006080800CC70623B55019EA25F0000007C00000007000000636E782E786D6C4DCB3B0E80201045D1AD90E915ED2CF8AC45050C11660C8261F98AB1B07AC9C97D42D718D865D3E909258CFD00CCE24AC6E326A164D74DC0B4128928FF326038
310
472BA13128B1252AC747C6BAB984FC68F0B87FE8960A5C09FE86CFB69FBA01504B0304140006080800CC70623BA24EB22D72010000D40300000C0000006662782F636F72652E786D6CC5535B6E833010BC8AE5DF0A6C5E49888CA3A6694ED00B38E05014B091B1518EDFE511A5A9D228FD2A1F60CDEC7A67C6986DCE4D8D7A
310
69BA4AAB0C073EC548AA5C17952A33ECECD15B61B4E1CC686DBF9561A44423333CC098B3D268D7CE50AE9595CA02AA74216750749DB418E5352C32DCE59FB211BE70162ABA93DF8AFC244AE9073ED050C759670D0840D390E18DF9F1706664C23973AE2A66B62A605A75ACA4C13C4976E1364A12EF355A2EBD384AF65EFA96
310
BC7B8BED2EA6719AAE16FB8491A199335B351775B991C2CA02F390D2D40B028F861F41BCA68B7518BFD0D59A524686F29B26D7164F36B94AD9289CE54E6D1DE6010819891F6E21228B3AD1831EC219194284CF98F06DD01008846CC5A1BEF83801D4CBDC6A1303536877A57A513B0953A94FC707FDBE6064EA84A9E3E6E0FA
310
EE8CF0E9198F7784A316AA0413C2C2F2E0ECA0934D1AE6D05A69BCDE9E91D2A611F573361E38FC1375157F5752AE6B6DFE4B11990F88CCBF0719EE23FF02504B0304140006080800CC70623B408A7D3B7C0000009D0000000B0000006662782F636E782E786D6C4DCCD10A83201886E15B91FFDC552A92A0064DBC8F581632
310
D3703A76F9ABD1C18E3E78F878E5F0D9027ABBFCF2292AE86E2D20171F69F6715550CB827B40839639A5F2770314A7CD293819B45C73AAFB45B35BA61ACAA1C1C7E7855C58C15BC331339661262CC762340413D68D77DA5B42298546CBE6573AF60CEB2F504B0304140006080800CC70623B449FB9BD290100001202000031
310
0000006662782F36394639363044362D344446342D343946362D394244322D3234314243333846323333332F636F72652E786D6C8D515B6EC32010BC0AE22B55850D98B871848994463E412FE002495162B07854397EA176A4F62F3F2C9A9D991D587EB84F37F0AD7D30CEF6905418026DA553C65E7A98E219ED203808EE9D
310
8B7F6810D871D23D2C3014FCE25D9A57483A1BB58D19B54EE9151C43D0110279CB971E06F9A5A7B11A53CC8C70ADE6515EC78BAE4895DB992778883E0700CB907242D17643D7E2538BD869608875438BBAE38922CAC8F1BDD90DB4691A5E2F42C153326A951B95E398B3D1FE599322163C9AE9115F7A3D46ADA0A018778810
310
84E907617BDCEE297BC5BB3DC6BC2EF47FA234AB2745C9D8D8D035EE220B50105E2F0DC1954B9FB747187D9F9D8FA0CCDB042D5FA0C015C65B42DF78BD10F3F3B363CB56C7109DCFDFBBB97E662ED92EB62D13BC2E1BCAE5777DB9966D8A1F504B0304140006080800CC70623BAD7543B64E01000033030000300000006662
310
782F36394639363044362D344446342D343946362D394244322D3234314243333846323333332F636E782E786D6CD593CD6EC32010845F0571AD6CE3D48AD20813A9873E410FBD12D82434182C7EAAE6EDBB2424CD25871E7B41D6EC30B3FA84F9E67BB2E40B4234DE8DB46F1925E094D7C6ED479AD3AE5951B2113C789FEE
310
6C943839C1488B4C05DF079FE72A69D8C96C13AAD6B8631503449F83828872B949AC57D26200B826A308D316B4064D6E46FCDA41C05550DC9E483A00797BFD207EFB092A45DE9514C1BBD22178396BD39D891265658C238DEA00936C654E5E433CB65A26D9F6EDB5EBC14EBF49A45CB856E66048291F6939A9A81BB5C89177
310
38143CA680F4AA299D66A042CEB3354A2684DC9D8D178FE0D9B8B41CAAD720F880EE7EF93C0C18769E099ECC04D5A102C8049A8A05632F4DDF376CF1DE0F6BB65C2F8627B65A33C6BB62177CEBBDAD973006829F89F22E814B54F4BC2BE347F8AA8F681390B50FA73F804400B5F542E796F19FF974E7F78DB802FE05E20750
310
4B0304140006080800CC70623B8D05915C650500003B100000340000006662782F36394639363044362D344446342D343946362D394244322D3234314243333846323333332F6F626A656374732E786D6CAD575B6FA33814FE2B887D06429276DA1565D4266D158D3A339A6846FB502932E050B66023DB74D2FDF5FB190C01
310
9276B2973C046C8ECFF53B17071F77456EBD502133CEAE6CDF9DD81665314F32965ED995DA3A17B6F5310C04E7AA47665B8C14F4CAD6DB7618A48257A5D94AE89654B91AEDDEDDFC61C998326A5B714EA4BCB265FC440BE2924AF184CA6737218AB8E976E7FA6E4338649B0A523E8D98964450A6A029F619B8588D52FE7039
310
B1BD30F0F4F730D0FF866AF6369557DB33949F31A9088B0F848DD8CCFCF9F2767A76E99CCDE733677E3EF59D9BBB9BA5E37F984D16E78BC5E5F5ED25044B25C0C96822E8D60EEFE11B91C581D77CEA34368A1F5329E68CD1B8B61F16D63A1B8E092D294B10C78C4A48EB593D192E7DED9BDEE7995E1B91FDEDD3ACEA9FE831
310
6A756F9F7D4D79F4274C90A7A04248AA51D5F8C718DAE06FB2F75AC4796EBE65D22A88A22223B995679120E2D50E41AA49C260C046A35368846B0BECD0DFF3EBEB8AD4F835768F69B9ADF25C43D30E6B646F807FAA64AD59F61715C7A54127C4AACA98BA3006A9D792DAE165E0D59B61A01FB3A9F9D838D2DAE62445C86166
310
F37564E842E7DE6A69879FEEA2DD5AE7E371E1A5E025154AC307D06A03D73EB5978C58FFA4C8E9033066E0F3BD53BEC1F39F91BE7B55103791EDE6BBB991A2046172CB4581D8B893FA674DDA17A77B3B7C413D1B511FD2743BFF8A38F03A658705E3ADF8015C3A3417FF3D7E439FF591DA0B5F18BC20C1B8981957AE6392A3
310
F43C640C01D1A0B4728E2DD4F26DB4B3C3152A252A3B4E913CEC1C72F012782FF88EFF8637AA552DBEF76408E8A8DE9E50F9E1CB3A2DA0DB1B6039A893B56063DC5B3E3FFB5F72E67AB9FEB4AEC496C4F4C1149625DD662C53E89D7BF0F6151A046260D1337DFDC94502430F83B0EE07A130A224BCAD7DAE1D9FB6CD422FF6
310
920702629C4BB9AE79C12F243C6432A6794E18E5552BA56B431AAB5D91317302B2B071E86C3A42B1A02F999E24061403B5D0EB639195DA655DD3EBEAB4FB862DDF579F014AD0E73C22F99E28DA57FB98E75C6CA2D74D53086D600F4786E0FE3144B771A8A7B900F03594DB8A633CBC49B2EDB69228BB479CF863B5E807AAAB
310
23872F6DFEB4129B949CA33823F58830E86D65621E10047D9DB34D862E8EAC3C2ABC2F7B2C40D67CDFE01F5545B92105AF983AC54D93D69E56FB8E797F88913F898A9FEC705D3F9D1B54EC8426FB500D40A03BD0119B06E1B95DDC7EB8F6975367793EBD70E66733DFB9BC982F9CE564727731999F5D4ECFCE3B8D6A4DC2A0
310
6D50FD148437D110834A64C6CDDF57FBACB5C307A2A477DFE4939736CFEF2B175371E0E10CF0DD1D5C15654E0BCA14D1E87DD02FF93782A162C0A3D95F1524A52770F972BF1EE9809D13CE7DD599467F8ECE9ADD85CE85A34CD45355448C64F9E8A031DC2D596ACC6E5DD93D9B82DE2EF5CAF81363A8E47996A0DE24564A79
310
4115AACE09C55E14540231FDA13C319787134EBF34E3A022514E5B4D9E0826E25C02D5805B15ABE1BEF51B26383D445DD9E875EE33FE4C22DA16427D65A3BCA92CA6D28DD01DF5DC53330704308475351050232CCD31583787BA75774AFB06E5070DD0C8EF484E19968C5D83BA5B90B244D31E54D55A372320FE4786B7EA58
310
44E135AA5467CB7EA333A61683CC6A8C3257034C10CF46F40EF9F5BE59BE5BD30C3C72D235E95D10345C1D45445A5F0BB47E46A5EBE5570F9380B5FA629579952296A773720405982B9DE04011506178964401AA8BDF1FBF0A8EAB6861DD6580C0E38217056766716DAEB2D6FA0917D3E4116581EADB879C4E7CFFB11EFACD
310
3D641311495D92C8676CB409A72D18610D803CE8A626049E8EC1887CB5B44CC39883690DDA8399B4B9855B481E7D71D4A9D22F96E5BB73BF5793020C02137BF837504B0304140006080000CC70623B000000000000000000000000350000006662782F36394639363044362D344446342D343946362D394244322D32343142
310
43333846323333332F76657274696365732E62696E504B0304140006080800CC70623BF270F1330600000004000000360000006662782F36394639363044362D344446342D343946362D394244322D3234314243333846323333332F747269616E676C65732E62696E636660600000504B0304140006080000CC70623B0000
310
00000000000000000000370000006662782F36394639363044362D344446342D343946362D394244322D3234314243333846323333332F617474726962757465732E62696E504B0304140006080800CC70623B08DA0BD19000000041010000360000006662782F36394639363044362D344446342D343946362D394244322D
310
3234314243333846323333332F6469726563746F72792E786D6C858F410AC3201045AF22B36F53E9A60B35CBEEBAE80D244E44489C6234F4F835464A48035D0DF398FF9F8AF63D0E6CC63039F212F8F9020C7D47C6792B21C5FE7403D62A1188E2E60C98D7234A5830286103A55745067B9D86B8A3CF9C7F90C11DE607FB14
310
4396D7B6A82D282E9A152AD114D5EF2CB866EEE831B8EEA07A7BB5A8D7D61A2BAAEB7FD5F70921FF497D00504B0304140006080800CC70623BCA768048FE000000A00100003B0000006662782F36394639363044362D344446342D343946362D394244322D3234314243333846323333332F7265736F75726365732F636F72
310
652E786D6C8D50596E833010BD0A9ADFCA60D600328E9AA639412F609909B1126CE4A5EAF16B0295DABFFECC8CDEA2797AECF8353F924FB44E193D409E5248504B332A3D0D10FC95B4901C39B3C6F85F3248B49871801506CE266BC2B243D2688FDA47549B11775038871E12F988C7004EDE7016A9083E2ADC3D5D84BC8B09
310
D33C8D74D471E6BC8D0192EDC93A815B742658898E651BCB59086ADC356A8C3FD555A1055ED7E7E254D615792D0F075295F585746FF53B694EE78A565DD736979A65AB9933AFE69F8CD2A2F038022F28ED489E135A7CE4554F9BBEA85E68DB53CAB255FEC71496F19FA6A0B42F8B3DEE6673C0F318E4497096AD7DC5F52C33
310
EEB55BFE0D504B010214000A0000080000CC70623B3DEE336E79000000790000001B00000000000000000000000000000000006175746F6465736B2D64657369676E2D7061636B6167652E786D6C504B01021400140006080800CC70623BD486FD9CA0000000F40000001300000000000000000000000000B20000005B436F
310
6E74656E745F54797065735D2E786D6C504B01021400140006080800CC70623BD9DDAED0EC0000007C010000080000000000000000000000000083010000636F72652E786D6C504B01021400140006080800CC70623B55019EA25F0000007C000000070000000000000000000000000095020000636E782E786D6C504B0102
310
1400140006080800CC70623BA24EB22D72010000D40300000C00000000000000000000000000190300006662782F636F72652E786D6C504B01021400140006080800CC70623B408A7D3B7C0000009D0000000B00000000000000000000000000B50400006662782F636E782E786D6C504B01021400140006080800CC70623B
310
449FB9BD290100001202000031000000000000000000000000005A0500006662782F36394639363044362D344446342D343946362D394244322D3234314243333846323333332F636F72652E786D6C504B01021400140006080800CC70623BAD7543B64E010000330300003000000000000000000000000000D20600006662
310
782F36394639363044362D344446342D343946362D394244322D3234314243333846323333332F636E782E786D6C504B01021400140006080800CC70623B8D05915C650500003B10000034000000000000000000000000006E0800006662782F36394639363044362D344446342D343946362D394244322D32343142433338
310
46323333332F6F626A656374732E786D6C504B01021400140006080000CC70623B0000000000000000000000003500000000000000000000000000250E00006662782F36394639363044362D344446342D343946362D394244322D3234314243333846323333332F76657274696365732E62696E504B010214001400060808
310
00CC70623BF270F13306000000040000003600000000000000000000000000780E00006662782F36394639363044362D344446342D343946362D394244322D3234314243333846323333332F747269616E676C65732E62696E504B01021400140006080000CC70623B00000000000000000000000037000000000000000000
310
00000000D20E00006662782F36394639363044362D344446342D343946362D394244322D3234314243333846323333332F617474726962757465732E62696E504B01021400140006080800CC70623B08DA0BD190000000410100003600000000000000000000000000270F00006662782F36394639363044362D344446342D
310
343946362D394244322D3234314243333846323333332F6469726563746F72792E786D6C504B01021400140006080800CC70623BCA768048FE000000A00100003B000000000000000000000000000B1000006662782F36394639363044362D344446342D343946362D394244322D3234314243333846323333332F7265736F
310
75726365732F636F72652E786D6C504B0506000000000E000E0080040000621100000000
  0
XRECORD
  5
176
102
{ACAD_REACTORS
330
173
102
}
330
173
100
AcDbXrecord
280
     1
270
     1
271
     1
  0
XRECORD
  5
177
102
{ACAD_REACTORS
330
173
102
}
330
173
100
AcDbXrecord
280
     1
270
     1
271
     1
  0
XRECORD
  5
29D
102
{ACAD_REACTORS
330
234
102
}
330
234
100
AcDbXrecord
280
     1
102
DISPLAYNAME
  1
Metric50
102
FLAGS
 90
        0
  0
CELLSTYLEMAP
  5
263
102
{ACAD_REACTORS
330
162
102
}
330
162
100
AcDbCellStyleMap
 90
        3
300
CELLSTYLE
  1
TABLEFORMAT_BEGIN
 90
        5
170
     1
 91
        0
 92
    32768
 62
   257
 93
        1
300
CONTENTFORMAT
  1
CONTENTFORMAT_BEGIN
 90
        0
 91
        0
 92
      512
 93
        0
300

 40
0.0
140
1.0
 94
        5
 62
     0
340
11
144
6.0
309
CONTENTFORMAT_END
171
     1
301
MARGIN
  1
CELLMARGIN_BEGIN
 40
1.5
 40
1.5
 40
1.5
 40
1.5
 40
4.5
 40
4.5
309
CELLMARGIN_END
 94
        6
 95
        1
302
GRIDFORMAT
  1
GRIDFORMAT_BEGIN
 90
        0
 91
        1
 62
     0
 92
       -2
340
14
 93
        0
 40
1.125
309
GRIDFORMAT_END
 95
        2
302
GRIDFORMAT
  1
GRIDFORMAT_BEGIN
 90
        0
 91
        1
 62
     0
 92
       -2
340
14
 93
        0
 40
1.125
309
GRIDFORMAT_END
 95
        4
302
GRIDFORMAT
  1
GRIDFORMAT_BEGIN
 90
        0
 91
        1
 62
     0
 92
       -2
340
14
 93
        0
 40
1.125
309
GRIDFORMAT_END
 95
        8
302
GRIDFORMAT
  1
GRIDFORMAT_BEGIN
 90
        0
 91
        1
 62
     0
 92
       -2
340
14
 93
        0
 40
1.125
309
GRIDFORMAT_END
 95
       16
302
GRIDFORMAT
  1
GRIDFORMAT_BEGIN
 90
        0
 91
        1
 62
     0
 92
       -2
340
14
 93
        0
 40
1.125
309
GRIDFORMAT_END
 95
       32
302
GRIDFORMAT
  1
GRIDFORMAT_BEGIN
 90
        0
 91
        1
 62
     0
 92
       -2
340
14
 93
        0
 40
1.125
309
GRIDFORMAT_END
309
TABLEFORMAT_END
  1
CELLSTYLE_BEGIN
 90
        1
 91
        1
300
_TITLE
309
CELLSTYLE_END
300
CELLSTYLE
  1
TABLEFORMAT_BEGIN
 90
        5
170
     1
 91
        0
 92
        0
 62
   257
 93
        1
300
CONTENTFORMAT
  1
CONTENTFORMAT_BEGIN
 90
        0
 91
        0
 92
      512
 93
        0
300

 40
0.0
140
1.0
 94
        5
 62
     0
340
11
144
4.5
309
CONTENTFORMAT_END
171
     1
301
MARGIN
  1
CELLMARGIN_BEGIN
 40
1.5
 40
1.5
 40
1.5
 40
1.5
 40
4.5
 40
4.5
309
CELLMARGIN_END
 94
        6
 95
        1
302
GRIDFORMAT
  1
GRIDFORMAT_BEGIN
 90
        0
 91
        1
 62
     0
 92
       -2
340
14
 93
        0
 40
1.125
309
GRIDFORMAT_END
 95
        2
302
GRIDFORMAT
  1
GRIDFORMAT_BEGIN
 90
        0
 91
        1
 62
     0
 92
       -2
340
14
 93
        0
 40
1.125
309
GRIDFORMAT_END
 95
        4
302
GRIDFORMAT
  1
GRIDFORMAT_BEGIN
 90
        0
 91
        1
 62
     0
 92
       -2
340
14
 93
        0
 40
1.125
309
GRIDFORMAT_END
 95
        8
302
GRIDFORMAT
  1
GRIDFORMAT_BEGIN
 90
        0
 91
        1
 62
     0
 92
       -2
340
14
 93
        0
 40
1.125
309
GRIDFORMAT_END
 95
       16
302
GRIDFORMAT
  1
GRIDFORMAT_BEGIN
 90
        0
 91
        1
 62
     0
 92
       -2
340
14
 93
        0
 40
1.125
309
GRIDFORMAT_END
 95
       32
302
GRIDFORMAT
  1
GRIDFORMAT_BEGIN
 90
        0
 91
        1
 62
     0
 92
       -2
340
14
 93
        0
 40
1.125
309
GRIDFORMAT_END
309
TABLEFORMAT_END
  1
CELLSTYLE_BEGIN
 90
        2
 91
        1
300
_HEADER
309
CELLSTYLE_END
300
CELLSTYLE
  1
TABLEFORMAT_BEGIN
 90
        5
170
     1
 91
        0
 92
        0
 62
   257
 93
        1
300
CONTENTFORMAT
  1
CONTENTFORMAT_BEGIN
 90
        0
 91
        0
 92
      512
 93
        0
300

 40
0.0
140
1.0
 94
        2
 62
     0
340
11
144
4.5
309
CONTENTFORMAT_END
171
     1
301
MARGIN
  1
CELLMARGIN_BEGIN
 40
1.5
 40
1.5
 40
1.5
 40
1.5
 40
4.5
 40
4.5
309
CELLMARGIN_END
 94
        6
 95
        1
302
GRIDFORMAT
  1
GRIDFORMAT_BEGIN
 90
        0
 91
        1
 62
     0
 92
       -2
340
14
 93
        0
 40
1.125
309
GRIDFORMAT_END
 95
        2
302
GRIDFORMAT
  1
GRIDFORMAT_BEGIN
 90
        0
 91
        1
 62
     0
 92
       -2
340
14
 93
        0
 40
1.125
309
GRIDFORMAT_END
 95
        4
302
GRIDFORMAT
  1
GRIDFORMAT_BEGIN
 90
        0
 91
        1
 62
     0
 92
       -2
340
14
 93
        0
 40
1.125
309
GRIDFORMAT_END
 95
        8
302
GRIDFORMAT
  1
GRIDFORMAT_BEGIN
 90
        0
 91
        1
 62
     0
 92
       -2
340
14
 93
        0
 40
1.125
309
GRIDFORMAT_END
 95
       16
302
GRIDFORMAT
  1
GRIDFORMAT_BEGIN
 90
        0
 91
        1
 62
     0
 92
       -2
340
14
 93
        0
 40
1.125
309
GRIDFORMAT_END
 95
       32
302
GRIDFORMAT
  1
GRIDFORMAT_BEGIN
 90
        0
 91
        1
 62
     0
 92
       -2
340
14
 93
        0
 40
1.125
309
GRIDFORMAT_END
309
TABLEFORMAT_END
  1
CELLSTYLE_BEGIN
 90
        3
 91
        2
300
_DATA
309
CELLSTYLE_END
  0
XRECORD
  5
278
102
{ACAD_REACTORS
330
277
102
}
330
277
100
AcDbXrecord
280
     1
102
RTVSPost2010Prop28
280
     1
102
RTVSPost2010PropOp28
 70
     1
102
RTVSPost2010Prop29
280
     1
102
RTVSPost2010PropOp29
 70
     1
102
RTVSPost2010Prop30
280
     0
102
RTVSPost2010PropOp30
 70
     1
102
RTVSPost2010Prop31
280
     0
102
RTVSPost2010PropOp31
 70
     1
102
RTVSPost2010Prop32
280
     0
102
RTVSPost2010PropOp32
 70
     1
102
RTVSPost2010Prop33
280
     0
102
RTVSPost2010PropOp33
 70
     1
102
RTVSPost2010Prop34
280
     0
102
RTVSPost2010PropOp34
 70
     1
102
RTVSPost2010Prop35
280
     0
102
RTVSPost2010PropOp35
 70
     1
102
RTVSPost2010Prop36
280
     0
102
RTVSPost2010PropOp36
 70
     1
102
RTVSPost2010Prop37
 90
       50
102
RTVSPost2010PropOp37
 70
     1
102
RTVSPost2010Prop38
140
0.0
102
RTVSPost2010PropOp38
 70
     1
102
RTVSPost2010Prop39
140
1.0
102
RTVSPost2010PropOp39
 70
     1
102
RTVSPost2010Prop40
 90
        0
102
RTVSPost2010PropOp40
 70
     1
102
RTVSPost2010Prop41ColorIndex
 90
       18
102
RTVSPost2010Prop41ColorRGB
 90
        0
102
RTVSPost2010PropOp41
 70
     1
102
RTVSPost2010Prop42
 90
       50
102
RTVSPost2010PropOp42
 70
     1
102
RTVSPost2010Prop43
 90
        3
102
RTVSPost2010PropOp43
 70
     1
102
RTVSPost2010Prop44ColorIndex
 90
        5
102
RTVSPost2010Prop44ColorRGB
 90
      255
102
RTVSPost2010PropOp44
 70
     1
102
RTVSPost2010Prop45
280
     0
102
RTVSPost2010PropOp45
 70
     1
102
RTVSPost2010Prop46
 90
       50
102
RTVSPost2010PropOp46
 70
     1
102
RTVSPost2010Prop47
 90
       50
102
RTVSPost2010PropOp47
 70
     1
102
RTVSPost2010Prop48
 90
       50
102
RTVSPost2010PropOp48
 70
     1
102
RTVSPost2010Prop49
280
     0
102
RTVSPost2010PropOp49
 70
     1
102
RTVSPost2010Prop50
 90
       50
102
RTVSPost2010PropOp50
 70
     1
102
RTVSPost2010Prop51ColorIndex
 90
      256
102
RTVSPost2010Prop51ColorRGB
 90
-16777216
102
RTVSPost2010PropOp51
 70
     0
102
RTVSPost2010Prop52
140
1.0
102
RTVSPost2010PropOp52
 70
     0
102
RTVSPost2010Prop53
 90
        2
102
RTVSPost2010PropOp53
 70
     1
102
RTVSPost2010Prop54
  1
strokes_ogs.tif
102
RTVSPost2010PropOp54
 70
     1
102
RTVSPost2010Prop55
280
     0
102
RTVSPost2010PropOp55
 70
     1
102
RTVSPost2010Prop56
140
1.0
102
RTVSPost2010PropOp56
 70
     1
102
RTVSPost2010Prop57
140
1.0
102
RTVSPost2010PropOp57
 70
     1
102
RTVSPropertyOp0
 70
     1
102
RTVSPropertyOp1
 70
     1
102
RTVSPropertyOp2
 70
     1
102
RTVSPropertyOp3
 70
     1
102
RTVSPropertyOp4
 70
     1
102
RTVSPropertyOp5
 70
     1
102
RTVSPropertyOp6
 70
     1
102
RTVSPropertyOp7
 70
     1
102
RTVSPropertyOp8
 70
     1
102
RTVSPropertyOp9
 70
     1
102
RTVSPropertyOp10
 70
     1
102
RTVSPropertyOp11
 70
     1
102
RTVSPropertyOp12
 70
     1
102
RTVSPropertyOp13
 70
     1
102
RTVSPropertyOp14
 70
     1
102
RTVSPropertyOp15
 70
     1
102
RTVSPropertyOp16
 70
     1
102
RTVSPropertyOp17
 70
     1
102
RTVSPropertyOp18
 70
     1
102
RTVSPropertyOp19
 70
     1
102
RTVSPropertyOp20
 70
     1
102
RTVSPropertyOp21
 70
     1
102
RTVSPropertyOp22
 70
     1
102
RTVSPropertyOp23
 70
     1
102
RTVSPropertyOp24
 70
     1
102
RTVSPropertyOp25
 70
     1
102
RTVSPropertyOp26
 70
     1
102
RTVSPropertyOp27
 70
     1
102
RTVSPropertyOp28
 70
     1
102
RTVSPropertyOp29
 70
     1
102
RTVSPropertyOp30
 70
     1
102
RTVSPropertyOp31
 70
     1
102
RTVSPropertyOp32
 70
     1
102
RTVSPropertyOp33
 70
     1
102
RTVSPropertyOp34
 70
     1
102
RTVSPropertyOp35
 70
     1
102
RTVSPropertyOp36
 70
     1
102
RTVSPropertyOp37
 70
     1
102
RTVSPropertyOp38
 70
     1
102
RTVSPropertyOp39
 70
     1
102
RTVSPropertyOp40
 70
     1
102
RTVSPropertyOp41
 70
     1
102
RTVSPropertyOp42
 70
     1
102
RTVSPropertyOp43
 70
     1
102
RTVSPropertyOp44
 70
     1
102
RTVSPropertyOp45
 70
     1
102
RTVSPropertyOp46
 70
     1
102
RTVSPropertyOp47
 70
     1
102
RTVSPropertyOp48
 70
     1
102
RTVSPropertyOp49
 70
     1
102
RTVSPropertyOp50
 70
     1
102
RTVSPropertyOp51
 70
     0
102
RTVSPropertyOp52
 70
     0
102
RTVSPropertyOp53
 70
     1
102
RTVSPropertyOp54
 70
     1
102
RTVSPropertyOp55
 70
     1
102
RTVSPropertyOp56
 70
     1
102
RTVSPropertyOp57
 70
     1
102
RTVSPropertyOp58
 70
     1
102
RTVSPropertyOp59
 70
     1
102
RTVSPropertyOp60
 70
     1
102
RTVSPropertyOp61
 70
     1
102
RTVSPropertyOp62
 70
     1
  0
XRECORD
  5
276
102
{ACAD_REACTORS
330
275
102
}
330
275
100
AcDbXrecord
280
     1
102
RTVSPost2010Prop28
280
     0
102
RTVSPost2010PropOp28
 70
     1
102
RTVSPost2010Prop29
280
     1
102
RTVSPost2010PropOp29
 70
     1
102
RTVSPost2010Prop30
280
     1
102
RTVSPost2010PropOp30
 70
     1
102
RTVSPost2010Prop31
280
     0
102
RTVSPost2010PropOp31
 70
     1
102
RTVSPost2010Prop32
280
     0
102
RTVSPost2010PropOp32
 70
     1
102
RTVSPost2010Prop33
280
     0
102
RTVSPost2010PropOp33
 70
     1
102
RTVSPost2010Prop34
280
     0
102
RTVSPost2010PropOp34
 70
     1
102
RTVSPost2010Prop35
280
     0
102
RTVSPost2010PropOp35
 70
     1
102
RTVSPost2010Prop36
280
     0
102
RTVSPost2010PropOp36
 70
     1
102
RTVSPost2010Prop37
 90
       50
102
RTVSPost2010PropOp37
 70
     1
102
RTVSPost2010Prop38
140
0.0
102
RTVSPost2010PropOp38
 70
     1
102
RTVSPost2010Prop39
140
1.0
102
RTVSPost2010PropOp39
 70
     1
102
RTVSPost2010Prop40
 90
        0
102
RTVSPost2010PropOp40
 70
     1
102
RTVSPost2010Prop41ColorIndex
 90
       18
102
RTVSPost2010Prop41ColorRGB
 90
        0
102
RTVSPost2010PropOp41
 70
     1
102
RTVSPost2010Prop42
 90
       50
102
RTVSPost2010PropOp42
 70
     1
102
RTVSPost2010Prop43
 90
        3
102
RTVSPost2010PropOp43
 70
     1
102
RTVSPost2010Prop44ColorIndex
 90
        5
102
RTVSPost2010Prop44ColorRGB
 90
      255
102
RTVSPost2010PropOp44
 70
     1
102
RTVSPost2010Prop45
280
     0
102
RTVSPost2010PropOp45
 70
     1
102
RTVSPost2010Prop46
 90
       50
102
RTVSPost2010PropOp46
 70
     1
102
RTVSPost2010Prop47
 90
       50
102
RTVSPost2010PropOp47
 70
     1
102
RTVSPost2010Prop48
 90
       50
102
RTVSPost2010PropOp48
 70
     1
102
RTVSPost2010Prop49
280
     0
102
RTVSPost2010PropOp49
 70
     1
102
RTVSPost2010Prop50
 90
       50
102
RTVSPost2010PropOp50
 70
     1
102
RTVSPost2010Prop51ColorIndex
 90
      256
102
RTVSPost2010Prop51ColorRGB
 90
-16777216
102
RTVSPost2010PropOp51
 70
     0
102
RTVSPost2010Prop52
140
1.0
102
RTVSPost2010PropOp52
 70
     0
102
RTVSPost2010Prop53
 90
        2
102
RTVSPost2010PropOp53
 70
     1
102
RTVSPost2010Prop54
  1
strokes_ogs.tif
102
RTVSPost2010PropOp54
 70
     1
102
RTVSPost2010Prop55
280
     0
102
RTVSPost2010PropOp55
 70
     1
102
RTVSPost2010Prop56
140
1.0
102
RTVSPost2010PropOp56
 70
     1
102
RTVSPost2010Prop57
140
1.0
102
RTVSPost2010PropOp57
 70
     1
102
RTVSPropertyOp0
 70
     1
102
RTVSPropertyOp1
 70
     1
102
RTVSPropertyOp2
 70
     1
102
RTVSPropertyOp3
 70
     1
102
RTVSPropertyOp4
 70
     1
102
RTVSPropertyOp5
 70
     1
102
RTVSPropertyOp6
 70
     1
102
RTVSPropertyOp7
 70
     1
102
RTVSPropertyOp8
 70
     1
102
RTVSPropertyOp9
 70
     1
102
RTVSPropertyOp10
 70
     1
102
RTVSPropertyOp11
 70
     1
102
RTVSPropertyOp12
 70
     1
102
RTVSPropertyOp13
 70
     1
102
RTVSPropertyOp14
 70
     1
102
RTVSPropertyOp15
 70
     1
102
RTVSPropertyOp16
 70
     1
102
RTVSPropertyOp17
 70
     1
102
RTVSPropertyOp18
 70
     1
102
RTVSPropertyOp19
 70
     1
102
RTVSPropertyOp20
 70
     1
102
RTVSPropertyOp21
 70
     1
102
RTVSPropertyOp22
 70
     1
102
RTVSPropertyOp23
 70
     1
102
RTVSPropertyOp24
 70
     1
102
RTVSPropertyOp25
 70
     1
102
RTVSPropertyOp26
 70
     1
102
RTVSPropertyOp27
 70
     1
102
RTVSPropertyOp28
 70
     1
102
RTVSPropertyOp29
 70
     1
102
RTVSPropertyOp30
 70
     1
102
RTVSPropertyOp31
 70
     1
102
RTVSPropertyOp32
 70
     1
102
RTVSPropertyOp33
 70
     1
102
RTVSPropertyOp34
 70
     1
102
RTVSPropertyOp35
 70
     1
102
RTVSPropertyOp36
 70
     1
102
RTVSPropertyOp37
 70
     1
102
RTVSPropertyOp38
 70
     1
102
RTVSPropertyOp39
 70
     1
102
RTVSPropertyOp40
 70
     1
102
RTVSPropertyOp41
 70
     1
102
RTVSPropertyOp42
 70
     1
102
RTVSPropertyOp43
 70
     1
102
RTVSPropertyOp44
 70
     1
102
RTVSPropertyOp45
 70
     1
102
RTVSPropertyOp46
 70
     1
102
RTVSPropertyOp47
 70
     1
102
RTVSPropertyOp48
 70
     1
102
RTVSPropertyOp49
 70
     1
102
RTVSPropertyOp50
 70
     1
102
RTVSPropertyOp51
 70
     0
102
RTVSPropertyOp52
 70
     0
102
RTVSPropertyOp53
 70
     1
102
RTVSPropertyOp54
 70
     1
102
RTVSPropertyOp55
 70
     1
102
RTVSPropertyOp56
 70
     1
102
RTVSPropertyOp57
 70
     1
102
RTVSPropertyOp58
 70
     1
102
RTVSPropertyOp59
 70
     1
102
RTVSPropertyOp60
 70
     1
102
RTVSPropertyOp61
 70
     1
102
RTVSPropertyOp62
 70
     1
  0
XRECORD
  5
284
102
{ACAD_REACTORS
330
283
102
}
330
283
100
AcDbXrecord
280
     1
102
RTVSPost2010Prop28
280
     0
102
RTVSPost2010PropOp28
 70
     1
102
RTVSPost2010Prop29
280
     1
102
RTVSPost2010PropOp29
 70
     1
102
RTVSPost2010Prop30
280
     1
102
RTVSPost2010PropOp30
 70
     1
102
RTVSPost2010Prop31
280
     0
102
RTVSPost2010PropOp31
 70
     1
102
RTVSPost2010Prop32
280
     0
102
RTVSPost2010PropOp32
 70
     1
102
RTVSPost2010Prop33
280
     0
102
RTVSPost2010PropOp33
 70
     1
102
RTVSPost2010Prop34
280
     0
102
RTVSPost2010PropOp34
 70
     1
102
RTVSPost2010Prop35
280
     0
102
RTVSPost2010PropOp35
 70
     1
102
RTVSPost2010Prop36
280
     0
102
RTVSPost2010PropOp36
 70
     1
102
RTVSPost2010Prop37
 90
       50
102
RTVSPost2010PropOp37
 70
     1
102
RTVSPost2010Prop38
140
0.0
102
RTVSPost2010PropOp38
 70
     1
102
RTVSPost2010Prop39
140
1.0
102
RTVSPost2010PropOp39
 70
     1
102
RTVSPost2010Prop40
 90
        0
102
RTVSPost2010PropOp40
 70
     1
102
RTVSPost2010Prop41ColorIndex
 90
       18
102
RTVSPost2010Prop41ColorRGB
 90
        0
102
RTVSPost2010PropOp41
 70
     1
102
RTVSPost2010Prop42
 90
       50
102
RTVSPost2010PropOp42
 70
     1
102
RTVSPost2010Prop43
 90
        3
102
RTVSPost2010PropOp43
 70
     1
102
RTVSPost2010Prop44ColorIndex
 90
        5
102
RTVSPost2010Prop44ColorRGB
 90
      255
102
RTVSPost2010PropOp44
 70
     1
102
RTVSPost2010Prop45
280
     0
102
RTVSPost2010PropOp45
 70
     1
102
RTVSPost2010Prop46
 90
       50
102
RTVSPost2010PropOp46
 70
     1
102
RTVSPost2010Prop47
 90
       50
102
RTVSPost2010PropOp47
 70
     1
102
RTVSPost2010Prop48
 90
       50
102
RTVSPost2010PropOp48
 70
     1
102
RTVSPost2010Prop49
280
     0
102
RTVSPost2010PropOp49
 70
     1
102
RTVSPost2010Prop50
 90
       50
102
RTVSPost2010PropOp50
 70
     1
102
RTVSPost2010Prop51ColorIndex
 90
      256
102
RTVSPost2010Prop51ColorRGB
 90
-16777216
102
RTVSPost2010PropOp51
 70
     0
102
RTVSPost2010Prop52
140
1.0
102
RTVSPost2010PropOp52
 70
     0
102
RTVSPost2010Prop53
 90
        2
102
RTVSPost2010PropOp53
 70
     1
102
RTVSPost2010Prop54
  1
strokes_ogs.tif
102
RTVSPost2010PropOp54
 70
     1
102
RTVSPost2010Prop55
280
     0
102
RTVSPost2010PropOp55
 70
     1
102
RTVSPost2010Prop56
140
1.0
102
RTVSPost2010PropOp56
 70
     1
102
RTVSPost2010Prop57
140
1.0
102
RTVSPost2010PropOp57
 70
     1
102
RTVSPropertyOp0
 70
     1
102
RTVSPropertyOp1
 70
     1
102
RTVSPropertyOp2
 70
     1
102
RTVSPropertyOp3
 70
     1
102
RTVSPropertyOp4
 70
     1
102
RTVSPropertyOp5
 70
     1
102
RTVSPropertyOp6
 70
     1
102
RTVSPropertyOp7
 70
     1
102
RTVSPropertyOp8
 70
     1
102
RTVSPropertyOp9
 70
     1
102
RTVSPropertyOp10
 70
     1
102
RTVSPropertyOp11
 70
     1
102
RTVSPropertyOp12
 70
     1
102
RTVSPropertyOp13
 70
     1
102
RTVSPropertyOp14
 70
     1
102
RTVSPropertyOp15
 70
     1
102
RTVSPropertyOp16
 70
     1
102
RTVSPropertyOp17
 70
     1
102
RTVSPropertyOp18
 70
     1
102
RTVSPropertyOp19
 70
     1
102
RTVSPropertyOp20
 70
     1
102
RTVSPropertyOp21
 70
     1
102
RTVSPropertyOp22
 70
     1
102
RTVSPropertyOp23
 70
     1
102
RTVSPropertyOp24
 70
     1
102
RTVSPropertyOp25
 70
     1
102
RTVSPropertyOp26
 70
     1
102
RTVSPropertyOp27
 70
     1
102
RTVSPropertyOp28
 70
     1
102
RTVSPropertyOp29
 70
     1
102
RTVSPropertyOp30
 70
     1
102
RTVSPropertyOp31
 70
     1
102
RTVSPropertyOp32
 70
     1
102
RTVSPropertyOp33
 70
     1
102
RTVSPropertyOp34
 70
     1
102
RTVSPropertyOp35
 70
     1
102
RTVSPropertyOp36
 70
     1
102
RTVSPropertyOp37
 70
     1
102
RTVSPropertyOp38
 70
     1
102
RTVSPropertyOp39
 70
     1
102
RTVSPropertyOp40
 70
     1
102
RTVSPropertyOp41
 70
     1
102
RTVSPropertyOp42
 70
     1
102
RTVSPropertyOp43
 70
     1
102
RTVSPropertyOp44
 70
     1
102
RTVSPropertyOp45
 70
     1
102
RTVSPropertyOp46
 70
     1
102
RTVSPropertyOp47
 70
     1
102
RTVSPropertyOp48
 70
     1
102
RTVSPropertyOp49
 70
     1
102
RTVSPropertyOp50
 70
     1
102
RTVSPropertyOp51
 70
     0
102
RTVSPropertyOp52
 70
     0
102
RTVSPropertyOp53
 70
     1
102
RTVSPropertyOp54
 70
     1
102
RTVSPropertyOp55
 70
     1
102
RTVSPropertyOp56
 70
     1
102
RTVSPropertyOp57
 70
     1
102
RTVSPropertyOp58
 70
     1
102
RTVSPropertyOp59
 70
     1
102
RTVSPropertyOp60
 70
     1
102
RTVSPropertyOp61
 70
     1
102
RTVSPropertyOp62
 70
     1
  0
XRECORD
  5
28C
102
{ACAD_REACTORS
330
28B
102
}
330
28B
100
AcDbXrecord
280
     1
102
RTVSPost2010Prop28
280
     0
102
RTVSPost2010PropOp28
 70
     1
102
RTVSPost2010Prop29
280
     1
102
RTVSPost2010PropOp29
 70
     1
102
RTVSPost2010Prop30
280
     1
102
RTVSPost2010PropOp30
 70
     1
102
RTVSPost2010Prop31
280
     0
102
RTVSPost2010PropOp31
 70
     1
102
RTVSPost2010Prop32
280
     0
102
RTVSPost2010PropOp32
 70
     1
102
RTVSPost2010Prop33
280
     0
102
RTVSPost2010PropOp33
 70
     1
102
RTVSPost2010Prop34
280
     0
102
RTVSPost2010PropOp34
 70
     1
102
RTVSPost2010Prop35
280
     0
102
RTVSPost2010PropOp35
 70
     1
102
RTVSPost2010Prop36
280
     0
102
RTVSPost2010PropOp36
 70
     1
102
RTVSPost2010Prop37
 90
       50
102
RTVSPost2010PropOp37
 70
     1
102
RTVSPost2010Prop38
140
0.0
102
RTVSPost2010PropOp38
 70
     1
102
RTVSPost2010Prop39
140
1.0
102
RTVSPost2010PropOp39
 70
     1
102
RTVSPost2010Prop40
 90
        0
102
RTVSPost2010PropOp40
 70
     1
102
RTVSPost2010Prop41ColorIndex
 90
       18
102
RTVSPost2010Prop41ColorRGB
 90
        0
102
RTVSPost2010PropOp41
 70
     1
102
RTVSPost2010Prop42
 90
       50
102
RTVSPost2010PropOp42
 70
     1
102
RTVSPost2010Prop43
 90
        3
102
RTVSPost2010PropOp43
 70
     1
102
RTVSPost2010Prop44ColorIndex
 90
        5
102
RTVSPost2010Prop44ColorRGB
 90
      255
102
RTVSPost2010PropOp44
 70
     1
102
RTVSPost2010Prop45
280
     0
102
RTVSPost2010PropOp45
 70
     1
102
RTVSPost2010Prop46
 90
       50
102
RTVSPost2010PropOp46
 70
     1
102
RTVSPost2010Prop47
 90
       50
102
RTVSPost2010PropOp47
 70
     1
102
RTVSPost2010Prop48
 90
       50
102
RTVSPost2010PropOp48
 70
     1
102
RTVSPost2010Prop49
280
     0
102
RTVSPost2010PropOp49
 70
     1
102
RTVSPost2010Prop50
 90
       50
102
RTVSPost2010PropOp50
 70
     1
102
RTVSPost2010Prop51ColorIndex
 90
      256
102
RTVSPost2010Prop51ColorRGB
 90
-16777216
102
RTVSPost2010PropOp51
 70
     0
102
RTVSPost2010Prop52
140
1.0
102
RTVSPost2010PropOp52
 70
     0
102
RTVSPost2010Prop53
 90
        2
102
RTVSPost2010PropOp53
 70
     1
102
RTVSPost2010Prop54
  1
strokes_ogs.tif
102
RTVSPost2010PropOp54
 70
     1
102
RTVSPost2010Prop55
280
     0
102
RTVSPost2010PropOp55
 70
     1
102
RTVSPost2010Prop56
140
1.0
102
RTVSPost2010PropOp56
 70
     1
102
RTVSPost2010Prop57
140
1.0
102
RTVSPost2010PropOp57
 70
     1
102
RTVSPropertyOp0
 70
     1
102
RTVSPropertyOp1
 70
     1
102
RTVSPropertyOp2
 70
     1
102
RTVSPropertyOp3
 70
     1
102
RTVSPropertyOp4
 70
     1
102
RTVSPropertyOp5
 70
     1
102
RTVSPropertyOp6
 70
     1
102
RTVSPropertyOp7
 70
     1
102
RTVSPropertyOp8
 70
     1
102
RTVSPropertyOp9
 70
     1
102
RTVSPropertyOp10
 70
     1
102
RTVSPropertyOp11
 70
     1
102
RTVSPropertyOp12
 70
     1
102
RTVSPropertyOp13
 70
     1
102
RTVSPropertyOp14
 70
     1
102
RTVSPropertyOp15
 70
     1
102
RTVSPropertyOp16
 70
     1
102
RTVSPropertyOp17
 70
     1
102
RTVSPropertyOp18
 70
     1
102
RTVSPropertyOp19
 70
     1
102
RTVSPropertyOp20
 70
     1
102
RTVSPropertyOp21
 70
     1
102
RTVSPropertyOp22
 70
     1
102
RTVSPropertyOp23
 70
     1
102
RTVSPropertyOp24
 70
     1
102
RTVSPropertyOp25
 70
     1
102
RTVSPropertyOp26
 70
     1
102
RTVSPropertyOp27
 70
     1
102
RTVSPropertyOp28
 70
     1
102
RTVSPropertyOp29
 70
     1
102
RTVSPropertyOp30
 70
     1
102
RTVSPropertyOp31
 70
     1
102
RTVSPropertyOp32
 70
     1
102
RTVSPropertyOp33
 70
     1
102
RTVSPropertyOp34
 70
     1
102
RTVSPropertyOp35
 70
     1
102
RTVSPropertyOp36
 70
     1
102
RTVSPropertyOp37
 70
     1
102
RTVSPropertyOp38
 70
     1
102
RTVSPropertyOp39
 70
     1
102
RTVSPropertyOp40
 70
     1
102
RTVSPropertyOp41
 70
     1
102
RTVSPropertyOp42
 70
     1
102
RTVSPropertyOp43
 70
     1
102
RTVSPropertyOp44
 70
     1
102
RTVSPropertyOp45
 70
     1
102
RTVSPropertyOp46
 70
     1
102
RTVSPropertyOp47
 70
     1
102
RTVSPropertyOp48
 70
     1
102
RTVSPropertyOp49
 70
     1
102
RTVSPropertyOp50
 70
     1
102
RTVSPropertyOp51
 70
     0
102
RTVSPropertyOp52
 70
     0
102
RTVSPropertyOp53
 70
     1
102
RTVSPropertyOp54
 70
     1
102
RTVSPropertyOp55
 70
     1
102
RTVSPropertyOp56
 70
     1
102
RTVSPropertyOp57
 70
     1
102
RTVSPropertyOp58
 70
     1
102
RTVSPropertyOp59
 70
     1
102
RTVSPropertyOp60
 70
     1
102
RTVSPropertyOp61
 70
     1
102
RTVSPropertyOp62
 70
     1
  0
XRECORD
  5
27E
102
{ACAD_REACTORS
330
27D
102
}
330
27D
100
AcDbXrecord
280
     1
102
RTVSPost2010Prop28
280
     0
102
RTVSPost2010PropOp28
 70
     1
102
RTVSPost2010Prop29
280
     1
102
RTVSPost2010PropOp29
 70
     1
102
RTVSPost2010Prop30
280
     1
102
RTVSPost2010PropOp30
 70
     1
102
RTVSPost2010Prop31
280
     0
102
RTVSPost2010PropOp31
 70
     1
102
RTVSPost2010Prop32
280
     0
102
RTVSPost2010PropOp32
 70
     1
102
RTVSPost2010Prop33
280
     0
102
RTVSPost2010PropOp33
 70
     1
102
RTVSPost2010Prop34
280
     0
102
RTVSPost2010PropOp34
 70
     1
102
RTVSPost2010Prop35
280
     0
102
RTVSPost2010PropOp35
 70
     1
102
RTVSPost2010Prop36
280
     0
102
RTVSPost2010PropOp36
 70
     1
102
RTVSPost2010Prop37
 90
       50
102
RTVSPost2010PropOp37
 70
     1
102
RTVSPost2010Prop38
140
0.0
102
RTVSPost2010PropOp38
 70
     1
102
RTVSPost2010Prop39
140
1.0
102
RTVSPost2010PropOp39
 70
     1
102
RTVSPost2010Prop40
 90
        0
102
RTVSPost2010PropOp40
 70
     1
102
RTVSPost2010Prop41ColorIndex
 90
       18
102
RTVSPost2010Prop41ColorRGB
 90
        0
102
RTVSPost2010PropOp41
 70
     1
102
RTVSPost2010Prop42
 90
       50
102
RTVSPost2010PropOp42
 70
     1
102
RTVSPost2010Prop43
 90
        3
102
RTVSPost2010PropOp43
 70
     1
102
RTVSPost2010Prop44ColorIndex
 90
        5
102
RTVSPost2010Prop44ColorRGB
 90
      255
102
RTVSPost2010PropOp44
 70
     1
102
RTVSPost2010Prop45
280
     0
102
RTVSPost2010PropOp45
 70
     1
102
RTVSPost2010Prop46
 90
       50
102
RTVSPost2010PropOp46
 70
     1
102
RTVSPost2010Prop47
 90
       50
102
RTVSPost2010PropOp47
 70
     1
102
RTVSPost2010Prop48
 90
       50
102
RTVSPost2010PropOp48
 70
     1
102
RTVSPost2010Prop49
280
     0
102
RTVSPost2010PropOp49
 70
     1
102
RTVSPost2010Prop50
 90
       50
102
RTVSPost2010PropOp50
 70
     1
102
RTVSPost2010Prop51ColorIndex
 90
      256
102
RTVSPost2010Prop51ColorRGB
 90
-16777216
102
RTVSPost2010PropOp51
 70
     0
102
RTVSPost2010Prop52
140
1.0
102
RTVSPost2010PropOp52
 70
     0
102
RTVSPost2010Prop53
 90
        2
102
RTVSPost2010PropOp53
 70
     1
102
RTVSPost2010Prop54
  1
strokes_ogs.tif
102
RTVSPost2010PropOp54
 70
     1
102
RTVSPost2010Prop55
280
     0
102
RTVSPost2010PropOp55
 70
     1
102
RTVSPost2010Prop56
140
1.0
102
RTVSPost2010PropOp56
 70
     1
102
RTVSPost2010Prop57
140
1.0
102
RTVSPost2010PropOp57
 70
     1
102
RTVSPropertyOp0
 70
     1
102
RTVSPropertyOp1
 70
     1
102
RTVSPropertyOp2
 70
     1
102
RTVSPropertyOp3
 70
     1
102
RTVSPropertyOp4
 70
     1
102
RTVSPropertyOp5
 70
     1
102
RTVSPropertyOp6
 70
     1
102
RTVSPropertyOp7
 70
     1
102
RTVSPropertyOp8
 70
     1
102
RTVSPropertyOp9
 70
     1
102
RTVSPropertyOp10
 70
     1
102
RTVSPropertyOp11
 70
     1
102
RTVSPropertyOp12
 70
     1
102
RTVSPropertyOp13
 70
     1
102
RTVSPropertyOp14
 70
     1
102
RTVSPropertyOp15
 70
     1
102
RTVSPropertyOp16
 70
     1
102
RTVSPropertyOp17
 70
     1
102
RTVSPropertyOp18
 70
     1
102
RTVSPropertyOp19
 70
     1
102
RTVSPropertyOp20
 70
     1
102
RTVSPropertyOp21
 70
     1
102
RTVSPropertyOp22
 70
     1
102
RTVSPropertyOp23
 70
     1
102
RTVSPropertyOp24
 70
     1
102
RTVSPropertyOp25
 70
     1
102
RTVSPropertyOp26
 70
     1
102
RTVSPropertyOp27
 70
     1
102
RTVSPropertyOp28
 70
     1
102
RTVSPropertyOp29
 70
     1
102
RTVSPropertyOp30
 70
     1
102
RTVSPropertyOp31
 70
     1
102
RTVSPropertyOp32
 70
     1
102
RTVSPropertyOp33
 70
     1
102
RTVSPropertyOp34
 70
     1
102
RTVSPropertyOp35
 70
     1
102
RTVSPropertyOp36
 70
     1
102
RTVSPropertyOp37
 70
     1
102
RTVSPropertyOp38
 70
     1
102
RTVSPropertyOp39
 70
     1
102
RTVSPropertyOp40
 70
     1
102
RTVSPropertyOp41
 70
     1
102
RTVSPropertyOp42
 70
     1
102
RTVSPropertyOp43
 70
     1
102
RTVSPropertyOp44
 70
     1
102
RTVSPropertyOp45
 70
     1
102
RTVSPropertyOp46
 70
     1
102
RTVSPropertyOp47
 70
     1
102
RTVSPropertyOp48
 70
     1
102
RTVSPropertyOp49
 70
     1
102
RTVSPropertyOp50
 70
     1
102
RTVSPropertyOp51
 70
     0
102
RTVSPropertyOp52
 70
     0
102
RTVSPropertyOp53
 70
     1
102
RTVSPropertyOp54
 70
     1
102
RTVSPropertyOp55
 70
     1
102
RTVSPropertyOp56
 70
     1
102
RTVSPropertyOp57
 70
     1
102
RTVSPropertyOp58
 70
     1
102
RTVSPropertyOp59
 70
     1
102
RTVSPropertyOp60
 70
     1
102
RTVSPropertyOp61
 70
     1
102
RTVSPropertyOp62
 70
     1
  0
XRECORD
  5
282
102
{ACAD_REACTORS
330
281
102
}
330
281
100
AcDbXrecord
280
     1
102
RTVSPost2010Prop28
280
     0
102
RTVSPost2010PropOp28
 70
     1
102
RTVSPost2010Prop29
280
     1
102
RTVSPost2010PropOp29
 70
     1
102
RTVSPost2010Prop30
280
     1
102
RTVSPost2010PropOp30
 70
     1
102
RTVSPost2010Prop31
280
     0
102
RTVSPost2010PropOp31
 70
     1
102
RTVSPost2010Prop32
280
     0
102
RTVSPost2010PropOp32
 70
     1
102
RTVSPost2010Prop33
280
     0
102
RTVSPost2010PropOp33
 70
     1
102
RTVSPost2010Prop34
280
     0
102
RTVSPost2010PropOp34
 70
     1
102
RTVSPost2010Prop35
280
     0
102
RTVSPost2010PropOp35
 70
     1
102
RTVSPost2010Prop36
280
     0
102
RTVSPost2010PropOp36
 70
     1
102
RTVSPost2010Prop37
 90
       50
102
RTVSPost2010PropOp37
 70
     1
102
RTVSPost2010Prop38
140
0.0
102
RTVSPost2010PropOp38
 70
     1
102
RTVSPost2010Prop39
140
1.0
102
RTVSPost2010PropOp39
 70
     1
102
RTVSPost2010Prop40
 90
        0
102
RTVSPost2010PropOp40
 70
     1
102
RTVSPost2010Prop41ColorIndex
 90
       18
102
RTVSPost2010Prop41ColorRGB
 90
        0
102
RTVSPost2010PropOp41
 70
     1
102
RTVSPost2010Prop42
 90
       50
102
RTVSPost2010PropOp42
 70
     1
102
RTVSPost2010Prop43
 90
        3
102
RTVSPost2010PropOp43
 70
     1
102
RTVSPost2010Prop44ColorIndex
 90
        5
102
RTVSPost2010Prop44ColorRGB
 90
      255
102
RTVSPost2010PropOp44
 70
     1
102
RTVSPost2010Prop45
280
     0
102
RTVSPost2010PropOp45
 70
     1
102
RTVSPost2010Prop46
 90
       50
102
RTVSPost2010PropOp46
 70
     1
102
RTVSPost2010Prop47
 90
       50
102
RTVSPost2010PropOp47
 70
     1
102
RTVSPost2010Prop48
 90
       50
102
RTVSPost2010PropOp48
 70
     1
102
RTVSPost2010Prop49
280
     0
102
RTVSPost2010PropOp49
 70
     1
102
RTVSPost2010Prop50
 90
       50
102
RTVSPost2010PropOp50
 70
     1
102
RTVSPost2010Prop51ColorIndex
 90
      256
102
RTVSPost2010Prop51ColorRGB
 90
-16777216
102
RTVSPost2010PropOp51
 70
     0
102
RTVSPost2010Prop52
140
1.0
102
RTVSPost2010PropOp52
 70
     0
102
RTVSPost2010Prop53
 90
        2
102
RTVSPost2010PropOp53
 70
     1
102
RTVSPost2010Prop54
  1
strokes_ogs.tif
102
RTVSPost2010PropOp54
 70
     1
102
RTVSPost2010Prop55
280
     0
102
RTVSPost2010PropOp55
 70
     1
102
RTVSPost2010Prop56
140
1.0
102
RTVSPost2010PropOp56
 70
     1
102
RTVSPost2010Prop57
140
1.0
102
RTVSPost2010PropOp57
 70
     1
102
RTVSPropertyOp0
 70
     1
102
RTVSPropertyOp1
 70
     1
102
RTVSPropertyOp2
 70
     1
102
RTVSPropertyOp3
 70
     1
102
RTVSPropertyOp4
 70
     1
102
RTVSPropertyOp5
 70
     1
102
RTVSPropertyOp6
 70
     1
102
RTVSPropertyOp7
 70
     1
102
RTVSPropertyOp8
 70
     1
102
RTVSPropertyOp9
 70
     1
102
RTVSPropertyOp10
 70
     1
102
RTVSPropertyOp11
 70
     1
102
RTVSPropertyOp12
 70
     1
102
RTVSPropertyOp13
 70
     1
102
RTVSPropertyOp14
 70
     1
102
RTVSPropertyOp15
 70
     1
102
RTVSPropertyOp16
 70
     1
102
RTVSPropertyOp17
 70
     1
102
RTVSPropertyOp18
 70
     1
102
RTVSPropertyOp19
 70
     1
102
RTVSPropertyOp20
 70
     1
102
RTVSPropertyOp21
 70
     1
102
RTVSPropertyOp22
 70
     1
102
RTVSPropertyOp23
 70
     1
102
RTVSPropertyOp24
 70
     1
102
RTVSPropertyOp25
 70
     1
102
RTVSPropertyOp26
 70
     1
102
RTVSPropertyOp27
 70
     1
102
RTVSPropertyOp28
 70
     1
102
RTVSPropertyOp29
 70
     1
102
RTVSPropertyOp30
 70
     1
102
RTVSPropertyOp31
 70
     1
102
RTVSPropertyOp32
 70
     1
102
RTVSPropertyOp33
 70
     1
102
RTVSPropertyOp34
 70
     1
102
RTVSPropertyOp35
 70
     1
102
RTVSPropertyOp36
 70
     1
102
RTVSPropertyOp37
 70
     1
102
RTVSPropertyOp38
 70
     1
102
RTVSPropertyOp39
 70
     1
102
RTVSPropertyOp40
 70
     1
102
RTVSPropertyOp41
 70
     1
102
RTVSPropertyOp42
 70
     1
102
RTVSPropertyOp43
 70
     1
102
RTVSPropertyOp44
 70
     1
102
RTVSPropertyOp45
 70
     1
102
RTVSPropertyOp46
 70
     1
102
RTVSPropertyOp47
 70
     1
102
RTVSPropertyOp48
 70
     1
102
RTVSPropertyOp49
 70
     1
102
RTVSPropertyOp50
 70
     1
102
RTVSPropertyOp51
 70
     0
102
RTVSPropertyOp52
 70
     0
102
RTVSPropertyOp53
 70
     1
102
RTVSPropertyOp54
 70
     1
102
RTVSPropertyOp55
 70
     1
102
RTVSPropertyOp56
 70
     1
102
RTVSPropertyOp57
 70
     1
102
RTVSPropertyOp58
 70
     1
102
RTVSPropertyOp59
 70
     1
102
RTVSPropertyOp60
 70
     1
102
RTVSPropertyOp61
 70
     1
102
RTVSPropertyOp62
 70
     1
  0
XRECORD
  5
292
102
{ACAD_REACTORS
330
291
102
}
330
291
100
AcDbXrecord
280
     1
102
RTVSPost2010Prop28
280
     0
102
RTVSPost2010PropOp28
 70
     1
102
RTVSPost2010Prop29
280
     1
102
RTVSPost2010PropOp29
 70
     1
102
RTVSPost2010Prop30
280
     1
102
RTVSPost2010PropOp30
 70
     1
102
RTVSPost2010Prop31
280
     0
102
RTVSPost2010PropOp31
 70
     1
102
RTVSPost2010Prop32
280
     0
102
RTVSPost2010PropOp32
 70
     1
102
RTVSPost2010Prop33
280
     0
102
RTVSPost2010PropOp33
 70
     1
102
RTVSPost2010Prop34
280
     0
102
RTVSPost2010PropOp34
 70
     1
102
RTVSPost2010Prop35
280
     0
102
RTVSPost2010PropOp35
 70
     1
102
RTVSPost2010Prop36
280
     0
102
RTVSPost2010PropOp36
 70
     1
102
RTVSPost2010Prop37
 90
       50
102
RTVSPost2010PropOp37
 70
     1
102
RTVSPost2010Prop38
140
0.0
102
RTVSPost2010PropOp38
 70
     1
102
RTVSPost2010Prop39
140
1.0
102
RTVSPost2010PropOp39
 70
     1
102
RTVSPost2010Prop40
 90
        0
102
RTVSPost2010PropOp40
 70
     1
102
RTVSPost2010Prop41ColorIndex
 90
       18
102
RTVSPost2010Prop41ColorRGB
 90
        0
102
RTVSPost2010PropOp41
 70
     1
102
RTVSPost2010Prop42
 90
       50
102
RTVSPost2010PropOp42
 70
     1
102
RTVSPost2010Prop43
 90
        3
102
RTVSPost2010PropOp43
 70
     1
102
RTVSPost2010Prop44ColorIndex
 90
        5
102
RTVSPost2010Prop44ColorRGB
 90
      255
102
RTVSPost2010PropOp44
 70
     1
102
RTVSPost2010Prop45
280
     0
102
RTVSPost2010PropOp45
 70
     1
102
RTVSPost2010Prop46
 90
       50
102
RTVSPost2010PropOp46
 70
     1
102
RTVSPost2010Prop47
 90
       50
102
RTVSPost2010PropOp47
 70
     1
102
RTVSPost2010Prop48
 90
       50
102
RTVSPost2010PropOp48
 70
     1
102
RTVSPost2010Prop49
280
     0
102
RTVSPost2010PropOp49
 70
     1
102
RTVSPost2010Prop50
 90
       50
102
RTVSPost2010PropOp50
 70
     1
102
RTVSPost2010Prop51ColorIndex
 90
      256
102
RTVSPost2010Prop51ColorRGB
 90
-16777216
102
RTVSPost2010PropOp51
 70
     0
102
RTVSPost2010Prop52
140
1.0
102
RTVSPost2010PropOp52
 70
     0
102
RTVSPost2010Prop53
 90
        2
102
RTVSPost2010PropOp53
 70
     1
102
RTVSPost2010Prop54
  1
strokes_ogs.tif
102
RTVSPost2010PropOp54
 70
     1
102
RTVSPost2010Prop55
280
     0
102
RTVSPost2010PropOp55
 70
     1
102
RTVSPost2010Prop56
140
1.0
102
RTVSPost2010PropOp56
 70
     1
102
RTVSPost2010Prop57
140
1.0
102
RTVSPost2010PropOp57
 70
     1
102
RTVSPropertyOp0
 70
     0
102
RTVSPropertyOp1
 70
     0
102
RTVSPropertyOp2
 70
     0
102
RTVSPropertyOp3
 70
     0
102
RTVSPropertyOp4
 70
     0
102
RTVSPropertyOp5
 70
     0
102
RTVSPropertyOp6
 70
     0
102
RTVSPropertyOp7
 70
     0
102
RTVSPropertyOp8
 70
     0
102
RTVSPropertyOp9
 70
     0
102
RTVSPropertyOp10
 70
     0
102
RTVSPropertyOp11
 70
     0
102
RTVSPropertyOp12
 70
     0
102
RTVSPropertyOp13
 70
     0
102
RTVSPropertyOp14
 70
     2
102
RTVSPropertyOp15
 70
     0
102
RTVSPropertyOp16
 70
     0
102
RTVSPropertyOp17
 70
     0
102
RTVSPropertyOp18
 70
     0
102
RTVSPropertyOp19
 70
     0
102
RTVSPropertyOp20
 70
     0
102
RTVSPropertyOp21
 70
     0
102
RTVSPropertyOp22
 70
     0
102
RTVSPropertyOp23
 70
     0
102
RTVSPropertyOp24
 70
     0
102
RTVSPropertyOp25
 70
     0
102
RTVSPropertyOp26
 70
     0
102
RTVSPropertyOp27
 70
     0
102
RTVSPropertyOp28
 70
     1
102
RTVSPropertyOp29
 70
     1
102
RTVSPropertyOp30
 70
     1
102
RTVSPropertyOp31
 70
     1
102
RTVSPropertyOp32
 70
     1
102
RTVSPropertyOp33
 70
     1
102
RTVSPropertyOp34
 70
     1
102
RTVSPropertyOp35
 70
     1
102
RTVSPropertyOp36
 70
     1
102
RTVSPropertyOp37
 70
     1
102
RTVSPropertyOp38
 70
     1
102
RTVSPropertyOp39
 70
     1
102
RTVSPropertyOp40
 70
     1
102
RTVSPropertyOp41
 70
     1
102
RTVSPropertyOp42
 70
     1
102
RTVSPropertyOp43
 70
     1
102
RTVSPropertyOp44
 70
     1
102
RTVSPropertyOp45
 70
     1
102
RTVSPropertyOp46
 70
     1
102
RTVSPropertyOp47
 70
     1
102
RTVSPropertyOp48
 70
     1
102
RTVSPropertyOp49
 70
     1
102
RTVSPropertyOp50
 70
     1
102
RTVSPropertyOp51
 70
     0
102
RTVSPropertyOp52
 70
     0
102
RTVSPropertyOp53
 70
     1
102
RTVSPropertyOp54
 70
     1
102
RTVSPropertyOp55
 70
     1
102
RTVSPropertyOp56
 70
     1
102
RTVSPropertyOp57
 70
     1
102
RTVSPropertyOp58
 70
     1
102
RTVSPropertyOp59
 70
     1
102
RTVSPropertyOp60
 70
     1
102
RTVSPropertyOp61
 70
     1
102
RTVSPropertyOp62
 70
     1
  0
XRECORD
  5
28A
102
{ACAD_REACTORS
330
289
102
}
330
289
100
AcDbXrecord
280
     1
102
RTVSPost2010Prop28
280
     0
102
RTVSPost2010PropOp28
 70
     1
102
RTVSPost2010Prop29
280
     1
102
RTVSPost2010PropOp29
 70
     1
102
RTVSPost2010Prop30
280
     1
102
RTVSPost2010PropOp30
 70
     1
102
RTVSPost2010Prop31
280
     0
102
RTVSPost2010PropOp31
 70
     1
102
RTVSPost2010Prop32
280
     0
102
RTVSPost2010PropOp32
 70
     1
102
RTVSPost2010Prop33
280
     0
102
RTVSPost2010PropOp33
 70
     1
102
RTVSPost2010Prop34
280
     0
102
RTVSPost2010PropOp34
 70
     1
102
RTVSPost2010Prop35
280
     0
102
RTVSPost2010PropOp35
 70
     1
102
RTVSPost2010Prop36
280
     0
102
RTVSPost2010PropOp36
 70
     1
102
RTVSPost2010Prop37
 90
       50
102
RTVSPost2010PropOp37
 70
     1
102
RTVSPost2010Prop38
140
0.0
102
RTVSPost2010PropOp38
 70
     1
102
RTVSPost2010Prop39
140
1.0
102
RTVSPost2010PropOp39
 70
     1
102
RTVSPost2010Prop40
 90
        0
102
RTVSPost2010PropOp40
 70
     1
102
RTVSPost2010Prop41ColorIndex
 90
       18
102
RTVSPost2010Prop41ColorRGB
 90
        0
102
RTVSPost2010PropOp41
 70
     1
102
RTVSPost2010Prop42
 90
       50
102
RTVSPost2010PropOp42
 70
     1
102
RTVSPost2010Prop43
 90
        3
102
RTVSPost2010PropOp43
 70
     1
102
RTVSPost2010Prop44ColorIndex
 90
        5
102
RTVSPost2010Prop44ColorRGB
 90
      255
102
RTVSPost2010PropOp44
 70
     1
102
RTVSPost2010Prop45
280
     0
102
RTVSPost2010PropOp45
 70
     1
102
RTVSPost2010Prop46
 90
       50
102
RTVSPost2010PropOp46
 70
     1
102
RTVSPost2010Prop47
 90
       50
102
RTVSPost2010PropOp47
 70
     1
102
RTVSPost2010Prop48
 90
       50
102
RTVSPost2010PropOp48
 70
     1
102
RTVSPost2010Prop49
280
     0
102
RTVSPost2010PropOp49
 70
     1
102
RTVSPost2010Prop50
 90
       50
102
RTVSPost2010PropOp50
 70
     1
102
RTVSPost2010Prop51ColorIndex
 90
      256
102
RTVSPost2010Prop51ColorRGB
 90
-16777216
102
RTVSPost2010PropOp51
 70
     0
102
RTVSPost2010Prop52
140
1.0
102
RTVSPost2010PropOp52
 70
     0
102
RTVSPost2010Prop53
 90
        2
102
RTVSPost2010PropOp53
 70
     1
102
RTVSPost2010Prop54
  1
strokes_ogs.tif
102
RTVSPost2010PropOp54
 70
     1
102
RTVSPost2010Prop55
280
     0
102
RTVSPost2010PropOp55
 70
     1
102
RTVSPost2010Prop56
140
1.0
102
RTVSPost2010PropOp56
 70
     1
102
RTVSPost2010Prop57
140
1.0
102
RTVSPost2010PropOp57
 70
     1
102
RTVSPropertyOp0
 70
     1
102
RTVSPropertyOp1
 70
     1
102
RTVSPropertyOp2
 70
     1
102
RTVSPropertyOp3
 70
     1
102
RTVSPropertyOp4
 70
     1
102
RTVSPropertyOp5
 70
     1
102
RTVSPropertyOp6
 70
     1
102
RTVSPropertyOp7
 70
     1
102
RTVSPropertyOp8
 70
     1
102
RTVSPropertyOp9
 70
     1
102
RTVSPropertyOp10
 70
     1
102
RTVSPropertyOp11
 70
     1
102
RTVSPropertyOp12
 70
     1
102
RTVSPropertyOp13
 70
     1
102
RTVSPropertyOp14
 70
     1
102
RTVSPropertyOp15
 70
     1
102
RTVSPropertyOp16
 70
     1
102
RTVSPropertyOp17
 70
     1
102
RTVSPropertyOp18
 70
     1
102
RTVSPropertyOp19
 70
     1
102
RTVSPropertyOp20
 70
     1
102
RTVSPropertyOp21
 70
     1
102
RTVSPropertyOp22
 70
     1
102
RTVSPropertyOp23
 70
     1
102
RTVSPropertyOp24
 70
     1
102
RTVSPropertyOp25
 70
     1
102
RTVSPropertyOp26
 70
     1
102
RTVSPropertyOp27
 70
     1
102
RTVSPropertyOp28
 70
     1
102
RTVSPropertyOp29
 70
     1
102
RTVSPropertyOp30
 70
     1
102
RTVSPropertyOp31
 70
     1
102
RTVSPropertyOp32
 70
     1
102
RTVSPropertyOp33
 70
     1
102
RTVSPropertyOp34
 70
     1
102
RTVSPropertyOp35
 70
     1
102
RTVSPropertyOp36
 70
     1
102
RTVSPropertyOp37
 70
     1
102
RTVSPropertyOp38
 70
     1
102
RTVSPropertyOp39
 70
     1
102
RTVSPropertyOp40
 70
     1
102
RTVSPropertyOp41
 70
     1
102
RTVSPropertyOp42
 70
     1
102
RTVSPropertyOp43
 70
     1
102
RTVSPropertyOp44
 70
     1
102
RTVSPropertyOp45
 70
     1
102
RTVSPropertyOp46
 70
     1
102
RTVSPropertyOp47
 70
     1
102
RTVSPropertyOp48
 70
     1
102
RTVSPropertyOp49
 70
     1
102
RTVSPropertyOp50
 70
     1
102
RTVSPropertyOp51
 70
     0
102
RTVSPropertyOp52
 70
     0
102
RTVSPropertyOp53
 70
     1
102
RTVSPropertyOp54
 70
     1
102
RTVSPropertyOp55
 70
     1
102
RTVSPropertyOp56
 70
     1
102
RTVSPropertyOp57
 70
     1
102
RTVSPropertyOp58
 70
     1
102
RTVSPropertyOp59
 70
     1
102
RTVSPropertyOp60
 70
     1
102
RTVSPropertyOp61
 70
     1
102
RTVSPropertyOp62
 70
     1
  0
XRECORD
  5
26E
102
{ACAD_REACTORS
330
26D
102
}
330
26D
100
AcDbXrecord
280
     1
102
RTVSPost2010Prop28
280
     0
102
RTVSPost2010PropOp28
 70
     1
102
RTVSPost2010Prop29
280
     1
102
RTVSPost2010PropOp29
 70
     1
102
RTVSPost2010Prop30
280
     1
102
RTVSPost2010PropOp30
 70
     1
102
RTVSPost2010Prop31
280
     0
102
RTVSPost2010PropOp31
 70
     1
102
RTVSPost2010Prop32
280
     0
102
RTVSPost2010PropOp32
 70
     1
102
RTVSPost2010Prop33
280
     0
102
RTVSPost2010PropOp33
 70
     1
102
RTVSPost2010Prop34
280
     0
102
RTVSPost2010PropOp34
 70
     1
102
RTVSPost2010Prop35
280
     0
102
RTVSPost2010PropOp35
 70
     1
102
RTVSPost2010Prop36
280
     0
102
RTVSPost2010PropOp36
 70
     1
102
RTVSPost2010Prop37
 90
       50
102
RTVSPost2010PropOp37
 70
     1
102
RTVSPost2010Prop38
140
0.0
102
RTVSPost2010PropOp38
 70
     1
102
RTVSPost2010Prop39
140
1.0
102
RTVSPost2010PropOp39
 70
     1
102
RTVSPost2010Prop40
 90
        0
102
RTVSPost2010PropOp40
 70
     1
102
RTVSPost2010Prop41ColorIndex
 90
       18
102
RTVSPost2010Prop41ColorRGB
 90
        0
102
RTVSPost2010PropOp41
 70
     1
102
RTVSPost2010Prop42
 90
       50
102
RTVSPost2010PropOp42
 70
     1
102
RTVSPost2010Prop43
 90
        3
102
RTVSPost2010PropOp43
 70
     1
102
RTVSPost2010Prop44ColorIndex
 90
        5
102
RTVSPost2010Prop44ColorRGB
 90
      255
102
RTVSPost2010PropOp44
 70
     1
102
RTVSPost2010Prop45
280
     0
102
RTVSPost2010PropOp45
 70
     1
102
RTVSPost2010Prop46
 90
       50
102
RTVSPost2010PropOp46
 70
     1
102
RTVSPost2010Prop47
 90
       50
102
RTVSPost2010PropOp47
 70
     1
102
RTVSPost2010Prop48
 90
       50
102
RTVSPost2010PropOp48
 70
     1
102
RTVSPost2010Prop49
280
     0
102
RTVSPost2010PropOp49
 70
     1
102
RTVSPost2010Prop50
 90
       50
102
RTVSPost2010PropOp50
 70
     1
102
RTVSPost2010Prop51ColorIndex
 90
      256
102
RTVSPost2010Prop51ColorRGB
 90
-16777216
102
RTVSPost2010PropOp51
 70
     0
102
RTVSPost2010Prop52
140
1.0
102
RTVSPost2010PropOp52
 70
     0
102
RTVSPost2010Prop53
 90
        2
102
RTVSPost2010PropOp53
 70
     1
102
RTVSPost2010Prop54
  1
strokes_ogs.tif
102
RTVSPost2010PropOp54
 70
     1
102
RTVSPost2010Prop55
280
     0
102
RTVSPost2010PropOp55
 70
     1
102
RTVSPost2010Prop56
140
1.0
102
RTVSPost2010PropOp56
 70
     1
102
RTVSPost2010Prop57
140
1.0
102
RTVSPost2010PropOp57
 70
     1
102
RTVSPropertyOp0
 70
     1
102
RTVSPropertyOp1
 70
     1
102
RTVSPropertyOp2
 70
     1
102
RTVSPropertyOp3
 70
     1
102
RTVSPropertyOp4
 70
     1
102
RTVSPropertyOp5
 70
     1
102
RTVSPropertyOp6
 70
     1
102
RTVSPropertyOp7
 70
     1
102
RTVSPropertyOp8
 70
     1
102
RTVSPropertyOp9
 70
     1
102
RTVSPropertyOp10
 70
     1
102
RTVSPropertyOp11
 70
     1
102
RTVSPropertyOp12
 70
     1
102
RTVSPropertyOp13
 70
     1
102
RTVSPropertyOp14
 70
     1
102
RTVSPropertyOp15
 70
     1
102
RTVSPropertyOp16
 70
     1
102
RTVSPropertyOp17
 70
     1
102
RTVSPropertyOp18
 70
     1
102
RTVSPropertyOp19
 70
     1
102
RTVSPropertyOp20
 70
     1
102
RTVSPropertyOp21
 70
     1
102
RTVSPropertyOp22
 70
     1
102
RTVSPropertyOp23
 70
     1
102
RTVSPropertyOp24
 70
     1
102
RTVSPropertyOp25
 70
     1
102
RTVSPropertyOp26
 70
     1
102
RTVSPropertyOp27
 70
     1
102
RTVSPropertyOp28
 70
     1
102
RTVSPropertyOp29
 70
     1
102
RTVSPropertyOp30
 70
     1
102
RTVSPropertyOp31
 70
     1
102
RTVSPropertyOp32
 70
     1
102
RTVSPropertyOp33
 70
     1
102
RTVSPropertyOp34
 70
     1
102
RTVSPropertyOp35
 70
     1
102
RTVSPropertyOp36
 70
     1
102
RTVSPropertyOp37
 70
     1
102
RTVSPropertyOp38
 70
     1
102
RTVSPropertyOp39
 70
     1
102
RTVSPropertyOp40
 70
     1
102
RTVSPropertyOp41
 70
     1
102
RTVSPropertyOp42
 70
     1
102
RTVSPropertyOp43
 70
     1
102
RTVSPropertyOp44
 70
     1
102
RTVSPropertyOp45
 70
     1
102
RTVSPropertyOp46
 70
     1
102
RTVSPropertyOp47
 70
     1
102
RTVSPropertyOp48
 70
     1
102
RTVSPropertyOp49
 70
     1
102
RTVSPropertyOp50
 70
     1
102
RTVSPropertyOp51
 70
     0
102
RTVSPropertyOp52
 70
     0
102
RTVSPropertyOp53
 70
     1
102
RTVSPropertyOp54
 70
     1
102
RTVSPropertyOp55
 70
     1
102
RTVSPropertyOp56
 70
     1
102
RTVSPropertyOp57
 70
     1
102
RTVSPropertyOp58
 70
     1
102
RTVSPropertyOp59
 70
     1
102
RTVSPropertyOp60
 70
     1
102
RTVSPropertyOp61
 70
     1
102
RTVSPropertyOp62
 70
     1
  0
XRECORD
  5
270
102
{ACAD_REACTORS
330
26F
102
}
330
26F
100
AcDbXrecord
280
     1
102
RTVSPost2010Prop28
280
     0
102
RTVSPost2010PropOp28
 70
     1
102
RTVSPost2010Prop29
280
     1
102
RTVSPost2010PropOp29
 70
     1
102
RTVSPost2010Prop30
280
     1
102
RTVSPost2010PropOp30
 70
     1
102
RTVSPost2010Prop31
280
     0
102
RTVSPost2010PropOp31
 70
     1
102
RTVSPost2010Prop32
280
     0
102
RTVSPost2010PropOp32
 70
     1
102
RTVSPost2010Prop33
280
     0
102
RTVSPost2010PropOp33
 70
     1
102
RTVSPost2010Prop34
280
     0
102
RTVSPost2010PropOp34
 70
     1
102
RTVSPost2010Prop35
280
     0
102
RTVSPost2010PropOp35
 70
     1
102
RTVSPost2010Prop36
280
     0
102
RTVSPost2010PropOp36
 70
     1
102
RTVSPost2010Prop37
 90
       50
102
RTVSPost2010PropOp37
 70
     1
102
RTVSPost2010Prop38
140
0.0
102
RTVSPost2010PropOp38
 70
     1
102
RTVSPost2010Prop39
140
1.0
102
RTVSPost2010PropOp39
 70
     1
102
RTVSPost2010Prop40
 90
        0
102
RTVSPost2010PropOp40
 70
     1
102
RTVSPost2010Prop41ColorIndex
 90
       18
102
RTVSPost2010Prop41ColorRGB
 90
        0
102
RTVSPost2010PropOp41
 70
     1
102
RTVSPost2010Prop42
 90
       50
102
RTVSPost2010PropOp42
 70
     1
102
RTVSPost2010Prop43
 90
        3
102
RTVSPost2010PropOp43
 70
     1
102
RTVSPost2010Prop44ColorIndex
 90
        5
102
RTVSPost2010Prop44ColorRGB
 90
      255
102
RTVSPost2010PropOp44
 70
     1
102
RTVSPost2010Prop45
280
     0
102
RTVSPost2010PropOp45
 70
     1
102
RTVSPost2010Prop46
 90
       50
102
RTVSPost2010PropOp46
 70
     1
102
RTVSPost2010Prop47
 90
       50
102
RTVSPost2010PropOp47
 70
     1
102
RTVSPost2010Prop48
 90
       50
102
RTVSPost2010PropOp48
 70
     1
102
RTVSPost2010Prop49
280
     0
102
RTVSPost2010PropOp49
 70
     1
102
RTVSPost2010Prop50
 90
       50
102
RTVSPost2010PropOp50
 70
     1
102
RTVSPost2010Prop51ColorIndex
 90
      256
102
RTVSPost2010Prop51ColorRGB
 90
-16777216
102
RTVSPost2010PropOp51
 70
     0
102
RTVSPost2010Prop52
140
1.0
102
RTVSPost2010PropOp52
 70
     0
102
RTVSPost2010Prop53
 90
        2
102
RTVSPost2010PropOp53
 70
     1
102
RTVSPost2010Prop54
  1
strokes_ogs.tif
102
RTVSPost2010PropOp54
 70
     1
102
RTVSPost2010Prop55
280
     0
102
RTVSPost2010PropOp55
 70
     1
102
RTVSPost2010Prop56
140
1.0
102
RTVSPost2010PropOp56
 70
     1
102
RTVSPost2010Prop57
140
1.0
102
RTVSPost2010PropOp57
 70
     1
102
RTVSPropertyOp0
 70
     1
102
RTVSPropertyOp1
 70
     1
102
RTVSPropertyOp2
 70
     1
102
RTVSPropertyOp3
 70
     1
102
RTVSPropertyOp4
 70
     1
102
RTVSPropertyOp5
 70
     1
102
RTVSPropertyOp6
 70
     1
102
RTVSPropertyOp7
 70
     1
102
RTVSPropertyOp8
 70
     1
102
RTVSPropertyOp9
 70
     1
102
RTVSPropertyOp10
 70
     1
102
RTVSPropertyOp11
 70
     1
102
RTVSPropertyOp12
 70
     1
102
RTVSPropertyOp13
 70
     1
102
RTVSPropertyOp14
 70
     1
102
RTVSPropertyOp15
 70
     1
102
RTVSPropertyOp16
 70
     1
102
RTVSPropertyOp17
 70
     1
102
RTVSPropertyOp18
 70
     1
102
RTVSPropertyOp19
 70
     1
102
RTVSPropertyOp20
 70
     1
102
RTVSPropertyOp21
 70
     1
102
RTVSPropertyOp22
 70
     1
102
RTVSPropertyOp23
 70
     1
102
RTVSPropertyOp24
 70
     1
102
RTVSPropertyOp25
 70
     1
102
RTVSPropertyOp26
 70
     1
102
RTVSPropertyOp27
 70
     1
102
RTVSPropertyOp28
 70
     1
102
RTVSPropertyOp29
 70
     1
102
RTVSPropertyOp30
 70
     1
102
RTVSPropertyOp31
 70
     1
102
RTVSPropertyOp32
 70
     1
102
RTVSPropertyOp33
 70
     1
102
RTVSPropertyOp34
 70
     1
102
RTVSPropertyOp35
 70
     1
102
RTVSPropertyOp36
 70
     1
102
RTVSPropertyOp37
 70
     1
102
RTVSPropertyOp38
 70
     1
102
RTVSPropertyOp39
 70
     1
102
RTVSPropertyOp40
 70
     1
102
RTVSPropertyOp41
 70
     1
102
RTVSPropertyOp42
 70
     1
102
RTVSPropertyOp43
 70
     1
102
RTVSPropertyOp44
 70
     1
102
RTVSPropertyOp45
 70
     1
102
RTVSPropertyOp46
 70
     1
102
RTVSPropertyOp47
 70
     1
102
RTVSPropertyOp48
 70
     1
102
RTVSPropertyOp49
 70
     1
102
RTVSPropertyOp50
 70
     1
102
RTVSPropertyOp51
 70
     0
102
RTVSPropertyOp52
 70
     0
102
RTVSPropertyOp53
 70
     1
102
RTVSPropertyOp54
 70
     1
102
RTVSPropertyOp55
 70
     1
102
RTVSPropertyOp56
 70
     1
102
RTVSPropertyOp57
 70
     1
102
RTVSPropertyOp58
 70
     1
102
RTVSPropertyOp59
 70
     1
102
RTVSPropertyOp60
 70
     1
102
RTVSPropertyOp61
 70
     1
102
RTVSPropertyOp62
 70
     1
  0
XRECORD
  5
272
102
{ACAD_REACTORS
330
271
102
}
330
271
100
AcDbXrecord
280
     1
102
RTVSPost2010Prop28
280
     0
102
RTVSPost2010PropOp28
 70
     1
102
RTVSPost2010Prop29
280
     1
102
RTVSPost2010PropOp29
 70
     1
102
RTVSPost2010Prop30
280
     1
102
RTVSPost2010PropOp30
 70
     1
102
RTVSPost2010Prop31
280
     0
102
RTVSPost2010PropOp31
 70
     1
102
RTVSPost2010Prop32
280
     0
102
RTVSPost2010PropOp32
 70
     1
102
RTVSPost2010Prop33
280
     0
102
RTVSPost2010PropOp33
 70
     1
102
RTVSPost2010Prop34
280
     0
102
RTVSPost2010PropOp34
 70
     1
102
RTVSPost2010Prop35
280
     0
102
RTVSPost2010PropOp35
 70
     1
102
RTVSPost2010Prop36
280
     0
102
RTVSPost2010PropOp36
 70
     1
102
RTVSPost2010Prop37
 90
       50
102
RTVSPost2010PropOp37
 70
     1
102
RTVSPost2010Prop38
140
0.0
102
RTVSPost2010PropOp38
 70
     1
102
RTVSPost2010Prop39
140
1.0
102
RTVSPost2010PropOp39
 70
     1
102
RTVSPost2010Prop40
 90
        0
102
RTVSPost2010PropOp40
 70
     1
102
RTVSPost2010Prop41ColorIndex
 90
       18
102
RTVSPost2010Prop41ColorRGB
 90
        0
102
RTVSPost2010PropOp41
 70
     1
102
RTVSPost2010Prop42
 90
       50
102
RTVSPost2010PropOp42
 70
     1
102
RTVSPost2010Prop43
 90
        3
102
RTVSPost2010PropOp43
 70
     1
102
RTVSPost2010Prop44ColorIndex
 90
        5
102
RTVSPost2010Prop44ColorRGB
 90
      255
102
RTVSPost2010PropOp44
 70
     1
102
RTVSPost2010Prop45
280
     0
102
RTVSPost2010PropOp45
 70
     1
102
RTVSPost2010Prop46
 90
       50
102
RTVSPost2010PropOp46
 70
     1
102
RTVSPost2010Prop47
 90
       50
102
RTVSPost2010PropOp47
 70
     1
102
RTVSPost2010Prop48
 90
       50
102
RTVSPost2010PropOp48
 70
     1
102
RTVSPost2010Prop49
280
     0
102
RTVSPost2010PropOp49
 70
     1
102
RTVSPost2010Prop50
 90
       50
102
RTVSPost2010PropOp50
 70
     1
102
RTVSPost2010Prop51ColorIndex
 90
      256
102
RTVSPost2010Prop51ColorRGB
 90
-16777216
102
RTVSPost2010PropOp51
 70
     0
102
RTVSPost2010Prop52
140
1.0
102
RTVSPost2010PropOp52
 70
     0
102
RTVSPost2010Prop53
 90
        2
102
RTVSPost2010PropOp53
 70
     1
102
RTVSPost2010Prop54
  1
strokes_ogs.tif
102
RTVSPost2010PropOp54
 70
     1
102
RTVSPost2010Prop55
280
     0
102
RTVSPost2010PropOp55
 70
     1
102
RTVSPost2010Prop56
140
1.0
102
RTVSPost2010PropOp56
 70
     1
102
RTVSPost2010Prop57
140
1.0
102
RTVSPost2010PropOp57
 70
     1
102
RTVSPropertyOp0
 70
     1
102
RTVSPropertyOp1
 70
     1
102
RTVSPropertyOp2
 70
     1
102
RTVSPropertyOp3
 70
     1
102
RTVSPropertyOp4
 70
     1
102
RTVSPropertyOp5
 70
     1
102
RTVSPropertyOp6
 70
     1
102
RTVSPropertyOp7
 70
     1
102
RTVSPropertyOp8
 70
     1
102
RTVSPropertyOp9
 70
     1
102
RTVSPropertyOp10
 70
     1
102
RTVSPropertyOp11
 70
     1
102
RTVSPropertyOp12
 70
     1
102
RTVSPropertyOp13
 70
     1
102
RTVSPropertyOp14
 70
     1
102
RTVSPropertyOp15
 70
     1
102
RTVSPropertyOp16
 70
     1
102
RTVSPropertyOp17
 70
     1
102
RTVSPropertyOp18
 70
     1
102
RTVSPropertyOp19
 70
     1
102
RTVSPropertyOp20
 70
     1
102
RTVSPropertyOp21
 70
     1
102
RTVSPropertyOp22
 70
     1
102
RTVSPropertyOp23
 70
     1
102
RTVSPropertyOp24
 70
     1
102
RTVSPropertyOp25
 70
     1
102
RTVSPropertyOp26
 70
     1
102
RTVSPropertyOp27
 70
     1
102
RTVSPropertyOp28
 70
     1
102
RTVSPropertyOp29
 70
     1
102
RTVSPropertyOp30
 70
     1
102
RTVSPropertyOp31
 70
     1
102
RTVSPropertyOp32
 70
     1
102
RTVSPropertyOp33
 70
     1
102
RTVSPropertyOp34
 70
     1
102
RTVSPropertyOp35
 70
     1
102
RTVSPropertyOp36
 70
     1
102
RTVSPropertyOp37
 70
     1
102
RTVSPropertyOp38
 70
     1
102
RTVSPropertyOp39
 70
     1
102
RTVSPropertyOp40
 70
     1
102
RTVSPropertyOp41
 70
     1
102
RTVSPropertyOp42
 70
     1
102
RTVSPropertyOp43
 70
     1
102
RTVSPropertyOp44
 70
     1
102
RTVSPropertyOp45
 70
     1
102
RTVSPropertyOp46
 70
     1
102
RTVSPropertyOp47
 70
     1
102
RTVSPropertyOp48
 70
     1
102
RTVSPropertyOp49
 70
     1
102
RTVSPropertyOp50
 70
     1
102
RTVSPropertyOp51
 70
     0
102
RTVSPropertyOp52
 70
     0
102
RTVSPropertyOp53
 70
     1
102
RTVSPropertyOp54
 70
     1
102
RTVSPropertyOp55
 70
     1
102
RTVSPropertyOp56
 70
     1
102
RTVSPropertyOp57
 70
     1
102
RTVSPropertyOp58
 70
     1
102
RTVSPropertyOp59
 70
     1
102
RTVSPropertyOp60
 70
     1
102
RTVSPropertyOp61
 70
     1
102
RTVSPropertyOp62
 70
     1
  0
XRECORD
  5
274
102
{ACAD_REACTORS
330
273
102
}
330
273
100
AcDbXrecord
280
     1
102
RTVSPost2010Prop28
280
     0
102
RTVSPost2010PropOp28
 70
     1
102
RTVSPost2010Prop29
280
     1
102
RTVSPost2010PropOp29
 70
     1
102
RTVSPost2010Prop30
280
     1
102
RTVSPost2010PropOp30
 70
     1
102
RTVSPost2010Prop31
280
     0
102
RTVSPost2010PropOp31
 70
     1
102
RTVSPost2010Prop32
280
     0
102
RTVSPost2010PropOp32
 70
     1
102
RTVSPost2010Prop33
280
     0
102
RTVSPost2010PropOp33
 70
     1
102
RTVSPost2010Prop34
280
     0
102
RTVSPost2010PropOp34
 70
     1
102
RTVSPost2010Prop35
280
     0
102
RTVSPost2010PropOp35
 70
     1
102
RTVSPost2010Prop36
280
     0
102
RTVSPost2010PropOp36
 70
     1
102
RTVSPost2010Prop37
 90
       50
102
RTVSPost2010PropOp37
 70
     1
102
RTVSPost2010Prop38
140
0.0
102
RTVSPost2010PropOp38
 70
     1
102
RTVSPost2010Prop39
140
1.0
102
RTVSPost2010PropOp39
 70
     1
102
RTVSPost2010Prop40
 90
        0
102
RTVSPost2010PropOp40
 70
     1
102
RTVSPost2010Prop41ColorIndex
 90
       18
102
RTVSPost2010Prop41ColorRGB
 90
        0
102
RTVSPost2010PropOp41
 70
     1
102
RTVSPost2010Prop42
 90
       50
102
RTVSPost2010PropOp42
 70
     1
102
RTVSPost2010Prop43
 90
        3
102
RTVSPost2010PropOp43
 70
     1
102
RTVSPost2010Prop44ColorIndex
 90
        5
102
RTVSPost2010Prop44ColorRGB
 90
      255
102
RTVSPost2010PropOp44
 70
     1
102
RTVSPost2010Prop45
280
     0
102
RTVSPost2010PropOp45
 70
     1
102
RTVSPost2010Prop46
 90
       50
102
RTVSPost2010PropOp46
 70
     1
102
RTVSPost2010Prop47
 90
       50
102
RTVSPost2010PropOp47
 70
     1
102
RTVSPost2010Prop48
 90
       50
102
RTVSPost2010PropOp48
 70
     1
102
RTVSPost2010Prop49
280
     0
102
RTVSPost2010PropOp49
 70
     1
102
RTVSPost2010Prop50
 90
       50
102
RTVSPost2010PropOp50
 70
     1
102
RTVSPost2010Prop51ColorIndex
 90
      256
102
RTVSPost2010Prop51ColorRGB
 90
-16777216
102
RTVSPost2010PropOp51
 70
     0
102
RTVSPost2010Prop52
140
1.0
102
RTVSPost2010PropOp52
 70
     0
102
RTVSPost2010Prop53
 90
        2
102
RTVSPost2010PropOp53
 70
     1
102
RTVSPost2010Prop54
  1
strokes_ogs.tif
102
RTVSPost2010PropOp54
 70
     1
102
RTVSPost2010Prop55
280
     0
102
RTVSPost2010PropOp55
 70
     1
102
RTVSPost2010Prop56
140
1.0
102
RTVSPost2010PropOp56
 70
     1
102
RTVSPost2010Prop57
140
1.0
102
RTVSPost2010PropOp57
 70
     1
102
RTVSPropertyOp0
 70
     1
102
RTVSPropertyOp1
 70
     1
102
RTVSPropertyOp2
 70
     1
102
RTVSPropertyOp3
 70
     1
102
RTVSPropertyOp4
 70
     1
102
RTVSPropertyOp5
 70
     1
102
RTVSPropertyOp6
 70
     1
102
RTVSPropertyOp7
 70
     1
102
RTVSPropertyOp8
 70
     1
102
RTVSPropertyOp9
 70
     1
102
RTVSPropertyOp10
 70
     1
102
RTVSPropertyOp11
 70
     1
102
RTVSPropertyOp12
 70
     1
102
RTVSPropertyOp13
 70
     1
102
RTVSPropertyOp14
 70
     1
102
RTVSPropertyOp15
 70
     1
102
RTVSPropertyOp16
 70
     1
102
RTVSPropertyOp17
 70
     1
102
RTVSPropertyOp18
 70
     1
102
RTVSPropertyOp19
 70
     1
102
RTVSPropertyOp20
 70
     1
102
RTVSPropertyOp21
 70
     1
102
RTVSPropertyOp22
 70
     1
102
RTVSPropertyOp23
 70
     1
102
RTVSPropertyOp24
 70
     1
102
RTVSPropertyOp25
 70
     1
102
RTVSPropertyOp26
 70
     1
102
RTVSPropertyOp27
 70
     1
102
RTVSPropertyOp28
 70
     1
102
RTVSPropertyOp29
 70
     1
102
RTVSPropertyOp30
 70
     1
102
RTVSPropertyOp31
 70
     1
102
RTVSPropertyOp32
 70
     1
102
RTVSPropertyOp33
 70
     1
102
RTVSPropertyOp34
 70
     1
102
RTVSPropertyOp35
 70
     1
102
RTVSPropertyOp36
 70
     1
102
RTVSPropertyOp37
 70
     1
102
RTVSPropertyOp38
 70
     1
102
RTVSPropertyOp39
 70
     1
102
RTVSPropertyOp40
 70
     1
102
RTVSPropertyOp41
 70
     1
102
RTVSPropertyOp42
 70
     1
102
RTVSPropertyOp43
 70
     1
102
RTVSPropertyOp44
 70
     1
102
RTVSPropertyOp45
 70
     1
102
RTVSPropertyOp46
 70
     1
102
RTVSPropertyOp47
 70
     1
102
RTVSPropertyOp48
 70
     1
102
RTVSPropertyOp49
 70
     1
102
RTVSPropertyOp50
 70
     1
102
RTVSPropertyOp51
 70
     0
102
RTVSPropertyOp52
 70
     0
102
RTVSPropertyOp53
 70
     1
102
RTVSPropertyOp54
 70
     1
102
RTVSPropertyOp55
 70
     1
102
RTVSPropertyOp56
 70
     1
102
RTVSPropertyOp57
 70
     1
102
RTVSPropertyOp58
 70
     1
102
RTVSPropertyOp59
 70
     1
102
RTVSPropertyOp60
 70
     1
102
RTVSPropertyOp61
 70
     1
102
RTVSPropertyOp62
 70
     1
  0
XRECORD
  5
27C
102
{ACAD_REACTORS
330
27B
102
}
330
27B
100
AcDbXrecord
280
     1
102
RTVSPost2010Prop28
280
     0
102
RTVSPost2010PropOp28
 70
     1
102
RTVSPost2010Prop29
280
     1
102
RTVSPost2010PropOp29
 70
     1
102
RTVSPost2010Prop30
280
     1
102
RTVSPost2010PropOp30
 70
     1
102
RTVSPost2010Prop31
280
     0
102
RTVSPost2010PropOp31
 70
     1
102
RTVSPost2010Prop32
280
     0
102
RTVSPost2010PropOp32
 70
     1
102
RTVSPost2010Prop33
280
     0
102
RTVSPost2010PropOp33
 70
     1
102
RTVSPost2010Prop34
280
     0
102
RTVSPost2010PropOp34
 70
     1
102
RTVSPost2010Prop35
280
     0
102
RTVSPost2010PropOp35
 70
     1
102
RTVSPost2010Prop36
280
     0
102
RTVSPost2010PropOp36
 70
     1
102
RTVSPost2010Prop37
 90
       50
102
RTVSPost2010PropOp37
 70
     1
102
RTVSPost2010Prop38
140
0.0
102
RTVSPost2010PropOp38
 70
     1
102
RTVSPost2010Prop39
140
1.0
102
RTVSPost2010PropOp39
 70
     1
102
RTVSPost2010Prop40
 90
        0
102
RTVSPost2010PropOp40
 70
     1
102
RTVSPost2010Prop41ColorIndex
 90
       18
102
RTVSPost2010Prop41ColorRGB
 90
        0
102
RTVSPost2010PropOp41
 70
     1
102
RTVSPost2010Prop42
 90
       50
102
RTVSPost2010PropOp42
 70
     1
102
RTVSPost2010Prop43
 90
        3
102
RTVSPost2010PropOp43
 70
     1
102
RTVSPost2010Prop44ColorIndex
 90
        5
102
RTVSPost2010Prop44ColorRGB
 90
      255
102
RTVSPost2010PropOp44
 70
     1
102
RTVSPost2010Prop45
280
     0
102
RTVSPost2010PropOp45
 70
     1
102
RTVSPost2010Prop46
 90
       50
102
RTVSPost2010PropOp46
 70
     1
102
RTVSPost2010Prop47
 90
       50
102
RTVSPost2010PropOp47
 70
     1
102
RTVSPost2010Prop48
 90
       50
102
RTVSPost2010PropOp48
 70
     1
102
RTVSPost2010Prop49
280
     0
102
RTVSPost2010PropOp49
 70
     1
102
RTVSPost2010Prop50
 90
       50
102
RTVSPost2010PropOp50
 70
     1
102
RTVSPost2010Prop51ColorIndex
 90
      256
102
RTVSPost2010Prop51ColorRGB
 90
-16777216
102
RTVSPost2010PropOp51
 70
     0
102
RTVSPost2010Prop52
140
1.0
102
RTVSPost2010PropOp52
 70
     0
102
RTVSPost2010Prop53
 90
        2
102
RTVSPost2010PropOp53
 70
     1
102
RTVSPost2010Prop54
  1
strokes_ogs.tif
102
RTVSPost2010PropOp54
 70
     1
102
RTVSPost2010Prop55
280
     0
102
RTVSPost2010PropOp55
 70
     1
102
RTVSPost2010Prop56
140
1.0
102
RTVSPost2010PropOp56
 70
     1
102
RTVSPost2010Prop57
140
1.0
102
RTVSPost2010PropOp57
 70
     1
102
RTVSPropertyOp0
 70
     1
102
RTVSPropertyOp1
 70
     1
102
RTVSPropertyOp2
 70
     1
102
RTVSPropertyOp3
 70
     1
102
RTVSPropertyOp4
 70
     1
102
RTVSPropertyOp5
 70
     1
102
RTVSPropertyOp6
 70
     1
102
RTVSPropertyOp7
 70
     1
102
RTVSPropertyOp8
 70
     1
102
RTVSPropertyOp9
 70
     1
102
RTVSPropertyOp10
 70
     1
102
RTVSPropertyOp11
 70
     1
102
RTVSPropertyOp12
 70
     1
102
RTVSPropertyOp13
 70
     1
102
RTVSPropertyOp14
 70
     1
102
RTVSPropertyOp15
 70
     1
102
RTVSPropertyOp16
 70
     1
102
RTVSPropertyOp17
 70
     1
102
RTVSPropertyOp18
 70
     1
102
RTVSPropertyOp19
 70
     1
102
RTVSPropertyOp20
 70
     1
102
RTVSPropertyOp21
 70
     1
102
RTVSPropertyOp22
 70
     1
102
RTVSPropertyOp23
 70
     1
102
RTVSPropertyOp24
 70
     1
102
RTVSPropertyOp25
 70
     1
102
RTVSPropertyOp26
 70
     1
102
RTVSPropertyOp27
 70
     1
102
RTVSPropertyOp28
 70
     1
102
RTVSPropertyOp29
 70
     1
102
RTVSPropertyOp30
 70
     1
102
RTVSPropertyOp31
 70
     1
102
RTVSPropertyOp32
 70
     1
102
RTVSPropertyOp33
 70
     1
102
RTVSPropertyOp34
 70
     1
102
RTVSPropertyOp35
 70
     1
102
RTVSPropertyOp36
 70
     1
102
RTVSPropertyOp37
 70
     1
102
RTVSPropertyOp38
 70
     1
102
RTVSPropertyOp39
 70
     1
102
RTVSPropertyOp40
 70
     1
102
RTVSPropertyOp41
 70
     1
102
RTVSPropertyOp42
 70
     1
102
RTVSPropertyOp43
 70
     1
102
RTVSPropertyOp44
 70
     1
102
RTVSPropertyOp45
 70
     1
102
RTVSPropertyOp46
 70
     1
102
RTVSPropertyOp47
 70
     1
102
RTVSPropertyOp48
 70
     1
102
RTVSPropertyOp49
 70
     1
102
RTVSPropertyOp50
 70
     1
102
RTVSPropertyOp51
 70
     0
102
RTVSPropertyOp52
 70
     0
102
RTVSPropertyOp53
 70
     1
102
RTVSPropertyOp54
 70
     1
102
RTVSPropertyOp55
 70
     1
102
RTVSPropertyOp56
 70
     1
102
RTVSPropertyOp57
 70
     1
102
RTVSPropertyOp58
 70
     1
102
RTVSPropertyOp59
 70
     1
102
RTVSPropertyOp60
 70
     1
102
RTVSPropertyOp61
 70
     1
102
RTVSPropertyOp62
 70
     1
  0
XRECORD
  5
28E
102
{ACAD_REACTORS
330
28D
102
}
330
28D
100
AcDbXrecord
280
     1
102
RTVSPost2010Prop28
280
     0
102
RTVSPost2010PropOp28
 70
     1
102
RTVSPost2010Prop29
280
     1
102
RTVSPost2010PropOp29
 70
     1
102
RTVSPost2010Prop30
280
     1
102
RTVSPost2010PropOp30
 70
     1
102
RTVSPost2010Prop31
280
     0
102
RTVSPost2010PropOp31
 70
     1
102
RTVSPost2010Prop32
280
     0
102
RTVSPost2010PropOp32
 70
     1
102
RTVSPost2010Prop33
280
     0
102
RTVSPost2010PropOp33
 70
     1
102
RTVSPost2010Prop34
280
     0
102
RTVSPost2010PropOp34
 70
     1
102
RTVSPost2010Prop35
280
     0
102
RTVSPost2010PropOp35
 70
     1
102
RTVSPost2010Prop36
280
     0
102
RTVSPost2010PropOp36
 70
     1
102
RTVSPost2010Prop37
 90
       50
102
RTVSPost2010PropOp37
 70
     1
102
RTVSPost2010Prop38
140
0.0
102
RTVSPost2010PropOp38
 70
     1
102
RTVSPost2010Prop39
140
1.0
102
RTVSPost2010PropOp39
 70
     1
102
RTVSPost2010Prop40
 90
        0
102
RTVSPost2010PropOp40
 70
     1
102
RTVSPost2010Prop41ColorIndex
 90
       18
102
RTVSPost2010Prop41ColorRGB
 90
        0
102
RTVSPost2010PropOp41
 70
     1
102
RTVSPost2010Prop42
 90
       50
102
RTVSPost2010PropOp42
 70
     1
102
RTVSPost2010Prop43
 90
        3
102
RTVSPost2010PropOp43
 70
     1
102
RTVSPost2010Prop44ColorIndex
 90
        5
102
RTVSPost2010Prop44ColorRGB
 90
      255
102
RTVSPost2010PropOp44
 70
     1
102
RTVSPost2010Prop45
280
     0
102
RTVSPost2010PropOp45
 70
     1
102
RTVSPost2010Prop46
 90
       50
102
RTVSPost2010PropOp46
 70
     1
102
RTVSPost2010Prop47
 90
       50
102
RTVSPost2010PropOp47
 70
     1
102
RTVSPost2010Prop48
 90
       50
102
RTVSPost2010PropOp48
 70
     1
102
RTVSPost2010Prop49
280
     0
102
RTVSPost2010PropOp49
 70
     1
102
RTVSPost2010Prop50
 90
       50
102
RTVSPost2010PropOp50
 70
     1
102
RTVSPost2010Prop51ColorIndex
 90
      256
102
RTVSPost2010Prop51ColorRGB
 90
-16777216
102
RTVSPost2010PropOp51
 70
     0
102
RTVSPost2010Prop52
140
1.0
102
RTVSPost2010PropOp52
 70
     0
102
RTVSPost2010Prop53
 90
        2
102
RTVSPost2010PropOp53
 70
     1
102
RTVSPost2010Prop54
  1
strokes_ogs.tif
102
RTVSPost2010PropOp54
 70
     1
102
RTVSPost2010Prop55
280
     0
102
RTVSPost2010PropOp55
 70
     1
102
RTVSPost2010Prop56
140
1.0
102
RTVSPost2010PropOp56
 70
     1
102
RTVSPost2010Prop57
140
1.0
102
RTVSPost2010PropOp57
 70
     1
102
RTVSPropertyOp0
 70
     0
102
RTVSPropertyOp1
 70
     0
102
RTVSPropertyOp2
 70
     0
102
RTVSPropertyOp3
 70
     0
102
RTVSPropertyOp4
 70
     0
102
RTVSPropertyOp5
 70
     0
102
RTVSPropertyOp6
 70
     0
102
RTVSPropertyOp7
 70
     0
102
RTVSPropertyOp8
 70
     0
102
RTVSPropertyOp9
 70
     0
102
RTVSPropertyOp10
 70
     0
102
RTVSPropertyOp11
 70
     0
102
RTVSPropertyOp12
 70
     0
102
RTVSPropertyOp13
 70
     0
102
RTVSPropertyOp14
 70
     2
102
RTVSPropertyOp15
 70
     0
102
RTVSPropertyOp16
 70
     0
102
RTVSPropertyOp17
 70
     0
102
RTVSPropertyOp18
 70
     0
102
RTVSPropertyOp19
 70
     0
102
RTVSPropertyOp20
 70
     0
102
RTVSPropertyOp21
 70
     0
102
RTVSPropertyOp22
 70
     0
102
RTVSPropertyOp23
 70
     0
102
RTVSPropertyOp24
 70
     0
102
RTVSPropertyOp25
 70
     0
102
RTVSPropertyOp26
 70
     0
102
RTVSPropertyOp27
 70
     0
102
RTVSPropertyOp28
 70
     1
102
RTVSPropertyOp29
 70
     1
102
RTVSPropertyOp30
 70
     1
102
RTVSPropertyOp31
 70
     1
102
RTVSPropertyOp32
 70
     1
102
RTVSPropertyOp33
 70
     1
102
RTVSPropertyOp34
 70
     1
102
RTVSPropertyOp35
 70
     1
102
RTVSPropertyOp36
 70
     1
102
RTVSPropertyOp37
 70
     1
102
RTVSPropertyOp38
 70
     1
102
RTVSPropertyOp39
 70
     1
102
RTVSPropertyOp40
 70
     1
102
RTVSPropertyOp41
 70
     1
102
RTVSPropertyOp42
 70
     1
102
RTVSPropertyOp43
 70
     1
102
RTVSPropertyOp44
 70
     1
102
RTVSPropertyOp45
 70
     1
102
RTVSPropertyOp46
 70
     1
102
RTVSPropertyOp47
 70
     1
102
RTVSPropertyOp48
 70
     1
102
RTVSPropertyOp49
 70
     1
102
RTVSPropertyOp50
 70
     1
102
RTVSPropertyOp51
 70
     0
102
RTVSPropertyOp52
 70
     0
102
RTVSPropertyOp53
 70
     1
102
RTVSPropertyOp54
 70
     1
102
RTVSPropertyOp55
 70
     1
102
RTVSPropertyOp56
 70
     1
102
RTVSPropertyOp57
 70
     1
102
RTVSPropertyOp58
 70
     1
102
RTVSPropertyOp59
 70
     1
102
RTVSPropertyOp60
 70
     1
102
RTVSPropertyOp61
 70
     1
102
RTVSPropertyOp62
 70
     1
  0
XRECORD
  5
288
102
{ACAD_REACTORS
330
287
102
}
330
287
100
AcDbXrecord
280
     1
102
RTVSPost2010Prop28
280
     0
102
RTVSPost2010PropOp28
 70
     1
102
RTVSPost2010Prop29
280
     1
102
RTVSPost2010PropOp29
 70
     1
102
RTVSPost2010Prop30
280
     1
102
RTVSPost2010PropOp30
 70
     1
102
RTVSPost2010Prop31
280
     0
102
RTVSPost2010PropOp31
 70
     1
102
RTVSPost2010Prop32
280
     0
102
RTVSPost2010PropOp32
 70
     1
102
RTVSPost2010Prop33
280
     0
102
RTVSPost2010PropOp33
 70
     1
102
RTVSPost2010Prop34
280
     0
102
RTVSPost2010PropOp34
 70
     1
102
RTVSPost2010Prop35
280
     0
102
RTVSPost2010PropOp35
 70
     1
102
RTVSPost2010Prop36
280
     0
102
RTVSPost2010PropOp36
 70
     1
102
RTVSPost2010Prop37
 90
       50
102
RTVSPost2010PropOp37
 70
     1
102
RTVSPost2010Prop38
140
0.0
102
RTVSPost2010PropOp38
 70
     1
102
RTVSPost2010Prop39
140
1.0
102
RTVSPost2010PropOp39
 70
     1
102
RTVSPost2010Prop40
 90
        0
102
RTVSPost2010PropOp40
 70
     1
102
RTVSPost2010Prop41ColorIndex
 90
       18
102
RTVSPost2010Prop41ColorRGB
 90
        0
102
RTVSPost2010PropOp41
 70
     1
102
RTVSPost2010Prop42
 90
       50
102
RTVSPost2010PropOp42
 70
     1
102
RTVSPost2010Prop43
 90
        3
102
RTVSPost2010PropOp43
 70
     1
102
RTVSPost2010Prop44ColorIndex
 90
        5
102
RTVSPost2010Prop44ColorRGB
 90
      255
102
RTVSPost2010PropOp44
 70
     1
102
RTVSPost2010Prop45
280
     0
102
RTVSPost2010PropOp45
 70
     1
102
RTVSPost2010Prop46
 90
       50
102
RTVSPost2010PropOp46
 70
     1
102
RTVSPost2010Prop47
 90
       50
102
RTVSPost2010PropOp47
 70
     1
102
RTVSPost2010Prop48
 90
       50
102
RTVSPost2010PropOp48
 70
     1
102
RTVSPost2010Prop49
280
     0
102
RTVSPost2010PropOp49
 70
     1
102
RTVSPost2010Prop50
 90
       50
102
RTVSPost2010PropOp50
 70
     1
102
RTVSPost2010Prop51ColorIndex
 90
      256
102
RTVSPost2010Prop51ColorRGB
 90
-16777216
102
RTVSPost2010PropOp51
 70
     0
102
RTVSPost2010Prop52
140
1.0
102
RTVSPost2010PropOp52
 70
     0
102
RTVSPost2010Prop53
 90
        2
102
RTVSPost2010PropOp53
 70
     1
102
RTVSPost2010Prop54
  1
strokes_ogs.tif
102
RTVSPost2010PropOp54
 70
     1
102
RTVSPost2010Prop55
280
     0
102
RTVSPost2010PropOp55
 70
     1
102
RTVSPost2010Prop56
140
1.0
102
RTVSPost2010PropOp56
 70
     1
102
RTVSPost2010Prop57
140
1.0
102
RTVSPost2010PropOp57
 70
     1
102
RTVSPropertyOp0
 70
     1
102
RTVSPropertyOp1
 70
     1
102
RTVSPropertyOp2
 70
     1
102
RTVSPropertyOp3
 70
     1
102
RTVSPropertyOp4
 70
     1
102
RTVSPropertyOp5
 70
     1
102
RTVSPropertyOp6
 70
     1
102
RTVSPropertyOp7
 70
     1
102
RTVSPropertyOp8
 70
     1
102
RTVSPropertyOp9
 70
     1
102
RTVSPropertyOp10
 70
     1
102
RTVSPropertyOp11
 70
     1
102
RTVSPropertyOp12
 70
     1
102
RTVSPropertyOp13
 70
     1
102
RTVSPropertyOp14
 70
     1
102
RTVSPropertyOp15
 70
     1
102
RTVSPropertyOp16
 70
     1
102
RTVSPropertyOp17
 70
     1
102
RTVSPropertyOp18
 70
     1
102
RTVSPropertyOp19
 70
     1
102
RTVSPropertyOp20
 70
     1
102
RTVSPropertyOp21
 70
     1
102
RTVSPropertyOp22
 70
     1
102
RTVSPropertyOp23
 70
     1
102
RTVSPropertyOp24
 70
     1
102
RTVSPropertyOp25
 70
     1
102
RTVSPropertyOp26
 70
     1
102
RTVSPropertyOp27
 70
     1
102
RTVSPropertyOp28
 70
     1
102
RTVSPropertyOp29
 70
     1
102
RTVSPropertyOp30
 70
     1
102
RTVSPropertyOp31
 70
     1
102
RTVSPropertyOp32
 70
     1
102
RTVSPropertyOp33
 70
     1
102
RTVSPropertyOp34
 70
     1
102
RTVSPropertyOp35
 70
     1
102
RTVSPropertyOp36
 70
     1
102
RTVSPropertyOp37
 70
     1
102
RTVSPropertyOp38
 70
     1
102
RTVSPropertyOp39
 70
     1
102
RTVSPropertyOp40
 70
     1
102
RTVSPropertyOp41
 70
     1
102
RTVSPropertyOp42
 70
     1
102
RTVSPropertyOp43
 70
     1
102
RTVSPropertyOp44
 70
     1
102
RTVSPropertyOp45
 70
     1
102
RTVSPropertyOp46
 70
     1
102
RTVSPropertyOp47
 70
     1
102
RTVSPropertyOp48
 70
     1
102
RTVSPropertyOp49
 70
     1
102
RTVSPropertyOp50
 70
     1
102
RTVSPropertyOp51
 70
     0
102
RTVSPropertyOp52
 70
     0
102
RTVSPropertyOp53
 70
     1
102
RTVSPropertyOp54
 70
     1
102
RTVSPropertyOp55
 70
     1
102
RTVSPropertyOp56
 70
     1
102
RTVSPropertyOp57
 70
     1
102
RTVSPropertyOp58
 70
     1
102
RTVSPropertyOp59
 70
     1
102
RTVSPropertyOp60
 70
     1
102
RTVSPropertyOp61
 70
     1
102
RTVSPropertyOp62
 70
     1
  0
XRECORD
  5
290
102
{ACAD_REACTORS
330
28F
102
}
330
28F
100
AcDbXrecord
280
     1
102
RTVSPost2010Prop28
280
     0
102
RTVSPost2010PropOp28
 70
     1
102
RTVSPost2010Prop29
280
     1
102
RTVSPost2010PropOp29
 70
     1
102
RTVSPost2010Prop30
280
     1
102
RTVSPost2010PropOp30
 70
     1
102
RTVSPost2010Prop31
280
     0
102
RTVSPost2010PropOp31
 70
     1
102
RTVSPost2010Prop32
280
     0
102
RTVSPost2010PropOp32
 70
     1
102
RTVSPost2010Prop33
280
     0
102
RTVSPost2010PropOp33
 70
     1
102
RTVSPost2010Prop34
280
     0
102
RTVSPost2010PropOp34
 70
     1
102
RTVSPost2010Prop35
280
     0
102
RTVSPost2010PropOp35
 70
     1
102
RTVSPost2010Prop36
280
     0
102
RTVSPost2010PropOp36
 70
     1
102
RTVSPost2010Prop37
 90
       50
102
RTVSPost2010PropOp37
 70
     1
102
RTVSPost2010Prop38
140
0.0
102
RTVSPost2010PropOp38
 70
     1
102
RTVSPost2010Prop39
140
1.0
102
RTVSPost2010PropOp39
 70
     1
102
RTVSPost2010Prop40
 90
        0
102
RTVSPost2010PropOp40
 70
     1
102
RTVSPost2010Prop41ColorIndex
 90
       18
102
RTVSPost2010Prop41ColorRGB
 90
        0
102
RTVSPost2010PropOp41
 70
     1
102
RTVSPost2010Prop42
 90
       50
102
RTVSPost2010PropOp42
 70
     1
102
RTVSPost2010Prop43
 90
        3
102
RTVSPost2010PropOp43
 70
     1
102
RTVSPost2010Prop44ColorIndex
 90
        5
102
RTVSPost2010Prop44ColorRGB
 90
      255
102
RTVSPost2010PropOp44
 70
     1
102
RTVSPost2010Prop45
280
     0
102
RTVSPost2010PropOp45
 70
     1
102
RTVSPost2010Prop46
 90
       50
102
RTVSPost2010PropOp46
 70
     1
102
RTVSPost2010Prop47
 90
       50
102
RTVSPost2010PropOp47
 70
     1
102
RTVSPost2010Prop48
 90
       50
102
RTVSPost2010PropOp48
 70
     1
102
RTVSPost2010Prop49
280
     0
102
RTVSPost2010PropOp49
 70
     1
102
RTVSPost2010Prop50
 90
       50
102
RTVSPost2010PropOp50
 70
     1
102
RTVSPost2010Prop51ColorIndex
 90
      256
102
RTVSPost2010Prop51ColorRGB
 90
-16777216
102
RTVSPost2010PropOp51
 70
     0
102
RTVSPost2010Prop52
140
1.0
102
RTVSPost2010PropOp52
 70
     0
102
RTVSPost2010Prop53
 90
        2
102
RTVSPost2010PropOp53
 70
     1
102
RTVSPost2010Prop54
  1
strokes_ogs.tif
102
RTVSPost2010PropOp54
 70
     1
102
RTVSPost2010Prop55
280
     0
102
RTVSPost2010PropOp55
 70
     1
102
RTVSPost2010Prop56
140
1.0
102
RTVSPost2010PropOp56
 70
     1
102
RTVSPost2010Prop57
140
1.0
102
RTVSPost2010PropOp57
 70
     1
102
RTVSPropertyOp0
 70
     0
102
RTVSPropertyOp1
 70
     0
102
RTVSPropertyOp2
 70
     0
102
RTVSPropertyOp3
 70
     0
102
RTVSPropertyOp4
 70
     0
102
RTVSPropertyOp5
 70
     0
102
RTVSPropertyOp6
 70
     0
102
RTVSPropertyOp7
 70
     0
102
RTVSPropertyOp8
 70
     0
102
RTVSPropertyOp9
 70
     0
102
RTVSPropertyOp10
 70
     0
102
RTVSPropertyOp11
 70
     0
102
RTVSPropertyOp12
 70
     0
102
RTVSPropertyOp13
 70
     0
102
RTVSPropertyOp14
 70
     2
102
RTVSPropertyOp15
 70
     0
102
RTVSPropertyOp16
 70
     0
102
RTVSPropertyOp17
 70
     0
102
RTVSPropertyOp18
 70
     0
102
RTVSPropertyOp19
 70
     0
102
RTVSPropertyOp20
 70
     0
102
RTVSPropertyOp21
 70
     0
102
RTVSPropertyOp22
 70
     0
102
RTVSPropertyOp23
 70
     0
102
RTVSPropertyOp24
 70
     0
102
RTVSPropertyOp25
 70
     0
102
RTVSPropertyOp26
 70
     0
102
RTVSPropertyOp27
 70
     0
102
RTVSPropertyOp28
 70
     1
102
RTVSPropertyOp29
 70
     1
102
RTVSPropertyOp30
 70
     1
102
RTVSPropertyOp31
 70
     1
102
RTVSPropertyOp32
 70
     1
102
RTVSPropertyOp33
 70
     1
102
RTVSPropertyOp34
 70
     1
102
RTVSPropertyOp35
 70
     1
102
RTVSPropertyOp36
 70
     1
102
RTVSPropertyOp37
 70
     1
102
RTVSPropertyOp38
 70
     1
102
RTVSPropertyOp39
 70
     1
102
RTVSPropertyOp40
 70
     1
102
RTVSPropertyOp41
 70
     1
102
RTVSPropertyOp42
 70
     1
102
RTVSPropertyOp43
 70
     1
102
RTVSPropertyOp44
 70
     1
102
RTVSPropertyOp45
 70
     1
102
RTVSPropertyOp46
 70
     1
102
RTVSPropertyOp47
 70
     1
102
RTVSPropertyOp48
 70
     1
102
RTVSPropertyOp49
 70
     1
102
RTVSPropertyOp50
 70
     1
102
RTVSPropertyOp51
 70
     0
102
RTVSPropertyOp52
 70
     0
102
RTVSPropertyOp53
 70
     1
102
RTVSPropertyOp54
 70
     1
102
RTVSPropertyOp55
 70
     1
102
RTVSPropertyOp56
 70
     1
102
RTVSPropertyOp57
 70
     1
102
RTVSPropertyOp58
 70
     1
102
RTVSPropertyOp59
 70
     1
102
RTVSPropertyOp60
 70
     1
102
RTVSPropertyOp61
 70
     1
102
RTVSPropertyOp62
 70
     1
  0
XRECORD
  5
280
102
{ACAD_REACTORS
330
27F
102
}
330
27F
100
AcDbXrecord
280
     1
102
RTVSPost2010Prop28
280
     0
102
RTVSPost2010PropOp28
 70
     1
102
RTVSPost2010Prop29
280
     1
102
RTVSPost2010PropOp29
 70
     1
102
RTVSPost2010Prop30
280
     1
102
RTVSPost2010PropOp30
 70
     1
102
RTVSPost2010Prop31
280
     0
102
RTVSPost2010PropOp31
 70
     1
102
RTVSPost2010Prop32
280
     0
102
RTVSPost2010PropOp32
 70
     1
102
RTVSPost2010Prop33
280
     0
102
RTVSPost2010PropOp33
 70
     1
102
RTVSPost2010Prop34
280
     0
102
RTVSPost2010PropOp34
 70
     1
102
RTVSPost2010Prop35
280
     0
102
RTVSPost2010PropOp35
 70
     1
102
RTVSPost2010Prop36
280
     0
102
RTVSPost2010PropOp36
 70
     1
102
RTVSPost2010Prop37
 90
       50
102
RTVSPost2010PropOp37
 70
     1
102
RTVSPost2010Prop38
140
0.0
102
RTVSPost2010PropOp38
 70
     1
102
RTVSPost2010Prop39
140
1.0
102
RTVSPost2010PropOp39
 70
     1
102
RTVSPost2010Prop40
 90
        0
102
RTVSPost2010PropOp40
 70
     1
102
RTVSPost2010Prop41ColorIndex
 90
       18
102
RTVSPost2010Prop41ColorRGB
 90
        0
102
RTVSPost2010PropOp41
 70
     1
102
RTVSPost2010Prop42
 90
       50
102
RTVSPost2010PropOp42
 70
     1
102
RTVSPost2010Prop43
 90
        3
102
RTVSPost2010PropOp43
 70
     1
102
RTVSPost2010Prop44ColorIndex
 90
        5
102
RTVSPost2010Prop44ColorRGB
 90
      255
102
RTVSPost2010PropOp44
 70
     1
102
RTVSPost2010Prop45
280
     0
102
RTVSPost2010PropOp45
 70
     1
102
RTVSPost2010Prop46
 90
       50
102
RTVSPost2010PropOp46
 70
     1
102
RTVSPost2010Prop47
 90
       50
102
RTVSPost2010PropOp47
 70
     1
102
RTVSPost2010Prop48
 90
       50
102
RTVSPost2010PropOp48
 70
     1
102
RTVSPost2010Prop49
280
     0
102
RTVSPost2010PropOp49
 70
     1
102
RTVSPost2010Prop50
 90
       50
102
RTVSPost2010PropOp50
 70
     1
102
RTVSPost2010Prop51ColorIndex
 90
      256
102
RTVSPost2010Prop51ColorRGB
 90
-16777216
102
RTVSPost2010PropOp51
 70
     0
102
RTVSPost2010Prop52
140
1.0
102
RTVSPost2010PropOp52
 70
     0
102
RTVSPost2010Prop53
 90
        2
102
RTVSPost2010PropOp53
 70
     1
102
RTVSPost2010Prop54
  1
strokes_ogs.tif
102
RTVSPost2010PropOp54
 70
     1
102
RTVSPost2010Prop55
280
     0
102
RTVSPost2010PropOp55
 70
     1
102
RTVSPost2010Prop56
140
1.0
102
RTVSPost2010PropOp56
 70
     1
102
RTVSPost2010Prop57
140
1.0
102
RTVSPost2010PropOp57
 70
     1
102
RTVSPropertyOp0
 70
     1
102
RTVSPropertyOp1
 70
     1
102
RTVSPropertyOp2
 70
     1
102
RTVSPropertyOp3
 70
     1
102
RTVSPropertyOp4
 70
     1
102
RTVSPropertyOp5
 70
     1
102
RTVSPropertyOp6
 70
     1
102
RTVSPropertyOp7
 70
     1
102
RTVSPropertyOp8
 70
     1
102
RTVSPropertyOp9
 70
     1
102
RTVSPropertyOp10
 70
     1
102
RTVSPropertyOp11
 70
     1
102
RTVSPropertyOp12
 70
     1
102
RTVSPropertyOp13
 70
     1
102
RTVSPropertyOp14
 70
     1
102
RTVSPropertyOp15
 70
     1
102
RTVSPropertyOp16
 70
     1
102
RTVSPropertyOp17
 70
     1
102
RTVSPropertyOp18
 70
     1
102
RTVSPropertyOp19
 70
     1
102
RTVSPropertyOp20
 70
     1
102
RTVSPropertyOp21
 70
     1
102
RTVSPropertyOp22
 70
     1
102
RTVSPropertyOp23
 70
     1
102
RTVSPropertyOp24
 70
     1
102
RTVSPropertyOp25
 70
     1
102
RTVSPropertyOp26
 70
     1
102
RTVSPropertyOp27
 70
     1
102
RTVSPropertyOp28
 70
     1
102
RTVSPropertyOp29
 70
     1
102
RTVSPropertyOp30
 70
     1
102
RTVSPropertyOp31
 70
     1
102
RTVSPropertyOp32
 70
     1
102
RTVSPropertyOp33
 70
     1
102
RTVSPropertyOp34
 70
     1
102
RTVSPropertyOp35
 70
     1
102
RTVSPropertyOp36
 70
     1
102
RTVSPropertyOp37
 70
     1
102
RTVSPropertyOp38
 70
     1
102
RTVSPropertyOp39
 70
     1
102
RTVSPropertyOp40
 70
     1
102
RTVSPropertyOp41
 70
     1
102
RTVSPropertyOp42
 70
     1
102
RTVSPropertyOp43
 70
     1
102
RTVSPropertyOp44
 70
     1
102
RTVSPropertyOp45
 70
     1
102
RTVSPropertyOp46
 70
     1
102
RTVSPropertyOp47
 70
     1
102
RTVSPropertyOp48
 70
     1
102
RTVSPropertyOp49
 70
     1
102
RTVSPropertyOp50
 70
     1
102
RTVSPropertyOp51
 70
     0
102
RTVSPropertyOp52
 70
     0
102
RTVSPropertyOp53
 70
     1
102
RTVSPropertyOp54
 70
     1
102
RTVSPropertyOp55
 70
     1
102
RTVSPropertyOp56
 70
     1
102
RTVSPropertyOp57
 70
     1
102
RTVSPropertyOp58
 70
     1
102
RTVSPropertyOp59
 70
     1
102
RTVSPropertyOp60
 70
     1
102
RTVSPropertyOp61
 70
     1
102
RTVSPropertyOp62
 70
     1
  0
XRECORD
  5
29C
102
{ACAD_REACTORS
330
29B
102
}
330
29B
100
AcDbXrecord
280
     1
102
RTVSPost2010Prop28
280
     0
102
RTVSPost2010PropOp28
 70
     1
102
RTVSPost2010Prop29
280
     1
102
RTVSPost2010PropOp29
 70
     1
102
RTVSPost2010Prop30
280
     1
102
RTVSPost2010PropOp30
 70
     1
102
RTVSPost2010Prop31
280
     0
102
RTVSPost2010PropOp31
 70
     1
102
RTVSPost2010Prop32
280
     0
102
RTVSPost2010PropOp32
 70
     1
102
RTVSPost2010Prop33
280
     0
102
RTVSPost2010PropOp33
 70
     1
102
RTVSPost2010Prop34
280
     0
102
RTVSPost2010PropOp34
 70
     1
102
RTVSPost2010Prop35
280
     0
102
RTVSPost2010PropOp35
 70
     1
102
RTVSPost2010Prop36
280
     0
102
RTVSPost2010PropOp36
 70
     1
102
RTVSPost2010Prop37
 90
       50
102
RTVSPost2010PropOp37
 70
     1
102
RTVSPost2010Prop38
140
0.0
102
RTVSPost2010PropOp38
 70
     1
102
RTVSPost2010Prop39
140
1.0
102
RTVSPost2010PropOp39
 70
     1
102
RTVSPost2010Prop40
 90
        0
102
RTVSPost2010PropOp40
 70
     1
102
RTVSPost2010Prop41ColorIndex
 90
       18
102
RTVSPost2010Prop41ColorRGB
 90
        0
102
RTVSPost2010PropOp41
 70
     1
102
RTVSPost2010Prop42
 90
       50
102
RTVSPost2010PropOp42
 70
     1
102
RTVSPost2010Prop43
 90
        3
102
RTVSPost2010PropOp43
 70
     1
102
RTVSPost2010Prop44ColorIndex
 90
        5
102
RTVSPost2010Prop44ColorRGB
 90
      255
102
RTVSPost2010PropOp44
 70
     1
102
RTVSPost2010Prop45
280
     0
102
RTVSPost2010PropOp45
 70
     1
102
RTVSPost2010Prop46
 90
       50
102
RTVSPost2010PropOp46
 70
     1
102
RTVSPost2010Prop47
 90
       50
102
RTVSPost2010PropOp47
 70
     1
102
RTVSPost2010Prop48
 90
       50
102
RTVSPost2010PropOp48
 70
     1
102
RTVSPost2010Prop49
280
     0
102
RTVSPost2010PropOp49
 70
     1
102
RTVSPost2010Prop50
 90
       50
102
RTVSPost2010PropOp50
 70
     1
102
RTVSPost2010Prop51ColorIndex
 90
      256
102
RTVSPost2010Prop51ColorRGB
 90
-16777216
102
RTVSPost2010PropOp51
 70
     0
102
RTVSPost2010Prop52
140
1.0
102
RTVSPost2010PropOp52
 70
     0
102
RTVSPost2010Prop53
 90
        2
102
RTVSPost2010PropOp53
 70
     1
102
RTVSPost2010Prop54
  1
strokes_ogs.tif
102
RTVSPost2010PropOp54
 70
     1
102
RTVSPost2010Prop55
280
     0
102
RTVSPost2010PropOp55
 70
     1
102
RTVSPost2010Prop56
140
1.0
102
RTVSPost2010PropOp56
 70
     1
102
RTVSPost2010Prop57
140
1.0
102
RTVSPost2010PropOp57
 70
     1
102
RTVSPropertyOp0
 70
     1
102
RTVSPropertyOp1
 70
     1
102
RTVSPropertyOp2
 70
     1
102
RTVSPropertyOp3
 70
     1
102
RTVSPropertyOp4
 70
     1
102
RTVSPropertyOp5
 70
     1
102
RTVSPropertyOp6
 70
     1
102
RTVSPropertyOp7
 70
     1
102
RTVSPropertyOp8
 70
     1
102
RTVSPropertyOp9
 70
     1
102
RTVSPropertyOp10
 70
     1
102
RTVSPropertyOp11
 70
     1
102
RTVSPropertyOp12
 70
     1
102
RTVSPropertyOp13
 70
     1
102
RTVSPropertyOp14
 70
     1
102
RTVSPropertyOp15
 70
     1
102
RTVSPropertyOp16
 70
     1
102
RTVSPropertyOp17
 70
     1
102
RTVSPropertyOp18
 70
     1
102
RTVSPropertyOp19
 70
     1
102
RTVSPropertyOp20
 70
     1
102
RTVSPropertyOp21
 70
     1
102
RTVSPropertyOp22
 70
     1
102
RTVSPropertyOp23
 70
     1
102
RTVSPropertyOp24
 70
     1
102
RTVSPropertyOp25
 70
     1
102
RTVSPropertyOp26
 70
     1
102
RTVSPropertyOp27
 70
     1
102
RTVSPropertyOp28
 70
     1
102
RTVSPropertyOp29
 70
     1
102
RTVSPropertyOp30
 70
     1
102
RTVSPropertyOp31
 70
     1
102
RTVSPropertyOp32
 70
     1
102
RTVSPropertyOp33
 70
     1
102
RTVSPropertyOp34
 70
     1
102
RTVSPropertyOp35
 70
     1
102
RTVSPropertyOp36
 70
     1
102
RTVSPropertyOp37
 70
     1
102
RTVSPropertyOp38
 70
     1
102
RTVSPropertyOp39
 70
     1
102
RTVSPropertyOp40
 70
     1
102
RTVSPropertyOp41
 70
     1
102
RTVSPropertyOp42
 70
     1
102
RTVSPropertyOp43
 70
     1
102
RTVSPropertyOp44
 70
     1
102
RTVSPropertyOp45
 70
     1
102
RTVSPropertyOp46
 70
     1
102
RTVSPropertyOp47
 70
     1
102
RTVSPropertyOp48
 70
     1
102
RTVSPropertyOp49
 70
     1
102
RTVSPropertyOp50
 70
     1
102
RTVSPropertyOp51
 70
     0
102
RTVSPropertyOp52
 70
     0
102
RTVSPropertyOp53
 70
     1
102
RTVSPropertyOp54
 70
     1
102
RTVSPropertyOp55
 70
     1
102
RTVSPropertyOp56
 70
     1
102
RTVSPropertyOp57
 70
     1
102
RTVSPropertyOp58
 70
     1
102
RTVSPropertyOp59
 70
     1
102
RTVSPropertyOp60
 70
     1
102
RTVSPropertyOp61
 70
     1
102
RTVSPropertyOp62
 70
     1
  0
XRECORD
  5
29A
102
{ACAD_REACTORS
330
299
102
}
330
299
100
AcDbXrecord
280
     1
102
RTVSPost2010Prop28
280
     0
102
RTVSPost2010PropOp28
 70
     1
102
RTVSPost2010Prop29
280
     1
102
RTVSPost2010PropOp29
 70
     1
102
RTVSPost2010Prop30
280
     1
102
RTVSPost2010PropOp30
 70
     1
102
RTVSPost2010Prop31
280
     0
102
RTVSPost2010PropOp31
 70
     1
102
RTVSPost2010Prop32
280
     0
102
RTVSPost2010PropOp32
 70
     1
102
RTVSPost2010Prop33
280
     0
102
RTVSPost2010PropOp33
 70
     1
102
RTVSPost2010Prop34
280
     0
102
RTVSPost2010PropOp34
 70
     1
102
RTVSPost2010Prop35
280
     0
102
RTVSPost2010PropOp35
 70
     1
102
RTVSPost2010Prop36
280
     0
102
RTVSPost2010PropOp36
 70
     1
102
RTVSPost2010Prop37
 90
       50
102
RTVSPost2010PropOp37
 70
     1
102
RTVSPost2010Prop38
140
0.0
102
RTVSPost2010PropOp38
 70
     1
102
RTVSPost2010Prop39
140
1.0
102
RTVSPost2010PropOp39
 70
     1
102
RTVSPost2010Prop40
 90
        0
102
RTVSPost2010PropOp40
 70
     1
102
RTVSPost2010Prop41ColorIndex
 90
       18
102
RTVSPost2010Prop41ColorRGB
 90
        0
102
RTVSPost2010PropOp41
 70
     1
102
RTVSPost2010Prop42
 90
       50
102
RTVSPost2010PropOp42
 70
     1
102
RTVSPost2010Prop43
 90
        3
102
RTVSPost2010PropOp43
 70
     1
102
RTVSPost2010Prop44ColorIndex
 90
        5
102
RTVSPost2010Prop44ColorRGB
 90
      255
102
RTVSPost2010PropOp44
 70
     1
102
RTVSPost2010Prop45
280
     0
102
RTVSPost2010PropOp45
 70
     1
102
RTVSPost2010Prop46
 90
       50
102
RTVSPost2010PropOp46
 70
     1
102
RTVSPost2010Prop47
 90
       50
102
RTVSPost2010PropOp47
 70
     1
102
RTVSPost2010Prop48
 90
       50
102
RTVSPost2010PropOp48
 70
     1
102
RTVSPost2010Prop49
280
     0
102
RTVSPost2010PropOp49
 70
     1
102
RTVSPost2010Prop50
 90
       50
102
RTVSPost2010PropOp50
 70
     1
102
RTVSPost2010Prop51ColorIndex
 90
      256
102
RTVSPost2010Prop51ColorRGB
 90
-16777216
102
RTVSPost2010PropOp51
 70
     0
102
RTVSPost2010Prop52
140
1.0
102
RTVSPost2010PropOp52
 70
     0
102
RTVSPost2010Prop53
 90
        2
102
RTVSPost2010PropOp53
 70
     1
102
RTVSPost2010Prop54
  1
strokes_ogs.tif
102
RTVSPost2010PropOp54
 70
     1
102
RTVSPost2010Prop55
280
     0
102
RTVSPost2010PropOp55
 70
     1
102
RTVSPost2010Prop56
140
1.0
102
RTVSPost2010PropOp56
 70
     1
102
RTVSPost2010Prop57
140
1.0
102
RTVSPost2010PropOp57
 70
     1
102
RTVSPropertyOp0
 70
     1
102
RTVSPropertyOp1
 70
     1
102
RTVSPropertyOp2
 70
     1
102
RTVSPropertyOp3
 70
     1
102
RTVSPropertyOp4
 70
     1
102
RTVSPropertyOp5
 70
     1
102
RTVSPropertyOp6
 70
     1
102
RTVSPropertyOp7
 70
     1
102
RTVSPropertyOp8
 70
     1
102
RTVSPropertyOp9
 70
     1
102
RTVSPropertyOp10
 70
     1
102
RTVSPropertyOp11
 70
     1
102
RTVSPropertyOp12
 70
     1
102
RTVSPropertyOp13
 70
     1
102
RTVSPropertyOp14
 70
     1
102
RTVSPropertyOp15
 70
     1
102
RTVSPropertyOp16
 70
     1
102
RTVSPropertyOp17
 70
     1
102
RTVSPropertyOp18
 70
     1
102
RTVSPropertyOp19
 70
     1
102
RTVSPropertyOp20
 70
     1
102
RTVSPropertyOp21
 70
     1
102
RTVSPropertyOp22
 70
     1
102
RTVSPropertyOp23
 70
     1
102
RTVSPropertyOp24
 70
     1
102
RTVSPropertyOp25
 70
     1
102
RTVSPropertyOp26
 70
     1
102
RTVSPropertyOp27
 70
     1
102
RTVSPropertyOp28
 70
     1
102
RTVSPropertyOp29
 70
     1
102
RTVSPropertyOp30
 70
     1
102
RTVSPropertyOp31
 70
     1
102
RTVSPropertyOp32
 70
     1
102
RTVSPropertyOp33
 70
     1
102
RTVSPropertyOp34
 70
     1
102
RTVSPropertyOp35
 70
     1
102
RTVSPropertyOp36
 70
     1
102
RTVSPropertyOp37
 70
     1
102
RTVSPropertyOp38
 70
     1
102
RTVSPropertyOp39
 70
     1
102
RTVSPropertyOp40
 70
     1
102
RTVSPropertyOp41
 70
     1
102
RTVSPropertyOp42
 70
     1
102
RTVSPropertyOp43
 70
     1
102
RTVSPropertyOp44
 70
     1
102
RTVSPropertyOp45
 70
     1
102
RTVSPropertyOp46
 70
     1
102
RTVSPropertyOp47
 70
     1
102
RTVSPropertyOp48
 70
     1
102
RTVSPropertyOp49
 70
     1
102
RTVSPropertyOp50
 70
     1
102
RTVSPropertyOp51
 70
     0
102
RTVSPropertyOp52
 70
     0
102
RTVSPropertyOp53
 70
     1
102
RTVSPropertyOp54
 70
     1
102
RTVSPropertyOp55
 70
     1
102
RTVSPropertyOp56
 70
     1
102
RTVSPropertyOp57
 70
     1
102
RTVSPropertyOp58
 70
     1
102
RTVSPropertyOp59
 70
     1
102
RTVSPropertyOp60
 70
     1
102
RTVSPropertyOp61
 70
     1
102
RTVSPropertyOp62
 70
     1
  0
XRECORD
  5
294
102
{ACAD_REACTORS
330
293
102
}
330
293
100
AcDbXrecord
280
     1
102
RTVSPost2010Prop28
280
     0
102
RTVSPost2010PropOp28
 70
     1
102
RTVSPost2010Prop29
280
     1
102
RTVSPost2010PropOp29
 70
     1
102
RTVSPost2010Prop30
280
     1
102
RTVSPost2010PropOp30
 70
     1
102
RTVSPost2010Prop31
280
     0
102
RTVSPost2010PropOp31
 70
     1
102
RTVSPost2010Prop32
280
     0
102
RTVSPost2010PropOp32
 70
     1
102
RTVSPost2010Prop33
280
     0
102
RTVSPost2010PropOp33
 70
     1
102
RTVSPost2010Prop34
280
     0
102
RTVSPost2010PropOp34
 70
     1
102
RTVSPost2010Prop35
280
     0
102
RTVSPost2010PropOp35
 70
     1
102
RTVSPost2010Prop36
280
     0
102
RTVSPost2010PropOp36
 70
     1
102
RTVSPost2010Prop37
 90
       50
102
RTVSPost2010PropOp37
 70
     1
102
RTVSPost2010Prop38
140
0.0
102
RTVSPost2010PropOp38
 70
     1
102
RTVSPost2010Prop39
140
1.0
102
RTVSPost2010PropOp39
 70
     1
102
RTVSPost2010Prop40
 90
        0
102
RTVSPost2010PropOp40
 70
     1
102
RTVSPost2010Prop41ColorIndex
 90
       18
102
RTVSPost2010Prop41ColorRGB
 90
        0
102
RTVSPost2010PropOp41
 70
     1
102
RTVSPost2010Prop42
 90
       50
102
RTVSPost2010PropOp42
 70
     1
102
RTVSPost2010Prop43
 90
        3
102
RTVSPost2010PropOp43
 70
     1
102
RTVSPost2010Prop44ColorIndex
 90
        5
102
RTVSPost2010Prop44ColorRGB
 90
      255
102
RTVSPost2010PropOp44
 70
     1
102
RTVSPost2010Prop45
280
     0
102
RTVSPost2010PropOp45
 70
     1
102
RTVSPost2010Prop46
 90
       50
102
RTVSPost2010PropOp46
 70
     1
102
RTVSPost2010Prop47
 90
       50
102
RTVSPost2010PropOp47
 70
     1
102
RTVSPost2010Prop48
 90
       50
102
RTVSPost2010PropOp48
 70
     1
102
RTVSPost2010Prop49
280
     0
102
RTVSPost2010PropOp49
 70
     1
102
RTVSPost2010Prop50
 90
       50
102
RTVSPost2010PropOp50
 70
     1
102
RTVSPost2010Prop51ColorIndex
 90
      256
102
RTVSPost2010Prop51ColorRGB
 90
-16777216
102
RTVSPost2010PropOp51
 70
     0
102
RTVSPost2010Prop52
140
1.0
102
RTVSPost2010PropOp52
 70
     0
102
RTVSPost2010Prop53
 90
        2
102
RTVSPost2010PropOp53
 70
     1
102
RTVSPost2010Prop54
  1
strokes_ogs.tif
102
RTVSPost2010PropOp54
 70
     1
102
RTVSPost2010Prop55
280
     0
102
RTVSPost2010PropOp55
 70
     1
102
RTVSPost2010Prop56
140
1.0
102
RTVSPost2010PropOp56
 70
     1
102
RTVSPost2010Prop57
140
1.0
102
RTVSPost2010PropOp57
 70
     1
102
RTVSPropertyOp0
 70
     1
102
RTVSPropertyOp1
 70
     1
102
RTVSPropertyOp2
 70
     1
102
RTVSPropertyOp3
 70
     1
102
RTVSPropertyOp4
 70
     1
102
RTVSPropertyOp5
 70
     1
102
RTVSPropertyOp6
 70
     1
102
RTVSPropertyOp7
 70
     1
102
RTVSPropertyOp8
 70
     1
102
RTVSPropertyOp9
 70
     1
102
RTVSPropertyOp10
 70
     1
102
RTVSPropertyOp11
 70
     1
102
RTVSPropertyOp12
 70
     1
102
RTVSPropertyOp13
 70
     1
102
RTVSPropertyOp14
 70
     1
102
RTVSPropertyOp15
 70
     1
102
RTVSPropertyOp16
 70
     1
102
RTVSPropertyOp17
 70
     1
102
RTVSPropertyOp18
 70
     1
102
RTVSPropertyOp19
 70
     1
102
RTVSPropertyOp20
 70
     1
102
RTVSPropertyOp21
 70
     1
102
RTVSPropertyOp22
 70
     1
102
RTVSPropertyOp23
 70
     1
102
RTVSPropertyOp24
 70
     1
102
RTVSPropertyOp25
 70
     1
102
RTVSPropertyOp26
 70
     1
102
RTVSPropertyOp27
 70
     1
102
RTVSPropertyOp28
 70
     1
102
RTVSPropertyOp29
 70
     1
102
RTVSPropertyOp30
 70
     1
102
RTVSPropertyOp31
 70
     1
102
RTVSPropertyOp32
 70
     1
102
RTVSPropertyOp33
 70
     1
102
RTVSPropertyOp34
 70
     1
102
RTVSPropertyOp35
 70
     1
102
RTVSPropertyOp36
 70
     1
102
RTVSPropertyOp37
 70
     1
102
RTVSPropertyOp38
 70
     1
102
RTVSPropertyOp39
 70
     1
102
RTVSPropertyOp40
 70
     1
102
RTVSPropertyOp41
 70
     1
102
RTVSPropertyOp42
 70
     1
102
RTVSPropertyOp43
 70
     1
102
RTVSPropertyOp44
 70
     1
102
RTVSPropertyOp45
 70
     1
102
RTVSPropertyOp46
 70
     1
102
RTVSPropertyOp47
 70
     1
102
RTVSPropertyOp48
 70
     1
102
RTVSPropertyOp49
 70
     1
102
RTVSPropertyOp50
 70
     1
102
RTVSPropertyOp51
 70
     0
102
RTVSPropertyOp52
 70
     0
102
RTVSPropertyOp53
 70
     1
102
RTVSPropertyOp54
 70
     1
102
RTVSPropertyOp55
 70
     1
102
RTVSPropertyOp56
 70
     1
102
RTVSPropertyOp57
 70
     1
102
RTVSPropertyOp58
 70
     1
102
RTVSPropertyOp59
 70
     1
102
RTVSPropertyOp60
 70
     1
102
RTVSPropertyOp61
 70
     1
102
RTVSPropertyOp62
 70
     1
  0
XRECORD
  5
296
102
{ACAD_REACTORS
330
295
102
}
330
295
100
AcDbXrecord
280
     1
102
RTVSPost2010Prop28
280
     0
102
RTVSPost2010PropOp28
 70
     1
102
RTVSPost2010Prop29
280
     1
102
RTVSPost2010PropOp29
 70
     1
102
RTVSPost2010Prop30
280
     1
102
RTVSPost2010PropOp30
 70
     1
102
RTVSPost2010Prop31
280
     0
102
RTVSPost2010PropOp31
 70
     1
102
RTVSPost2010Prop32
280
     0
102
RTVSPost2010PropOp32
 70
     1
102
RTVSPost2010Prop33
280
     0
102
RTVSPost2010PropOp33
 70
     1
102
RTVSPost2010Prop34
280
     0
102
RTVSPost2010PropOp34
 70
     1
102
RTVSPost2010Prop35
280
     0
102
RTVSPost2010PropOp35
 70
     1
102
RTVSPost2010Prop36
280
     0
102
RTVSPost2010PropOp36
 70
     1
102
RTVSPost2010Prop37
 90
       50
102
RTVSPost2010PropOp37
 70
     1
102
RTVSPost2010Prop38
140
0.0
102
RTVSPost2010PropOp38
 70
     1
102
RTVSPost2010Prop39
140
1.0
102
RTVSPost2010PropOp39
 70
     1
102
RTVSPost2010Prop40
 90
        0
102
RTVSPost2010PropOp40
 70
     1
102
RTVSPost2010Prop41ColorIndex
 90
       18
102
RTVSPost2010Prop41ColorRGB
 90
        0
102
RTVSPost2010PropOp41
 70
     1
102
RTVSPost2010Prop42
 90
       50
102
RTVSPost2010PropOp42
 70
     1
102
RTVSPost2010Prop43
 90
        3
102
RTVSPost2010PropOp43
 70
     1
102
RTVSPost2010Prop44ColorIndex
 90
        5
102
RTVSPost2010Prop44ColorRGB
 90
      255
102
RTVSPost2010PropOp44
 70
     1
102
RTVSPost2010Prop45
280
     0
102
RTVSPost2010PropOp45
 70
     1
102
RTVSPost2010Prop46
 90
       50
102
RTVSPost2010PropOp46
 70
     1
102
RTVSPost2010Prop47
 90
       50
102
RTVSPost2010PropOp47
 70
     1
102
RTVSPost2010Prop48
 90
       50
102
RTVSPost2010PropOp48
 70
     1
102
RTVSPost2010Prop49
280
     0
102
RTVSPost2010PropOp49
 70
     1
102
RTVSPost2010Prop50
 90
       50
102
RTVSPost2010PropOp50
 70
     1
102
RTVSPost2010Prop51ColorIndex
 90
      256
102
RTVSPost2010Prop51ColorRGB
 90
-16777216
102
RTVSPost2010PropOp51
 70
     0
102
RTVSPost2010Prop52
140
1.0
102
RTVSPost2010PropOp52
 70
     0
102
RTVSPost2010Prop53
 90
        2
102
RTVSPost2010PropOp53
 70
     1
102
RTVSPost2010Prop54
  1
strokes_ogs.tif
102
RTVSPost2010PropOp54
 70
     1
102
RTVSPost2010Prop55
280
     0
102
RTVSPost2010PropOp55
 70
     1
102
RTVSPost2010Prop56
140
1.0
102
RTVSPost2010PropOp56
 70
     1
102
RTVSPost2010Prop57
140
1.0
102
RTVSPost2010PropOp57
 70
     1
102
RTVSPropertyOp0
 70
     1
102
RTVSPropertyOp1
 70
     1
102
RTVSPropertyOp2
 70
     1
102
RTVSPropertyOp3
 70
     1
102
RTVSPropertyOp4
 70
     1
102
RTVSPropertyOp5
 70
     1
102
RTVSPropertyOp6
 70
     1
102
RTVSPropertyOp7
 70
     1
102
RTVSPropertyOp8
 70
     1
102
RTVSPropertyOp9
 70
     1
102
RTVSPropertyOp10
 70
     1
102
RTVSPropertyOp11
 70
     1
102
RTVSPropertyOp12
 70
     1
102
RTVSPropertyOp13
 70
     1
102
RTVSPropertyOp14
 70
     1
102
RTVSPropertyOp15
 70
     1
102
RTVSPropertyOp16
 70
     1
102
RTVSPropertyOp17
 70
     1
102
RTVSPropertyOp18
 70
     1
102
RTVSPropertyOp19
 70
     1
102
RTVSPropertyOp20
 70
     1
102
RTVSPropertyOp21
 70
     1
102
RTVSPropertyOp22
 70
     1
102
RTVSPropertyOp23
 70
     1
102
RTVSPropertyOp24
 70
     1
102
RTVSPropertyOp25
 70
     1
102
RTVSPropertyOp26
 70
     1
102
RTVSPropertyOp27
 70
     1
102
RTVSPropertyOp28
 70
     1
102
RTVSPropertyOp29
 70
     1
102
RTVSPropertyOp30
 70
     1
102
RTVSPropertyOp31
 70
     1
102
RTVSPropertyOp32
 70
     1
102
RTVSPropertyOp33
 70
     1
102
RTVSPropertyOp34
 70
     1
102
RTVSPropertyOp35
 70
     1
102
RTVSPropertyOp36
 70
     1
102
RTVSPropertyOp37
 70
     1
102
RTVSPropertyOp38
 70
     1
102
RTVSPropertyOp39
 70
     1
102
RTVSPropertyOp40
 70
     1
102
RTVSPropertyOp41
 70
     1
102
RTVSPropertyOp42
 70
     1
102
RTVSPropertyOp43
 70
     1
102
RTVSPropertyOp44
 70
     1
102
RTVSPropertyOp45
 70
     1
102
RTVSPropertyOp46
 70
     1
102
RTVSPropertyOp47
 70
     1
102
RTVSPropertyOp48
 70
     1
102
RTVSPropertyOp49
 70
     1
102
RTVSPropertyOp50
 70
     1
102
RTVSPropertyOp51
 70
     0
102
RTVSPropertyOp52
 70
     0
102
RTVSPropertyOp53
 70
     1
102
RTVSPropertyOp54
 70
     1
102
RTVSPropertyOp55
 70
     1
102
RTVSPropertyOp56
 70
     1
102
RTVSPropertyOp57
 70
     1
102
RTVSPropertyOp58
 70
     1
102
RTVSPropertyOp59
 70
     1
102
RTVSPropertyOp60
 70
     1
102
RTVSPropertyOp61
 70
     1
102
RTVSPropertyOp62
 70
     1
  0
XRECORD
  5
286
102
{ACAD_REACTORS
330
285
102
}
330
285
100
AcDbXrecord
280
     1
102
RTVSPost2010Prop28
280
     0
102
RTVSPost2010PropOp28
 70
     1
102
RTVSPost2010Prop29
280
     1
102
RTVSPost2010PropOp29
 70
     1
102
RTVSPost2010Prop30
280
     1
102
RTVSPost2010PropOp30
 70
     1
102
RTVSPost2010Prop31
280
     0
102
RTVSPost2010PropOp31
 70
     1
102
RTVSPost2010Prop32
280
     0
102
RTVSPost2010PropOp32
 70
     1
102
RTVSPost2010Prop33
280
     0
102
RTVSPost2010PropOp33
 70
     1
102
RTVSPost2010Prop34
280
     0
102
RTVSPost2010PropOp34
 70
     1
102
RTVSPost2010Prop35
280
     0
102
RTVSPost2010PropOp35
 70
     1
102
RTVSPost2010Prop36
280
     0
102
RTVSPost2010PropOp36
 70
     1
102
RTVSPost2010Prop37
 90
       50
102
RTVSPost2010PropOp37
 70
     1
102
RTVSPost2010Prop38
140
0.0
102
RTVSPost2010PropOp38
 70
     1
102
RTVSPost2010Prop39
140
1.0
102
RTVSPost2010PropOp39
 70
     1
102
RTVSPost2010Prop40
 90
        0
102
RTVSPost2010PropOp40
 70
     1
102
RTVSPost2010Prop41ColorIndex
 90
       18
102
RTVSPost2010Prop41ColorRGB
 90
        0
102
RTVSPost2010PropOp41
 70
     1
102
RTVSPost2010Prop42
 90
       50
102
RTVSPost2010PropOp42
 70
     1
102
RTVSPost2010Prop43
 90
        3
102
RTVSPost2010PropOp43
 70
     1
102
RTVSPost2010Prop44ColorIndex
 90
        5
102
RTVSPost2010Prop44ColorRGB
 90
      255
102
RTVSPost2010PropOp44
 70
     1
102
RTVSPost2010Prop45
280
     0
102
RTVSPost2010PropOp45
 70
     1
102
RTVSPost2010Prop46
 90
       50
102
RTVSPost2010PropOp46
 70
     1
102
RTVSPost2010Prop47
 90
       50
102
RTVSPost2010PropOp47
 70
     1
102
RTVSPost2010Prop48
 90
       50
102
RTVSPost2010PropOp48
 70
     1
102
RTVSPost2010Prop49
280
     0
102
RTVSPost2010PropOp49
 70
     1
102
RTVSPost2010Prop50
 90
       50
102
RTVSPost2010PropOp50
 70
     1
102
RTVSPost2010Prop51ColorIndex
 90
      256
102
RTVSPost2010Prop51ColorRGB
 90
-16777216
102
RTVSPost2010PropOp51
 70
     0
102
RTVSPost2010Prop52
140
1.0
102
RTVSPost2010PropOp52
 70
     0
102
RTVSPost2010Prop53
 90
        2
102
RTVSPost2010PropOp53
 70
     1
102
RTVSPost2010Prop54
  1
strokes_ogs.tif
102
RTVSPost2010PropOp54
 70
     1
102
RTVSPost2010Prop55
280
     0
102
RTVSPost2010PropOp55
 70
     1
102
RTVSPost2010Prop56
140
1.0
102
RTVSPost2010PropOp56
 70
     1
102
RTVSPost2010Prop57
140
1.0
102
RTVSPost2010PropOp57
 70
     1
102
RTVSPropertyOp0
 70
     1
102
RTVSPropertyOp1
 70
     1
102
RTVSPropertyOp2
 70
     1
102
RTVSPropertyOp3
 70
     1
102
RTVSPropertyOp4
 70
     1
102
RTVSPropertyOp5
 70
     1
102
RTVSPropertyOp6
 70
     1
102
RTVSPropertyOp7
 70
     1
102
RTVSPropertyOp8
 70
     1
102
RTVSPropertyOp9
 70
     1
102
RTVSPropertyOp10
 70
     1
102
RTVSPropertyOp11
 70
     1
102
RTVSPropertyOp12
 70
     1
102
RTVSPropertyOp13
 70
     1
102
RTVSPropertyOp14
 70
     1
102
RTVSPropertyOp15
 70
     1
102
RTVSPropertyOp16
 70
     1
102
RTVSPropertyOp17
 70
     1
102
RTVSPropertyOp18
 70
     1
102
RTVSPropertyOp19
 70
     1
102
RTVSPropertyOp20
 70
     1
102
RTVSPropertyOp21
 70
     1
102
RTVSPropertyOp22
 70
     1
102
RTVSPropertyOp23
 70
     1
102
RTVSPropertyOp24
 70
     1
102
RTVSPropertyOp25
 70
     1
102
RTVSPropertyOp26
 70
     1
102
RTVSPropertyOp27
 70
     1
102
RTVSPropertyOp28
 70
     1
102
RTVSPropertyOp29
 70
     1
102
RTVSPropertyOp30
 70
     1
102
RTVSPropertyOp31
 70
     1
102
RTVSPropertyOp32
 70
     1
102
RTVSPropertyOp33
 70
     1
102
RTVSPropertyOp34
 70
     1
102
RTVSPropertyOp35
 70
     1
102
RTVSPropertyOp36
 70
     1
102
RTVSPropertyOp37
 70
     1
102
RTVSPropertyOp38
 70
     1
102
RTVSPropertyOp39
 70
     1
102
RTVSPropertyOp40
 70
     1
102
RTVSPropertyOp41
 70
     1
102
RTVSPropertyOp42
 70
     1
102
RTVSPropertyOp43
 70
     1
102
RTVSPropertyOp44
 70
     1
102
RTVSPropertyOp45
 70
     1
102
RTVSPropertyOp46
 70
     1
102
RTVSPropertyOp47
 70
     1
102
RTVSPropertyOp48
 70
     1
102
RTVSPropertyOp49
 70
     1
102
RTVSPropertyOp50
 70
     1
102
RTVSPropertyOp51
 70
     0
102
RTVSPropertyOp52
 70
     0
102
RTVSPropertyOp53
 70
     1
102
RTVSPropertyOp54
 70
     1
102
RTVSPropertyOp55
 70
     1
102
RTVSPropertyOp56
 70
     1
102
RTVSPropertyOp57
 70
     1
102
RTVSPropertyOp58
 70
     1
102
RTVSPropertyOp59
 70
     1
102
RTVSPropertyOp60
 70
     1
102
RTVSPropertyOp61
 70
     1
102
RTVSPropertyOp62
 70
     1
  0
XRECORD
  5
27A
102
{ACAD_REACTORS
330
279
102
}
330
279
100
AcDbXrecord
280
     1
102
RTVSPost2010Prop28
280
     0
102
RTVSPost2010PropOp28
 70
     1
102
RTVSPost2010Prop29
280
     1
102
RTVSPost2010PropOp29
 70
     1
102
RTVSPost2010Prop30
280
     1
102
RTVSPost2010PropOp30
 70
     1
102
RTVSPost2010Prop31
280
     0
102
RTVSPost2010PropOp31
 70
     1
102
RTVSPost2010Prop32
280
     0
102
RTVSPost2010PropOp32
 70
     1
102
RTVSPost2010Prop33
280
     0
102
RTVSPost2010PropOp33
 70
     1
102
RTVSPost2010Prop34
280
     0
102
RTVSPost2010PropOp34
 70
     1
102
RTVSPost2010Prop35
280
     0
102
RTVSPost2010PropOp35
 70
     1
102
RTVSPost2010Prop36
280
     0
102
RTVSPost2010PropOp36
 70
     1
102
RTVSPost2010Prop37
 90
       50
102
RTVSPost2010PropOp37
 70
     1
102
RTVSPost2010Prop38
140
0.0
102
RTVSPost2010PropOp38
 70
     1
102
RTVSPost2010Prop39
140
1.0
102
RTVSPost2010PropOp39
 70
     1
102
RTVSPost2010Prop40
 90
        0
102
RTVSPost2010PropOp40
 70
     1
102
RTVSPost2010Prop41ColorIndex
 90
       18
102
RTVSPost2010Prop41ColorRGB
 90
        0
102
RTVSPost2010PropOp41
 70
     1
102
RTVSPost2010Prop42
 90
       50
102
RTVSPost2010PropOp42
 70
     1
102
RTVSPost2010Prop43
 90
        3
102
RTVSPost2010PropOp43
 70
     1
102
RTVSPost2010Prop44ColorIndex
 90
        5
102
RTVSPost2010Prop44ColorRGB
 90
      255
102
RTVSPost2010PropOp44
 70
     1
102
RTVSPost2010Prop45
280
     0
102
RTVSPost2010PropOp45
 70
     1
102
RTVSPost2010Prop46
 90
       50
102
RTVSPost2010PropOp46
 70
     1
102
RTVSPost2010Prop47
 90
       50
102
RTVSPost2010PropOp47
 70
     1
102
RTVSPost2010Prop48
 90
       50
102
RTVSPost2010PropOp48
 70
     1
102
RTVSPost2010Prop49
280
     0
102
RTVSPost2010PropOp49
 70
     1
102
RTVSPost2010Prop50
 90
       50
102
RTVSPost2010PropOp50
 70
     1
102
RTVSPost2010Prop51ColorIndex
 90
      256
102
RTVSPost2010Prop51ColorRGB
 90
-16777216
102
RTVSPost2010PropOp51
 70
     0
102
RTVSPost2010Prop52
140
1.0
102
RTVSPost2010PropOp52
 70
     0
102
RTVSPost2010Prop53
 90
        2
102
RTVSPost2010PropOp53
 70
     1
102
RTVSPost2010Prop54
  1
strokes_ogs.tif
102
RTVSPost2010PropOp54
 70
     1
102
RTVSPost2010Prop55
280
     0
102
RTVSPost2010PropOp55
 70
     1
102
RTVSPost2010Prop56
140
1.0
102
RTVSPost2010PropOp56
 70
     1
102
RTVSPost2010Prop57
140
1.0
102
RTVSPost2010PropOp57
 70
     1
102
RTVSPropertyOp0
 70
     1
102
RTVSPropertyOp1
 70
     1
102
RTVSPropertyOp2
 70
     1
102
RTVSPropertyOp3
 70
     1
102
RTVSPropertyOp4
 70
     1
102
RTVSPropertyOp5
 70
     1
102
RTVSPropertyOp6
 70
     1
102
RTVSPropertyOp7
 70
     1
102
RTVSPropertyOp8
 70
     1
102
RTVSPropertyOp9
 70
     1
102
RTVSPropertyOp10
 70
     1
102
RTVSPropertyOp11
 70
     1
102
RTVSPropertyOp12
 70
     1
102
RTVSPropertyOp13
 70
     1
102
RTVSPropertyOp14
 70
     1
102
RTVSPropertyOp15
 70
     1
102
RTVSPropertyOp16
 70
     1
102
RTVSPropertyOp17
 70
     1
102
RTVSPropertyOp18
 70
     1
102
RTVSPropertyOp19
 70
     1
102
RTVSPropertyOp20
 70
     1
102
RTVSPropertyOp21
 70
     1
102
RTVSPropertyOp22
 70
     1
102
RTVSPropertyOp23
 70
     1
102
RTVSPropertyOp24
 70
     1
102
RTVSPropertyOp25
 70
     1
102
RTVSPropertyOp26
 70
     1
102
RTVSPropertyOp27
 70
     1
102
RTVSPropertyOp28
 70
     1
102
RTVSPropertyOp29
 70
     1
102
RTVSPropertyOp30
 70
     1
102
RTVSPropertyOp31
 70
     1
102
RTVSPropertyOp32
 70
     1
102
RTVSPropertyOp33
 70
     1
102
RTVSPropertyOp34
 70
     1
102
RTVSPropertyOp35
 70
     1
102
RTVSPropertyOp36
 70
     1
102
RTVSPropertyOp37
 70
     1
102
RTVSPropertyOp38
 70
     1
102
RTVSPropertyOp39
 70
     1
102
RTVSPropertyOp40
 70
     1
102
RTVSPropertyOp41
 70
     1
102
RTVSPropertyOp42
 70
     1
102
RTVSPropertyOp43
 70
     1
102
RTVSPropertyOp44
 70
     1
102
RTVSPropertyOp45
 70
     1
102
RTVSPropertyOp46
 70
     1
102
RTVSPropertyOp47
 70
     1
102
RTVSPropertyOp48
 70
     1
102
RTVSPropertyOp49
 70
     1
102
RTVSPropertyOp50
 70
     1
102
RTVSPropertyOp51
 70
     0
102
RTVSPropertyOp52
 70
     0
102
RTVSPropertyOp53
 70
     1
102
RTVSPropertyOp54
 70
     1
102
RTVSPropertyOp55
 70
     1
102
RTVSPropertyOp56
 70
     1
102
RTVSPropertyOp57
 70
     1
102
RTVSPropertyOp58
 70
     1
102
RTVSPropertyOp59
 70
     1
102
RTVSPropertyOp60
 70
     1
102
RTVSPropertyOp61
 70
     1
102
RTVSPropertyOp62
 70
     1
  0
XRECORD
  5
298
102
{ACAD_REACTORS
330
297
102
}
330
297
100
AcDbXrecord
280
     1
102
RTVSPost2010Prop28
280
     0
102
RTVSPost2010PropOp28
 70
     1
102
RTVSPost2010Prop29
280
     1
102
RTVSPost2010PropOp29
 70
     1
102
RTVSPost2010Prop30
280
     1
102
RTVSPost2010PropOp30
 70
     1
102
RTVSPost2010Prop31
280
     0
102
RTVSPost2010PropOp31
 70
     1
102
RTVSPost2010Prop32
280
     0
102
RTVSPost2010PropOp32
 70
     1
102
RTVSPost2010Prop33
280
     0
102
RTVSPost2010PropOp33
 70
     1
102
RTVSPost2010Prop34
280
     0
102
RTVSPost2010PropOp34
 70
     1
102
RTVSPost2010Prop35
280
     0
102
RTVSPost2010PropOp35
 70
     1
102
RTVSPost2010Prop36
280
     0
102
RTVSPost2010PropOp36
 70
     1
102
RTVSPost2010Prop37
 90
       50
102
RTVSPost2010PropOp37
 70
     1
102
RTVSPost2010Prop38
140
0.0
102
RTVSPost2010PropOp38
 70
     1
102
RTVSPost2010Prop39
140
1.0
102
RTVSPost2010PropOp39
 70
     1
102
RTVSPost2010Prop40
 90
        0
102
RTVSPost2010PropOp40
 70
     1
102
RTVSPost2010Prop41ColorIndex
 90
       18
102
RTVSPost2010Prop41ColorRGB
 90
        0
102
RTVSPost2010PropOp41
 70
     1
102
RTVSPost2010Prop42
 90
       50
102
RTVSPost2010PropOp42
 70
     1
102
RTVSPost2010Prop43
 90
        3
102
RTVSPost2010PropOp43
 70
     1
102
RTVSPost2010Prop44ColorIndex
 90
        5
102
RTVSPost2010Prop44ColorRGB
 90
      255
102
RTVSPost2010PropOp44
 70
     1
102
RTVSPost2010Prop45
280
     0
102
RTVSPost2010PropOp45
 70
     1
102
RTVSPost2010Prop46
 90
       50
102
RTVSPost2010PropOp46
 70
     1
102
RTVSPost2010Prop47
 90
       50
102
RTVSPost2010PropOp47
 70
     1
102
RTVSPost2010Prop48
 90
       50
102
RTVSPost2010PropOp48
 70
     1
102
RTVSPost2010Prop49
280
     0
102
RTVSPost2010PropOp49
 70
     1
102
RTVSPost2010Prop50
 90
       50
102
RTVSPost2010PropOp50
 70
     1
102
RTVSPost2010Prop51ColorIndex
 90
      256
102
RTVSPost2010Prop51ColorRGB
 90
-16777216
102
RTVSPost2010PropOp51
 70
     0
102
RTVSPost2010Prop52
140
1.0
102
RTVSPost2010PropOp52
 70
     0
102
RTVSPost2010Prop53
 90
        2
102
RTVSPost2010PropOp53
 70
     1
102
RTVSPost2010Prop54
  1
strokes_ogs.tif
102
RTVSPost2010PropOp54
 70
     1
102
RTVSPost2010Prop55
280
     0
102
RTVSPost2010PropOp55
 70
     1
102
RTVSPost2010Prop56
140
1.0
102
RTVSPost2010PropOp56
 70
     1
102
RTVSPost2010Prop57
140
1.0
102
RTVSPost2010PropOp57
 70
     1
102
RTVSPropertyOp0
 70
     1
102
RTVSPropertyOp1
 70
     1
102
RTVSPropertyOp2
 70
     1
102
RTVSPropertyOp3
 70
     1
102
RTVSPropertyOp4
 70
     1
102
RTVSPropertyOp5
 70
     1
102
RTVSPropertyOp6
 70
     1
102
RTVSPropertyOp7
 70
     1
102
RTVSPropertyOp8
 70
     1
102
RTVSPropertyOp9
 70
     1
102
RTVSPropertyOp10
 70
     1
102
RTVSPropertyOp11
 70
     1
102
RTVSPropertyOp12
 70
     1
102
RTVSPropertyOp13
 70
     1
102
RTVSPropertyOp14
 70
     1
102
RTVSPropertyOp15
 70
     1
102
RTVSPropertyOp16
 70
     1
102
RTVSPropertyOp17
 70
     1
102
RTVSPropertyOp18
 70
     1
102
RTVSPropertyOp19
 70
     1
102
RTVSPropertyOp20
 70
     1
102
RTVSPropertyOp21
 70
     1
102
RTVSPropertyOp22
 70
     1
102
RTVSPropertyOp23
 70
     1
102
RTVSPropertyOp24
 70
     1
102
RTVSPropertyOp25
 70
     1
102
RTVSPropertyOp26
 70
     1
102
RTVSPropertyOp27
 70
     1
102
RTVSPropertyOp28
 70
     1
102
RTVSPropertyOp29
 70
     1
102
RTVSPropertyOp30
 70
     1
102
RTVSPropertyOp31
 70
     1
102
RTVSPropertyOp32
 70
     1
102
RTVSPropertyOp33
 70
     1
102
RTVSPropertyOp34
 70
     1
102
RTVSPropertyOp35
 70
     1
102
RTVSPropertyOp36
 70
     1
102
RTVSPropertyOp37
 70
     1
102
RTVSPropertyOp38
 70
     1
102
RTVSPropertyOp39
 70
     1
102
RTVSPropertyOp40
 70
     1
102
RTVSPropertyOp41
 70
     1
102
RTVSPropertyOp42
 70
     1
102
RTVSPropertyOp43
 70
     1
102
RTVSPropertyOp44
 70
     1
102
RTVSPropertyOp45
 70
     1
102
RTVSPropertyOp46
 70
     1
102
RTVSPropertyOp47
 70
     1
102
RTVSPropertyOp48
 70
     1
102
RTVSPropertyOp49
 70
     1
102
RTVSPropertyOp50
 70
     1
102
RTVSPropertyOp51
 70
     0
102
RTVSPropertyOp52
 70
     0
102
RTVSPropertyOp53
 70
     1
102
RTVSPropertyOp54
 70
     1
102
RTVSPropertyOp55
 70
     1
102
RTVSPropertyOp56
 70
     1
102
RTVSPropertyOp57
 70
     1
102
RTVSPropertyOp58
 70
     1
102
RTVSPropertyOp59
 70
     1
102
RTVSPropertyOp60
 70
     1
102
RTVSPropertyOp61
 70
     1
102
RTVSPropertyOp62
 70
     1
  0
ENDSEC
  0
EOF
