  0
SECTION
  2
HEADER
  9
$ACADVER
  1
AC1021
  9
$ACADMAINTVER
 70
    50
  9
$DWGCODEPAGE
  3
ANSI_1252
  9
$LASTSAVEDBY
  1
Autodesk
  9
$INSBASE
 10
0.0
 20
0.0
 30
0.0
  9
$EXTMIN
 10
1.000000000000000E+20
 20
1.000000000000000E+20
 30
1.000000000000000E+20
  9
$EXTMAX
 10
-1.000000000000000E+20
 20
-1.000000000000000E+20
 30
-1.000000000000000E+20
  9
$LIMMIN
 10
0.0
 20
0.0
  9
$LIMMAX
 10
420.0
 20
297.0
  9
$ORTHOMODE
 70
     0
  9
$REGENMODE
 70
     1
  9
$FILLMODE
 70
     1
  9
$QTEXTMODE
 70
     0
  9
$MIRRTEXT
 70
     0
  9
$LTSCALE
 40
1.0
  9
$ATTMODE
 70
     1
  9
$TEXTSIZE
 40
2.5
  9
$TRACEWID
 40
1.0
  9
$TEXTSTYLE
  7
Standard
  9
$CLAYER
  8
0
  9
$CELTYPE
  6
ByLayer
  9
$CECOLOR
 62
   256
  9
$CELTSCALE
 40
1.0
  9
$DISPSILH
 70
     0
  9
$DIMSCALE
 40
1.0
  9
$DIMASZ
 40
2.5
  9
$DIMEXO
 40
0.625
  9
$DIMDLI
 40
3.75
  9
$DIMRND
 40
0.0
  9
$DIMDLE
 40
0.0
  9
$DIMEXE
 40
1.25
  9
$DIMTP
 40
0.0
  9
$DIMTM
 40
0.0
  9
$DIMTXT
 40
2.5
  9
$DIMCEN
 40
2.5
  9
$DIMTSZ
 40
0.0
  9
$DIMTOL
 70
     0
  9
$DIMLIM
 70
     0
  9
$DIMTIH
 70
     0
  9
$DIMTOH
 70
     0
  9
$DIMSE1
 70
     0
  9
$DIMSE2
 70
     0
  9
$DIMTAD
 70
     1
  9
$DIMZIN
 70
     8
  9
$DIMBLK
  1

  9
$DIMASO
 70
     1
  9
$DIMSHO
 70
     1
  9
$DIMPOST
  1

  9
$DIMAPOST
  1

  9
$DIMALT
 70
     0
  9
$DIMALTD
 70
     3
  9
$DIMALTF
 40
0.03937007874016
  9
$DIMLFAC
 40
1.0
  9
$DIMTOFL
 70
     1
  9
$DIMTVP
 40
0.0
  9
$DIMTIX
 70
     0
  9
$DIMSOXD
 70
     0
  9
$DIMSAH
 70
     0
  9
$DIMBLK1
  1

  9
$DIMBLK2
  1

  9
$DIMSTYLE
  2
ISO-25
  9
$DIMCLRD
 70
     0
  9
$DIMCLRE
 70
     0
  9
$DIMCLRT
 70
     0
  9
$DIMTFAC
 40
1.0
  9
$DIMGAP
 40
0.625
  9
$DIMJUST
 70
     0
  9
$DIMSD1
 70
     0
  9
$DIMSD2
 70
     0
  9
$DIMTOLJ
 70
     0
  9
$DIMTZIN
 70
     8
  9
$DIMALTZ
 70
     0
  9
$DIMALTTZ
 70
     0
  9
$DIMUPT
 70
     0
  9
$DIMDEC
 70
     2
  9
$DIMTDEC
 70
     2
  9
$DIMALTU
 70
     2
  9
$DIMALTTD
 70
     3
  9
$DIMTXSTY
  7
Standard
  9
$DIMAUNIT
 70
     0
  9
$DIMADEC
 70
     0
  9
$DIMALTRND
 40
0.0
  9
$DIMAZIN
 70
     0
  9
$DIMDSEP
 70
    44
  9
$DIMATFIT
 70
     3
  9
$DIMFRAC
 70
     0
  9
$DIMLDRBLK
  1

  9
$DIMLUNIT
 70
     2
  9
$DIMLWD
 70
    -2
  9
$DIMLWE
 70
    -2
  9
$DIMTMOVE
 70
     0
  9
$DIMFXL
 40
1.0
  9
$DIMFXLON
 70
     0
  9
$DIMJOGANG
 40
0.7853981633974483
  9
$DIMTFILL
 70
     0
  9
$DIMTFILLCLR
 70
     0
  9
$DIMARCSYM
 70
     0
  9
$DIMLTYPE
  6

  9
$DIMLTEX1
  6

  9
$DIMLTEX2
  6

  9
$LUNITS
 70
     2
  9
$LUPREC
 70
     4
  9
$SKETCHINC
 40
1.0
  9
$FILLETRAD
 40
0.0
  9
$AUNITS
 70
     0
  9
$AUPREC
 70
     0
  9
$MENU
  1
.
  9
$ELEVATION
 40
0.0
  9
$PELEVATION
 40
0.0
  9
$THICKNESS
 40
0.0
  9
$LIMCHECK
 70
     0
  9
$CHAMFERA
 40
0.0
  9
$CHAMFERB
 40
0.0
  9
$CHAMFERC
 40
0.0
  9
$CHAMFERD
 40
0.0
  9
$SKPOLY
 70
     0
  9
$TDCREATE
 40
2456309.149747176
  9
$TDUCREATE
 40
2456309.483080509
  9
$TDUPDATE
 40
2456667.078514884
  9
$TDUUPDATE
 40
2456667.411848218
  9
$TDINDWG
 40
0.0000176157
  9
$TDUSRTIMER
 40
0.0000174306
  9
$USRTIMER
 70
     1
  9
$ANGBASE
 50
0.0
  9
$ANGDIR
 70
     0
  9
$PDMODE
 70
     0
  9
$PDSIZE
 40
0.0
  9
$PLINEWID
 40
0.0
  9
$SPLFRAME
 70
     0
  9
$SPLINETYPE
 70
     6
  9
$SPLINESEGS
 70
     8
  9
$HANDSEED
  5
2B1
  9
$SURFTAB1
 70
     6
  9
$SURFTAB2
 70
     6
  9
$SURFTYPE
 70
     6
  9
$SURFU
 70
     6
  9
$SURFV
 70
     6
  9
$UCSBASE
  2

  9
$UCSNAME
  2

  9
$UCSORG
 10
0.0
 20
0.0
 30
0.0
  9
$UCSXDIR
 10
1.0
 20
0.0
 30
0.0
  9
$UCSYDIR
 10
0.0
 20
1.0
 30
0.0
  9
$UCSORTHOREF
  2

  9
$UCSORTHOVIEW
 70
     0
  9
$UCSORGTOP
 10
0.0
 20
0.0
 30
0.0
  9
$UCSORGBOTTOM
 10
0.0
 20
0.0
 30
0.0
  9
$UCSORGLEFT
 10
0.0
 20
0.0
 30
0.0
  9
$UCSORGRIGHT
 10
0.0
 20
0.0
 30
0.0
  9
$UCSORGFRONT
 10
0.0
 20
0.0
 30
0.0
  9
$UCSORGBACK
 10
0.0
 20
0.0
 30
0.0
  9
$PUCSBASE
  2

  9
$PUCSNAME
  2

  9
$PUCSORG
 10
0.0
 20
0.0
 30
0.0
  9
$PUCSXDIR
 10
1.0
 20
0.0
 30
0.0
  9
$PUCSYDIR
 10
0.0
 20
1.0
 30
0.0
  9
$PUCSORTHOREF
  2

  9
$PUCSORTHOVIEW
 70
     0
  9
$PUCSORGTOP
 10
0.0
 20
0.0
 30
0.0
  9
$PUCSORGBOTTOM
 10
0.0
 20
0.0
 30
0.0
  9
$PUCSORGLEFT
 10
0.0
 20
0.0
 30
0.0
  9
$PUCSORGRIGHT
 10
0.0
 20
0.0
 30
0.0
  9
$PUCSORGFRONT
 10
0.0
 20
0.0
 30
0.0
  9
$PUCSORGBACK
 10
0.0
 20
0.0
 30
0.0
  9
$USERI1
 70
     0
  9
$USERI2
 70
     0
  9
$USERI3
 70
     0
  9
$USERI4
 70
     0
  9
$USERI5
 70
     0
  9
$USERR1
 40
0.0
  9
$USERR2
 40
0.0
  9
$USERR3
 40
0.0
  9
$USERR4
 40
0.0
  9
$USERR5
 40
0.0
  9
$WORLDVIEW
 70
     1
  9
$SHADEDGE
 70
     3
  9
$SHADEDIF
 70
    70
  9
$TILEMODE
 70
     1
  9
$MAXACTVP
 70
    64
  9
$PINSBASE
 10
0.0
 20
0.0
 30
0.0
  9
$PLIMCHECK
 70
     0
  9
$PEXTMIN
 10
0.0
 20
0.0
 30
0.0
  9
$PEXTMAX
 10
0.0
 20
0.0
 30
0.0
  9
$PLIMMIN
 10
0.0
 20
0.0
  9
$PLIMMAX
 10
12.0
 20
9.0
  9
$UNITMODE
 70
     0
  9
$VISRETAIN
 70
     1
  9
$PLINEGEN
 70
     0
  9
$PSLTSCALE
 70
     1
  9
$TREEDEPTH
 70
  3020
  9
$CMLSTYLE
  2
Standard
  9
$CMLJUST
 70
     0
  9
$CMLSCALE
 40
20.0
  9
$PROXYGRAPHICS
 70
     1
  9
$MEASUREMENT
 70
     1
  9
$CELWEIGHT
370
    -1
  9
$ENDCAPS
280
     0
  9
$JOINSTYLE
280
     0
  9
$LWDISPLAY
290
     0
  9
$INSUNITS
 70
     4
  9
$HYPERLINKBASE
  1

  9
$STYLESHEET
  1

  9
$XEDIT
290
     1
  9
$CEPSNTYPE
380
     0
  9
$PSTYLEMODE
290
     1
  9
$FINGERPRINTGUID
  2
{D36A17C0-B4E2-4527-8874-81943F1C34AC}
  9
$VERSIONGUID
  2
{265A5473-D45D-4B1C-ABB7-7FF2E3BD06BB}
  9
$EXTNAMES
290
     1
  9
$PSVPSCALE
 40
0.0
  9
$OLESTARTUP
290
     0
  9
$SORTENTS
280
   127
  9
$INDEXCTL
280
     0
  9
$HIDETEXT
280
     1
  9
$XCLIPFRAME
290
     0
  9
$HALOGAP
280
     0
  9
$OBSCOLOR
 70
   257
  9
$OBSLTYPE
280
     0
  9
$INTERSECTIONDISPLAY
280
     0
  9
$INTERSECTIONCOLOR
 70
   257
  9
$DIMASSOC
280
     2
  9
$PROJECTNAME
  1

  9
$CAMERADISPLAY
290
     0
  9
$LENSLENGTH
 40
50.0
  9
$CAMERAHEIGHT
 40
0.0
  9
$STEPSPERSEC
 40
2.0
  9
$STEPSIZE
 40
6.0
  9
$3DDWFPREC
 40
2.0
  9
$PSOLWIDTH
 40
5.0
  9
$PSOLHEIGHT
 40
80.0
  9
$LOFTANG1
 40
1.570796326794896
  9
$LOFTANG2
 40
1.570796326794896
  9
$LOFTMAG1
 40
0.0
  9
$LOFTMAG2
 40
0.0
  9
$LOFTPARAM
 70
     7
  9
$LOFTNORMALS
280
     1
  9
$LATITUDE
 40
37.795
  9
$LONGITUDE
 40
-122.394
  9
$NORTHDIRECTION
 40
0.0
  9
$TIMEZONE
 70
 -8000
  9
$LIGHTGLYPHDISPLAY
280
     1
  9
$TILEMODELIGHTSYNCH
280
     1
  9
$CMATERIAL
347
EC
  9
$SOLIDHIST
280
     0
  9
$SHOWHIST
280
     1
  9
$DWFFRAME
280
     2
  9
$DGNFRAME
280
     0
  9
$REALWORLDSCALE
290
     1
  9
$INTERFERECOLOR
 62
     1
  9
$INTERFEREOBJVS
345
F9
  9
$INTERFEREVPVS
346
F6
  9
$CSHADOW
280
     0
  9
$SHADOWPLANELOCATION
 40
0.0
  0
ENDSEC
  0
SECTION
  2
CLASSES
  0
CLASS
  1
ACDBDICTIONARYWDFLT
  2
AcDbDictionaryWithDefault
  3
ObjectDBX Classes
 90
        0
 91
        1
280
     0
281
     0
  0
CLASS
  1
ACDBPLACEHOLDER
  2
AcDbPlaceHolder
  3
ObjectDBX Classes
 90
        0
 91
        1
280
     0
281
     0
  0
CLASS
  1
LAYOUT
  2
AcDbLayout
  3
ObjectDBX Classes
 90
        0
 91
        3
280
     0
281
     0
  0
CLASS
  1
DICTIONARYVAR
  2
AcDbDictionaryVar
  3
ObjectDBX Classes
 90
        0
 91
       10
280
     0
281
     0
  0
CLASS
  1
TABLESTYLE
  2
AcDbTableStyle
  3
ObjectDBX Classes
 90
     4095
 91
        1
280
     0
281
     0
  0
CLASS
  1
MATERIAL
  2
AcDbMaterial
  3
ObjectDBX Classes
 90
     1153
 91
        3
280
     0
281
     0
  0
CLASS
  1
VISUALSTYLE
  2
AcDbVisualStyle
  3
ObjectDBX Classes
 90
     4095
 91
       24
280
     0
281
     0
  0
CLASS
  1
SCALE
  2
AcDbScale
  3
ObjectDBX Classes
 90
     1153
 91
       17
280
     0
281
     0
  0
CLASS
  1
MLEADERSTYLE
  2
AcDbMLeaderStyle
  3
ACDB_MLEADERSTYLE_CLASS
 90
     4095
 91
        2
280
     0
281
     0
  0
CLASS
  1
CELLSTYLEMAP
  2
AcDbCellStyleMap
  3
ObjectDBX Classes
 90
     1152
 91
        1
280
     0
281
     0
  0
CLASS
  1
EXACXREFPANELOBJECT
  2
ExAcXREFPanelObject
  3
EXAC_ESW
 90
     1025
 91
        0
280
     0
281
     0
  0
CLASS
  1
NPOCOLLECTION
  2
AcDbImpNonPersistentObjectsCollection
  3
ObjectDBX Classes
 90
     1153
 91
        0
280
     0
281
     0
  0
CLASS
  1
LAYER_INDEX
  2
AcDbLayerIndex
  3
ObjectDBX Classes
 90
        0
 91
        0
280
     0
281
     0
  0
CLASS
  1
SPATIAL_INDEX
  2
AcDbSpatialIndex
  3
ObjectDBX Classes
 90
        0
 91
        0
280
     0
281
     0
  0
CLASS
  1
IDBUFFER
  2
AcDbIdBuffer
  3
ObjectDBX Classes
 90
        0
 91
        0
280
     0
281
     0
  0
CLASS
  1
ACDBSECTIONVIEWSTYLE
  2
AcDbSectionViewStyle
  3
ObjectDBX Classes
 90
     1025
 91
        1
280
     0
281
     0
  0
CLASS
  1
ACDBDETAILVIEWSTYLE
  2
AcDbDetailViewStyle
  3
ObjectDBX Classes
 90
     1025
 91
        1
280
     0
281
     0
  0
ENDSEC
  0
SECTION
  2
TABLES
  0
TABLE
  2
VPORT
  5
8
330
0
100
AcDbSymbolTable
 70
     1
  0
VPORT
  5
EA
330
8
100
AcDbSymbolTableRecord
100
AcDbViewportTableRecord
  2
*Active
 70
     0
 10
0.0
 20
0.0
 11
1.0
 21
1.0
 12
2630.048781668382
 22
1440.684066268786
 13
0.0
 23
0.0
 14
10.0
 24
10.0
 15
10.0
 25
10.0
 16
0.0
 26
0.0
 36
1.0
 17
0.0
 27
0.0
 37
0.0
 40
2653.730076586097
 41
1.765478424015009
 42
50.0
 43
0.0
 44
0.0
 50
0.0
 51
0.0
 71
     0
 72
  1000
 73
     1
 74
     3
 75
     0
 76
     1
 77
     0
 78
     0
281
     0
 65
     1
110
0.0
120
0.0
130
0.0
111
1.0
121
0.0
131
0.0
112
0.0
122
1.0
132
0.0
 79
     0
146
0.0
348
F5
 60
     3
 61
     5
292
     1
282
     1
141
0.0
142
0.0
 63
   250
421
  3355443
1001
ACAD_NAV_VCDISPLAY
1070
     3
  0
ENDTAB
  0
TABLE
  2
LTYPE
  5
5
330
0
100
AcDbSymbolTable
 70
     1
  0
LTYPE
  5
14
330
5
100
AcDbSymbolTableRecord
100
AcDbLinetypeTableRecord
  2
ByBlock
 70
     0
  3

 72
    65
 73
     0
 40
0.0
  0
LTYPE
  5
15
330
5
100
AcDbSymbolTableRecord
100
AcDbLinetypeTableRecord
  2
ByLayer
 70
     0
  3

 72
    65
 73
     0
 40
0.0
  0
LTYPE
  5
16
330
5
100
AcDbSymbolTableRecord
100
AcDbLinetypeTableRecord
  2
Continuous
 70
     0
  3
Solid line
 72
    65
 73
     0
 40
0.0
  0
ENDTAB
  0
TABLE
  2
LAYER
  5
2
102
{ACAD_XDICTIONARY
360
1FF
102
}
330
0
100
AcDbSymbolTable
 70
     2
  0
LAYER
  5
10
102
{ACAD_XDICTIONARY
360
13C
102
}
330
2
100
AcDbSymbolTableRecord
100
AcDbLayerTableRecord
  2
0
 70
     0
 62
     7
  6
Continuous
370
    -3
390
F
347
EE
  0
LAYER
  5
249
330
2
100
AcDbSymbolTableRecord
100
AcDbLayerTableRecord
  2
Default Layer
 70
     0
 62
     7
  6
Continuous
370
    30
390
F
347
EE
  0
ENDTAB
  0
TABLE
  2
STYLE
  5
3
330
0
100
AcDbSymbolTable
 70
     2
  0
STYLE
  5
11
330
3
100
AcDbSymbolTableRecord
100
AcDbTextStyleTableRecord
  2
Standard
 70
     0
 40
0.0
 41
1.0
 50
0.0
 71
     0
 42
2.5
  3
arial.ttf
  4

1001
ACAD
1000
Arial
1071
       34
  0
STYLE
  5
132
330
3
100
AcDbSymbolTableRecord
100
AcDbTextStyleTableRecord
  2
Annotative
 70
     0
 40
0.0
 41
1.0
 50
0.0
 71
     0
 42
2.5
  3
arial.ttf
  4

1001
AcadAnnotative
1000
AnnotativeData
1002
{
1070
     1
1070
     1
1002
}
1001
ACAD
1000
Arial
1071
       34
  0
ENDTAB
  0
TABLE
  2
VIEW
  5
6
330
0
100
AcDbSymbolTable
 70
     0
  0
ENDTAB
  0
TABLE
  2
UCS
  5
7
330
0
100
AcDbSymbolTable
 70
     0
  0
ENDTAB
  0
TABLE
  2
APPID
  5
9
330
0
100
AcDbSymbolTable
 70
     8
  0
APPID
  5
12
330
9
100
AcDbSymbolTableRecord
100
AcDbRegAppTableRecord
  2
ACAD
 70
     0
  0
APPID
  5
9E
330
9
100
AcDbSymbolTableRecord
100
AcDbRegAppTableRecord
  2
ACAD_PSEXT
 70
     0
  0
APPID
  5
133
330
9
100
AcDbSymbolTableRecord
100
AcDbRegAppTableRecord
  2
AcadAnnoPO
 70
     0
  0
APPID
  5
134
330
9
100
AcDbSymbolTableRecord
100
AcDbRegAppTableRecord
  2
AcadAnnotative
 70
     0
  0
APPID
  5
135
330
9
100
AcDbSymbolTableRecord
100
AcDbRegAppTableRecord
  2
ACAD_DSTYLE_DIMJAG
 70
     0
  0
APPID
  5
136
330
9
100
AcDbSymbolTableRecord
100
AcDbRegAppTableRecord
  2
ACAD_DSTYLE_DIMTALN
 70
     0
  0
APPID
  5
165
330
9
100
AcDbSymbolTableRecord
100
AcDbRegAppTableRecord
  2
ACAD_MLEADERVER
 70
     0
  0
APPID
  5
217
330
9
100
AcDbSymbolTableRecord
100
AcDbRegAppTableRecord
  2
ACAD_NAV_VCDISPLAY
 70
     0
  0
ENDTAB
  0
TABLE
  2
DIMSTYLE
  5
A
330
0
100
AcDbSymbolTable
 70
     3
100
AcDbDimStyleTable
 71
     2
340
27
340
137
  0
DIMSTYLE
105
1B0
330
A
100
AcDbSymbolTableRecord
100
AcDbDimStyleTableRecord
  2
Standard
 70
     0
340
11
  0
DIMSTYLE
105
137
330
A
100
AcDbSymbolTableRecord
100
AcDbDimStyleTableRecord
  2
Annotative
 70
     0
 40
0.0
 41
2.5
 42
0.625
 43
3.75
 44
1.25
 73
     0
 74
     0
 77
     1
 78
     8
140
2.5
141
2.5
143
0.03937007874016
147
0.625
171
     3
172
     1
271
     2
272
     2
274
     3
278
    44
283
     0
284
     8
340
11
1001
AcadAnnotative
1000
AnnotativeData
1002
{
1070
     1
1070
     1
1002
}
1001
ACAD_DSTYLE_DIMJAG
1070
   388
1040
1.5
1001
ACAD_DSTYLE_DIMTALN
1070
   392
1070
     0
  0
DIMSTYLE
105
27
330
A
100
AcDbSymbolTableRecord
100
AcDbDimStyleTableRecord
  2
ISO-25
 70
     0
 41
2.5
 42
0.625
 43
3.75
 44
1.25
 73
     0
 74
     0
 77
     1
 78
     8
140
2.5
141
2.5
143
0.03937007874016
147
0.625
171
     3
172
     1
271
     2
272
     2
274
     3
278
    44
283
     0
284
     8
340
11
  0
ENDTAB
  0
TABLE
  2
BLOCK_RECORD
  5
1
330
0
100
AcDbSymbolTable
 70
     1
  0
BLOCK_RECORD
  5
1F
102
{ACAD_XDICTIONARY
360
1CE
102
}
330
1
100
AcDbSymbolTableRecord
100
AcDbBlockTableRecord
  2
*Model_Space
340
22
 70
     0
280
     1
281
     0
  0
BLOCK_RECORD
  5
D2
330
1
100
AcDbSymbolTableRecord
100
AcDbBlockTableRecord
  2
*Paper_Space
340
D3
 70
     0
280
     1
281
     0
  0
BLOCK_RECORD
  5
D6
330
1
100
AcDbSymbolTableRecord
100
AcDbBlockTableRecord
  2
*Paper_Space0
340
D7
 70
     0
280
     1
281
     0
  0
ENDTAB
  0
ENDSEC
  0
SECTION
  2
BLOCKS
  0
BLOCK
  5
20
330
1F
100
AcDbEntity
  8
0
100
AcDbBlockBegin
  2
*Model_Space
 70
     0
 10
0.0
 20
0.0
 30
0.0
  3
*Model_Space
  1

  0
ENDBLK
  5
21
330
1F
100
AcDbEntity
  8
0
100
AcDbBlockEnd
  0
BLOCK
  5
D4
330
D2
100
AcDbEntity
 67
     1
  8
0
100
AcDbBlockBegin
  2
*Paper_Space
 70
     0
 10
0.0
 20
0.0
 30
0.0
  3
*Paper_Space
  1

  0
ENDBLK
  5
D5
330
D2
100
AcDbEntity
 67
     1
  8
0
100
AcDbBlockEnd
  0
BLOCK
  5
D8
330
D6
100
AcDbEntity
 67
     1
  8
0
100
AcDbBlockBegin
  2
*Paper_Space0
 70
     0
 10
0.0
 20
0.0
 30
0.0
  3
*Paper_Space0
  1

  0
ENDBLK
  5
D9
330
D6
100
AcDbEntity
 67
     1
  8
0
100
AcDbBlockEnd
  0
ENDSEC
  0
SECTION
  2
ENTITIES
  0
LWPOLYLINE
  5
24A
330
1F
100
AcDbEntity
  8
Default Layer
 62
    18
420
        0
370
    30
100
AcDbPolyline
 90
        8
 70
     0
 43
0.0
 10
-38.96805307751966
 20
-28.57499999999943
 10
519.8319469224802
 20
-28.57499999999987
 10
519.8319469224802
 20
-28.57499999999987
 10
519.8319469224802
 20
28.57499999999987
 10
519.8319469224802
 20
28.57499999999987
 10
-38.96805307751966
 20
28.57499999999977
 10
-38.96805307751966
 20
28.57499999999977
 10
-38.96805307751966
 20
-28.57499999999943
  0
LWPOLYLINE
  5
24B
330
1F
100
AcDbEntity
  8
Default Layer
 62
    18
420
        0
370
    30
100
AcDbPolyline
 90
      198
 70
     0
 43
0.0
 10
4.029227465300856
 20
-22.82123542549898
 10
3.057944006164999
 20
-22.78145270305373
 10
2.106045974823781
 20
-22.66784906023166
 10
1.174389662978864
 20
-22.48208561868171
 10
0.2638313623319147
 20
-22.22582350005285
 10
-0.624772635415405
 20
-21.90072382599401
 10
-1.49056603856143
 20
-21.50844771815414
 10
-2.332692555404496
 20
-21.05065629818219
 10
-3.150295894242939
 20
-20.52901068772712
 10
-3.942519763375096
 20
-19.94517200843786
 10
-4.708507871099302
 20
-19.30080138196337
 10
-5.447403925713893
 20
-18.5975599299526
 10
-6.158351635517204
 20
-17.83710877405449
 10
-6.840494708807572
 20
-17.021109035918
 10
-7.492976853883332
 20
-16.15122183719207
 10
-8.114941779042821
 20
-15.22910829952565
 10
-8.705533192584374
 20
-14.25642954456768
 10
-9.263894802806326
 20
-13.23484669396713
 10
-9.789170318007016
 20
-12.16602086937293
 10
-10.28050344648478
 20
-11.05161319243403
 10
-10.73703789653794
 20
-9.893284784799394
 10
-11.15791737646485
 20
-8.692696768117956
 10
-11.54228559456385
 20
-7.451510264038668
 10
-11.88928625913325
 20
-6.171386394210479
 10
-12.19806307847141
 20
-4.853986280282337
 10
-12.46775976087666
 20
-3.500971043903192
 10
-12.69752001464732
 20
-2.114001806721991
 10
-12.88648754808175
 20
-0.694739690387684
 10
-13.03380606947827
 20
0.7551541834507818
 10
-13.13861928713522
 20
2.234018693144457
 10
-13.20007090935094
 20
3.740192717044393
 10
-13.21730464442376
 20
5.272015133501642
 10
-13.21730464442376
 20
5.27201513350166
 10
-13.70073289411627
 20
5.939753338813575
 10
-14.21102490500293
 20
6.537203311987394
 10
-14.74519581472884
 20
7.064365053023117
 10
-15.30026076093909
 20
7.521238561920743
 10
-15.87323488127877
 20
7.907823838680272
 10
-16.46113331339298
 20
8.224120883301706
 10
-17.06097119492682
 20
8.470129695785043
 10
-17.66976366352537
 20
8.645850276130284
 10
-18.28452585683373
 20
8.751282624337427
 10
-18.902272912497
 20
8.786426740406476
 10
-19.52001996816027
 20
8.751282624337427
 10
-20.13478216146863
 20
8.645850276130282
 10
-20.74357463006718
 20
8.47012969578504
 10
-21.34341251160102
 20
8.224120883301702
 10
-21.93131094371523
 20
7.907823838680268
 10
-22.50428506405491
 20
7.521238561920737
 10
-23.05935001026516
 20
7.06436505302311
 10
-23.59352091999107
 20
6.537203311987386
 10
-24.10381293087773
 20
5.939753338813567
 10
-24.58724118057024
 20
5.27201513350165
 10
-24.58724118057024
 20
5.27201513350166
 10
-24.37808447399202
 20
3.484564127356551
 10
-24.12285858022693
 20
1.749725563608047
 10
-23.82173551659302
 20
0.0677402473082134
 10
-23.47488730040832
 20
-1.561151016490883
 10
-23.08248594899087
 20
-3.136707422737175
 10
-22.64470347965871
 20
-4.658688166378598
 10
-22.16171190972988
 20
-6.126852442363084
 10
-21.63368325652242
 20
-7.540959445638566
 10
-21.06078953735437
 20
-8.900768371152981
 10
-20.44320276954376
 20
-10.20603841385426
 10
-20.44320276954376
 20
-10.20603841385426
 10
-19.89728644114655
 20
-10.07796232930581
 10
-19.40682414990868
 20
-10.00566538251933
 10
-18.97181775353463
 20
-9.989144972915863
 10
-18.59226910972886
 20
-10.02839849991641
 10
-18.26818007619584
 20
-10.12342336294201
 10
-17.99955251064003
 20
-10.27421696141369
 10
-17.7863882707659
 20
-10.48077669475246
 10
-17.62868921427791
 20
-10.74309996237935
 10
-17.52645719888054
 20
-11.06118416371539
 10
-17.47969408227825
 20
-11.43502669818159
 10
-17.48840172217551
 20
-11.86462496519899
 10
-17.55258197627678
 20
-12.3499763641886
 10
-17.67223670228653
 20
-12.89107829457145
 10
-17.84736775790922
 20
-13.48792815576857
 10
-18.07797700084933
 20
-14.14052334720098
 10
-18.07797700084933
 20
-14.14052334720098
 10
-17.23985838338963
 20
-15.24467615740339
 10
-16.35479725305604
 20
-16.28895021326966
 10
-15.42299107935572
 20
-17.27307788865327
 10
-14.4446373317958
 20
-18.19679155740771
 10
-13.41993347988343
 20
-19.05982359338647
 10
-12.34907699312575
 20
-19.86190637044302
 10
-11.23226534102991
 20
-20.60277226243086
 10
-10.06969599310304
 20
-21.28215364320347
 10
-8.86156641885228
 20
-21.89978288661433
 10
-7.608074087784782
 20
-22.45539236651694
 10
-6.309416469407684
 20
-22.94871445676477
 10
-4.965791033228128
 20
-23.3794815312113
 10
-3.577395248753258
 20
-23.74742596371004
 10
-2.144426585490213
 20
-24.05228012811446
 10
-0.6670825129461371
 20
-24.29377639827804
 10
0.8544394993718286
 20
-24.47164714805428
 10
2.419941981956541
 20
-24.58562475129666
 10
4.02922746530086
 20
-24.63544158185866
 10
4.029227465300856
 20
-24.63544158185866
 10
5.638512948645173
 20
-24.58562475129666
 10
7.204015431229885
 20
-24.47164714805428
 10
8.72553744354785
 20
-24.29377639827805
 10
10.20288151609192
 20
-24.05228012811446
 10
11.63585017935497
 20
-23.74742596371004
 10
13.02424596382984
 20
-23.3794815312113
 10
14.36787140000939
 20
-22.94871445676477
 10
15.66652901838649
 20
-22.45539236651694
 10
16.92002134945399
 20
-21.89978288661433
 10
18.12815092370474
 20
-21.28215364320347
 10
19.29072027163162
 20
-20.60277226243086
 10
20.40753192372746
 20
-19.86190637044302
 10
21.47838841048514
 20
-19.05982359338647
 10
22.50309226239751
 20
-18.19679155740771
 10
23.48144600995742
 20
-17.27307788865327
 10
24.41325218365774
 20
-16.28895021326966
 10
25.29831331399133
 20
-15.24467615740339
 10
26.13643193145103
 20
-14.14052334720097
 10
26.13643193145105
 20
-14.14052334720098
 10
25.90582268851094
 20
-13.48792815576857
 10
25.73069163288824
 20
-12.89107829457145
 10
25.61103690687849
 20
-12.3499763641886
 10
25.54685665277722
 20
-11.86462496519899
 10
25.53814901287997
 20
-11.43502669818159
 10
25.58491212948226
 20
-11.06118416371539
 10
25.68714414487963
 20
-10.74309996237935
 10
25.84484320136761
 20
-10.48077669475246
 10
26.05800744124174
 20
-10.27421696141369
 10
26.32663500679755
 20
-10.12342336294201
 10
26.65072404033058
 20
-10.02839849991641
 10
27.03027268413635
 20
-9.989144972915861
 10
27.4652790805104
 20
-10.00566538251933
 10
27.95574137174826
 20
-10.0779623293058
 10
28.50165770014547
 20
-10.20603841385425
 10
28.50165770014547
 20
-10.20603841385426
 10
29.11924446795607
 20
-8.900768371152981
 10
29.69213818712413
 20
-7.540959445638567
 10
30.22016684033159
 20
-6.126852442363084
 10
30.70315841026042
 20
-4.658688166378598
 10
31.14094087959258
 20
-3.136707422737176
 10
31.53334223101003
 20
-1.561151016490883
 10
31.88019044719473
 20
0.0677402473082132
 10
32.18131351082864
 20
1.749725563608047
 10
32.43653940459373
 20
3.484564127356551
 10
32.64569611117194
 20
5.27201513350166
 10
32.64569611117195
 20
5.27201513350166
 10
32.16226786147944
 20
5.939753338813575
 10
31.65197585059278
 20
6.537203311987394
 10
31.11780494086687
 20
7.064365053023117
 10
30.56273999465663
 20
7.521238561920743
 10
29.98976587431694
 20
7.907823838680273
 10
29.40186744220273
 20
8.224120883301706
 10
28.8020295606689
 20
8.470129695785043
 10
28.19323709207035
 20
8.645850276130284
 10
27.57847489876198
 20
8.751282624337427
 10
26.96072784309871
 20
8.786426740406476
 10
26.34298078743544
 20
8.751282624337427
 10
25.72821859412708
 20
8.645850276130282
 10
25.11942612552853
 20
8.470129695785042
 10
24.5195882439947
 20
8.224120883301704
 10
23.93168981188049
 20
7.907823838680271
 10
23.3587156915408
 20
7.521238561920742
 10
22.80365074533055
 20
7.064365053023117
 10
22.26947983560465
 20
6.537203311987394
 10
21.75918782471798
 20
5.939753338813576
 10
21.27575957502547
 20
5.272015133501662
 10
21.27575957502547
 20
5.27201513350166
 10
21.25852583995265
 20
3.74019271704441
 10
21.19707421773693
 20
2.234018693144472
 10
21.09226100007998
 20
0.7551541834507956
 10
20.94494247868346
 20
-0.6947396903876716
 10
20.75597494524904
 20
-2.11400180672198
 10
20.52621469147837
 20
-3.500971043903182
 10
20.25651800907313
 20
-4.853986280282328
 10
19.94774118973497
 20
-6.171386394210471
 10
19.60074052516556
 20
-7.451510264038661
 10
19.21637230706657
 20
-8.692696768117951
 10
18.79549282713966
 20
-9.893284784799391
 10
18.33895837708649
 20
-11.05161319243403
 10
17.84762524860873
 20
-12.16602086937293
 10
17.32234973340804
 20
-13.23484669396713
 10
16.76398812318609
 20
-14.25642954456768
 10
16.17339670964454
 20
-15.22910829952564
 10
15.55143178448505
 20
-16.15122183719207
 10
14.89894963940929
 20
-17.021109035918
 10
14.21680656611892
 20
-17.83710877405449
 10
13.50585885631561
 20
-18.5975599299526
 10
12.76696280170102
 20
-19.30080138196337
 10
12.00097469397682
 20
-19.94517200843786
 10
11.20875082484466
 20
-20.52901068772712
 10
10.39114748600622
 20
-21.0506562981822
 10
9.54902096916315
 20
-21.50844771815414
 10
8.683227566017125
 20
-21.90072382599401
 10
7.794623568269805
 20
-22.22582350005286
 10
6.884065267622856
 20
-22.48208561868172
 10
5.952408955777941
 20
-22.66784906023166
 10
5.000510924436722
 20
-22.78145270305373
 10
4.029227465300866
 20
-22.82123542549898
210
0.0
220
0.0
230
-1.0
  0
LWPOLYLINE
  5
24C
330
1F
100
AcDbEntity
  8
Default Layer
 62
    18
420
        0
370
    30
100
AcDbPolyline
 90
      107
 70
     0
 43
0.0
 10
20.41951201879522
 20
5.615473826610068
 10
20.14450251043378
 20
6.085850751615324
 10
19.81295753062478
 20
6.512816585130262
 10
19.42454367167853
 20
6.898457127667207
 10
18.97892752590534
 20
7.244858179738484
 10
18.47577568561553
 20
7.554105541856418
 10
17.91475474311941
 20
7.828285014533333
 10
17.29553129072729
 20
8.069482398281556
 10
16.6177719207495
 20
8.279783493613409
 10
15.88114322549634
 20
8.461274101041221
 10
15.08531179727812
 20
8.616040021077314
 10
14.22994422840517
 20
8.746167054234014
 10
13.31470711118779
 20
8.853741001023648
 10
12.3392670379363
 20
8.940847661958539
 10
11.30329060096102
 20
9.009572837551012
 10
10.20644439257225
 20
9.062002328313392
 10
9.048395005080321
 20
9.100221934758003
 10
7.828809030795535
 20
9.126317457397172
 10
6.54735306202821
 20
9.142374696743225
 10
5.20369369108866
 20
9.150479453308484
 10
3.797497510287199
 20
9.152717527605277
 10
3.797497510287198
 20
9.152717527605277
 10
2.38660438274553
 20
9.150217393763156
 10
1.039870163265709
 20
9.14109514220048
 10
-0.2429269308823201
 20
9.122917997862781
 10
-1.462008682428613
 20
9.093253185695591
 10
-2.617596874103225
 20
9.04966793064444
 10
-3.709913288636212
 20
8.989729457654862
 10
-4.739179708757628
 20
8.911004991672385
 10
-5.705617917197529
 20
8.811061757642541
 10
-6.60944969668597
 20
8.687466980510862
 10
-7.450896829953007
 20
8.537787885222881
 10
-8.230181099728696
 20
8.359591696724127
 10
-8.947524288743089
 20
8.150445639960132
 10
-9.603148179726245
 20
7.907916939876429
 10
-10.19727455540822
 20
7.629572821418547
 10
-10.73012519851906
 20
7.312980509532019
 10
-11.20192189178883
 20
6.955707229162376
 10
-11.61288641794758
 20
6.555320205255149
 10
-11.96324055972538
 20
6.10938666275587
 10
-12.25320609985226
 20
5.615473826610069
 10
-12.25320609985227
 20
5.615473826610068
 10
-12.25807475864427
 20
3.891292579029551
 10
-12.20856037061128
 20
2.222368981576717
 10
-12.10672363196757
 20
0.6086688189883285
 10
-11.95462523892745
 20
-0.9498421239988514
 10
-11.75432588770519
 20
-2.453198062648059
 10
-11.5078862745151
 20
-3.901433212222533
 10
-11.21736709557146
 20
-5.294581787985508
 10
-10.88482904708856
 20
-6.632678005200223
 10
-10.5123328252807
 20
-7.915756079129915
 10
-10.10193912636217
 20
-9.143850225037819
 10
-9.655708646547248
 20
-10.31699465818717
 10
-9.175702082050236
 20
-11.43522359384121
 10
-8.663980129085421
 20
-12.49857124726318
 10
-8.122603483867097
 20
-13.5070718337163
 10
-7.553632842609552
 20
-14.46075956846383
 10
-6.959128901527077
 20
-15.35966866676899
 10
-6.341152356833964
 20
-16.20383334389502
 10
-5.701763904744503
 20
-16.99328781510516
 10
-5.043024241472985
 20
-17.72806629566264
 10
-4.366994063233701
 20
-18.40820300083071
 10
-3.675734066240942
 20
-19.0337321458726
 10
-2.971304946708999
 20
-19.60468794605154
 10
-2.255767400852163
 20
-20.12110461663078
 10
-1.531182124884723
 20
-20.58301637287355
 10
-0.7996098150209731
 20
-20.99045743004308
 10
-0.0631111674752013
 20
-21.34346200340262
 10
0.6762531215383005
 20
-21.6420643082154
 10
1.416422355805241
 20
-21.88629855974466
 10
2.155335839111331
 20
-22.07619897325363
 10
2.890932875242278
 20
-22.21179976400556
 10
3.621152767983791
 20
-22.29313514726367
 10
4.343934821121581
 20
-22.32023933829121
 10
4.343934821121597
 20
-22.32023933829122
 10
5.051939058486762
 20
-22.29208497581779
 10
5.766323576583509
 20
-22.20773458421503
 10
6.485098972290506
 20
-22.06735720720923
 10
7.206275842486423
 20
-21.87112188852669
 10
7.927864784049929
 20
-21.61919767189368
 10
8.647876393859695
 20
-21.3117536010365
 10
9.364321268794387
 20
-20.94895871968143
 10
10.07521000573268
 20
-20.53098207155477
 10
10.77855320155324
 20
-20.05799270038282
 10
11.47236145313473
 20
-19.53015964989184
 10
12.15464535735583
 20
-18.94765196380814
 10
12.8234155110952
 20
-18.31063868585801
 10
13.47668251123153
 20
-17.61928885976773
 10
14.11245695464346
 20
-16.8737715292636
 10
14.72874943820968
 20
-16.0742557380719
 10
15.32357055880885
 20
-15.22091052991893
 10
15.89493091331964
 20
-14.31390494853097
 10
16.44084109862072
 20
-13.35340803763431
 10
16.95931171159077
 20
-12.33958884095524
 10
17.44835334910845
 20
-11.27261640222005
 10
17.90597660805242
 20
-10.15265976515504
 10
18.33019208530137
 20
-8.979887973486482
 10
18.71901037773396
 20
-7.754470070940676
 10
19.07044208222885
 20
-6.47657510124391
 10
19.38249779566472
 20
-5.146372108122473
 10
19.65318811492024
 20
-3.764030135302654
 10
19.88052363687408
 20
-2.329718226510743
 10
20.0625149584049
 20
-0.8436054254730295
 10
20.19717267639138
 20
0.6941392240841971
 10
20.28250738771218
 20
2.283346678434647
 10
20.31652968924598
 20
3.923847893852031
 10
20.29725017787145
 20
5.61547382661006
210
0.0
220
0.0
230
-1.0
  0
LINE
  5
24D
330
1F
100
AcDbEntity
  8
Default Layer
 62
    18
420
        0
370
    30
100
AcDbLine
 10
-38.96805307751966
 20
9.718279682501618
 30
0.0
 11
519.8319469224803
 21
9.718279682501618
 31
0.0
  0
LINE
  5
24E
330
1F
100
AcDbEntity
  8
Default Layer
 62
    18
420
        0
370
    30
100
AcDbLine
 10
-38.96805307751966
 20
-25.53613878632705
 30
0.0
 11
-26.20088009164631
 21
-14.14052334720098
 31
0.0
  0
LWPOLYLINE
  5
24F
330
1F
100
AcDbEntity
  8
Default Layer
 62
    18
420
        0
370
    30
100
AcDbPolyline
 90
       29
 70
     0
 43
0.0
 10
41.34834229985453
 20
-10.20603841385426
 10
33.63682974859519
 20
-16.50743707830435
 10
33.63682974859519
 20
-16.50743707830435
 10
33.63682974859519
 20
4.004847004814767
 10
33.63682974859519
 20
4.004847004814767
 10
33.42234527603994
 20
4.698918547801006
 10
33.18859644241429
 20
5.31992992836764
 10
32.93772373228164
 20
5.86788114651467
 10
32.67186763020534
 20
6.342772202242096
 10
32.39316862074879
 20
6.744603095549917
 10
32.10376718847536
 20
7.073373826438135
 10
31.80580381794842
 20
7.329084394906749
 10
31.50141899373136
 20
7.51173480095576
 10
31.19275320038755
 20
7.621325044585166
 10
30.88194692248035
 20
7.657855125794967
 10
30.57114064457316
 20
7.621325044585165
 10
30.26247485122934
 20
7.511734800955759
 10
29.95809002701227
 20
7.329084394906749
 10
29.66012665648534
 20
7.073373826438134
 10
29.37072522421191
 20
6.744603095549916
 10
29.09202621475536
 20
6.342772202242095
 10
28.82617011267907
 20
5.867881146514669
 10
28.57529740254641
 20
5.319929928367638
 10
28.34154856892076
 20
4.698918547801004
 10
28.1270640963655
 20
4.004847004814766
 10
28.1270640963655
 20
4.004847004814766
 10
28.1270640963655
 20
-16.50743707830435
 10
28.1270640963655
 20
-16.50743707830435
 10
20.44962896954376
 20
-10.20603841385426
  0
LWPOLYLINE
  5
250
330
1F
100
AcDbEntity
  8
Default Layer
 62
    18
420
        0
370
    30
100
AcDbPolyline
 90
        4
 70
     0
 43
0.0
 10
18.11477393660698
 20
-14.14052334720098
 10
30.88194692248034
 20
-25.53613878632705
 10
30.88194692248034
 20
-25.53613878632705
 10
43.64911990835369
 20
-14.14052334720098
  0
LWPOLYLINE
  5
251
330
1F
100
AcDbEntity
  8
Default Layer
 62
    18
420
        0
370
    30
100
AcDbPolyline
 90
      198
 70
     0
 43
0.0
 10
-65.82077253469915
 20
-22.82123542549898
 10
-66.792055993835
 20
-22.78145270305373
 10
-67.74395402517622
 20
-22.66784906023166
 10
-68.67561033702114
 20
-22.48208561868171
 10
-69.5861686376681
 20
-22.22582350005285
 10
-70.47477263541542
 20
-21.90072382599401
 10
-71.34056603856144
 20
-21.50844771815414
 10
-72.18269255540452
 20
-21.05065629818219
 10
-73.00029589424295
 20
-20.52901068772712
 10
-73.79251976337511
 20
-19.94517200843786
 10
-74.55850787109932
 20
-19.30080138196337
 10
-75.2974039257139
 20
-18.5975599299526
 10
-76.00835163551721
 20
-17.83710877405449
 10
-76.69049470880757
 20
-17.021109035918
 10
-77.34297685388334
 20
-16.15122183719207
 10
-77.96494177904283
 20
-15.22910829952565
 10
-78.55553319258437
 20
-14.25642954456768
 10
-79.11389480280632
 20
-13.23484669396713
 10
-79.63917031800701
 20
-12.16602086937293
 10
-80.13050344648478
 20
-11.05161319243403
 10
-80.58703789653796
 20
-9.893284784799394
 10
-81.00791737646487
 20
-8.692696768117956
 10
-81.39228559456384
 20
-7.451510264038668
 10
-81.73928625913324
 20
-6.171386394210479
 10
-82.04806307847141
 20
-4.853986280282337
 10
-82.31775976087666
 20
-3.500971043903192
 10
-82.54752001464732
 20
-2.114001806721991
 10
-82.73648754808174
 20
-0.694739690387684
 10
-82.88380606947827
 20
0.7551541834507818
 10
-82.98861928713522
 20
2.234018693144457
 10
-83.05007090935093
 20
3.740192717044393
 10
-83.06730464442376
 20
5.272015133501642
 10
-83.06730464442376
 20
5.27201513350166
 10
-83.55073289411626
 20
5.939753338813575
 10
-84.06102490500293
 20
6.537203311987394
 10
-84.59519581472884
 20
7.064365053023117
 10
-85.15026076093908
 20
7.521238561920743
 10
-85.72323488127876
 20
7.907823838680272
 10
-86.31113331339298
 20
8.224120883301706
 10
-86.91097119492681
 20
8.470129695785043
 10
-87.51976366352536
 20
8.645850276130284
 10
-88.13452585683373
 20
8.751282624337427
 10
-88.752272912497
 20
8.786426740406476
 10
-89.37001996816027
 20
8.751282624337427
 10
-89.98478216146864
 20
8.645850276130282
 10
-90.59357463006719
 20
8.47012969578504
 10
-91.19341251160102
 20
8.224120883301702
 10
-91.78131094371524
 20
7.907823838680268
 10
-92.35428506405492
 20
7.521238561920737
 10
-92.90935001026516
 20
7.06436505302311
 10
-93.44352091999107
 20
6.537203311987386
 10
-93.95381293087773
 20
5.939753338813567
 10
-94.43724118057025
 20
5.27201513350165
 10
-94.43724118057023
 20
5.27201513350166
 10
-94.22808447399201
 20
3.484564127356551
 10
-93.97285858022693
 20
1.749725563608047
 10
-93.67173551659302
 20
0.0677402473082134
 10
-93.32488730040832
 20
-1.561151016490883
 10
-92.93248594899088
 20
-3.136707422737175
 10
-92.49470347965871
 20
-4.658688166378598
 10
-92.01171190972988
 20
-6.126852442363084
 10
-91.48368325652242
 20
-7.540959445638566
 10
-90.91078953735438
 20
-8.900768371152981
 10
-90.29320276954377
 20
-10.20603841385426
 10
-90.29320276954376
 20
-10.20603841385426
 10
-89.74728644114653
 20
-10.07796232930581
 10
-89.25682414990868
 20
-10.00566538251933
 10
-88.82181775353464
 20
-9.989144972915863
 10
-88.44226910972885
 20
-10.02839849991641
 10
-88.11818007619583
 20
-10.12342336294201
 10
-87.84955251064001
 20
-10.27421696141369
 10
-87.63638827076588
 20
-10.48077669475246
 10
-87.47868921427789
 20
-10.74309996237935
 10
-87.37645719888051
 20
-11.06118416371539
 10
-87.32969408227821
 20
-11.43502669818159
 10
-87.33840172217547
 20
-11.86462496519899
 10
-87.40258197627674
 20
-12.3499763641886
 10
-87.5222367022865
 20
-12.89107829457145
 10
-87.69736775790917
 20
-13.48792815576857
 10
-87.92797700084928
 20
-14.14052334720098
 10
-87.92797700084932
 20
-14.14052334720098
 10
-87.08985838338961
 20
-15.24467615740339
 10
-86.20479725305603
 20
-16.28895021326966
 10
-85.2729910793557
 20
-17.27307788865327
 10
-84.29463733179579
 20
-18.19679155740771
 10
-83.26993347988342
 20
-19.05982359338647
 10
-82.19907699312575
 20
-19.86190637044302
 10
-81.08226534102989
 20
-20.60277226243086
 10
-79.91969599310301
 20
-21.28215364320347
 10
-78.71156641885225
 20
-21.89978288661433
 10
-77.45807408778476
 20
-22.45539236651694
 10
-76.15941646940767
 20
-22.94871445676477
 10
-74.81579103322812
 20
-23.3794815312113
 10
-73.42739524875326
 20
-23.74742596371004
 10
-71.99442658549021
 20
-24.05228012811446
 10
-70.51708251294614
 20
-24.29377639827804
 10
-68.99556050062819
 20
-24.47164714805428
 10
-67.43005801804348
 20
-24.58562475129666
 10
-65.82077253469917
 20
-24.63544158185866
 10
-65.82077253469915
 20
-24.63544158185866
 10
-64.21148705135482
 20
-24.58562475129666
 10
-62.64598456877011
 20
-24.47164714805428
 10
-61.12446255645214
 20
-24.29377639827805
 10
-59.64711848390806
 20
-24.05228012811446
 10
-58.21414982064502
 20
-23.74742596371004
 10
-56.82575403617015
 20
-23.3794815312113
 10
-55.48212859999058
 20
-22.94871445676477
 10
-54.18347098161349
 20
-22.45539236651694
 10
-52.92997865054599
 20
-21.89978288661433
 10
-51.72184907629524
 20
-21.28215364320347
 10
-50.55927972836837
 20
-20.60277226243086
 10
-49.44246807627251
 20
-19.86190637044302
 10
-48.37161158951484
 20
-19.05982359338647
 10
-47.34690773760247
 20
-18.19679155740771
 10
-46.36855399004256
 20
-17.27307788865327
 10
-45.43674781634223
 20
-16.28895021326966
 10
-44.55168668600864
 20
-15.24467615740339
 10
-43.71356806854894
 20
-14.14052334720097
 10
-43.71356806854895
 20
-14.14052334720098
 10
-43.94417731148906
 20
-13.48792815576857
 10
-44.11930836711175
 20
-12.89107829457145
 10
-44.23896309312151
 20
-12.3499763641886
 10
-44.30314334722277
 20
-11.86462496519899
 10
-44.31185098712002
 20
-11.43502669818159
 10
-44.26508787051773
 20
-11.06118416371539
 10
-44.16285585512036
 20
-10.74309996237935
 10
-44.00515679863238
 20
-10.48077669475246
 10
-43.79199255875824
 20
-10.27421696141369
 10
-43.52336499320244
 20
-10.12342336294201
 10
-43.19927595966941
 20
-10.02839849991641
 10
-42.81972731586364
 20
-9.989144972915861
 10
-42.38472091948959
 20
-10.00566538251933
 10
-41.89425862825173
 20
-10.0779623293058
 10
-41.34834229985452
 20
-10.20603841385425
 10
-41.34834229985453
 20
-10.20603841385426
 10
-40.73075553204392
 20
-8.900768371152981
 10
-40.15786181287587
 20
-7.540959445638567
 10
-39.6298331596684
 20
-6.126852442363084
 10
-39.14684158973957
 20
-4.658688166378598
 10
-38.70905912040742
 20
-3.136707422737176
 10
-38.31665776898997
 20
-1.561151016490883
 10
-37.96980955280527
 20
0.0677402473082132
 10
-37.66868648917135
 20
1.749725563608047
 10
-37.41346059540627
 20
3.484564127356551
 10
-37.20430388882804
 20
5.27201513350166
 10
-37.20430388882804
 20
5.27201513350166
 10
-37.68773213852055
 20
5.939753338813575
 10
-38.19802414940722
 20
6.537203311987394
 10
-38.73219505913313
 20
7.064365053023117
 10
-39.28726000534338
 20
7.521238561920743
 10
-39.86023412568306
 20
7.907823838680273
 10
-40.44813255779726
 20
8.224120883301706
 10
-41.0479704393311
 20
8.470129695785043
 10
-41.65676290792965
 20
8.645850276130284
 10
-42.27152510123802
 20
8.751282624337427
 10
-42.88927215690129
 20
8.786426740406476
 10
-43.50701921256455
 20
8.751282624337427
 10
-44.12178140587291
 20
8.645850276130282
 10
-44.73057387447147
 20
8.470129695785042
 10
-45.3304117560053
 20
8.224120883301704
 10
-45.91831018811951
 20
7.907823838680271
 10
-46.4912843084592
 20
7.521238561920742
 10
-47.04634925466946
 20
7.064365053023117
 10
-47.58052016439537
 20
6.537203311987394
 10
-48.09081217528203
 20
5.939753338813576
 10
-48.57424042497455
 20
5.272015133501662
 10
-48.57424042497452
 20
5.27201513350166
 10
-48.59147416004734
 20
3.74019271704441
 10
-48.65292578226307
 20
2.234018693144472
 10
-48.75773899992002
 20
0.7551541834507956
 10
-48.90505752131654
 20
-0.6947396903876716
 10
-49.09402505475097
 20
-2.11400180672198
 10
-49.32378530852164
 20
-3.500971043903182
 10
-49.59348199092689
 20
-4.853986280282328
 10
-49.90225881026504
 20
-6.171386394210471
 10
-50.24925947483446
 20
-7.451510264038661
 10
-50.63362769293345
 20
-8.692696768117951
 10
-51.05450717286036
 20
-9.893284784799391
 10
-51.51104162291352
 20
-11.05161319243403
 10
-52.00237475139129
 20
-12.16602086937293
 10
-52.52765026659197
 20
-13.23484669396713
 10
-53.08601187681393
 20
-14.25642954456768
 10
-53.67660329035548
 20
-15.22910829952564
 10
-54.29856821551497
 20
-16.15122183719207
 10
-54.95105036059072
 20
-17.021109035918
 10
-55.63319343388109
 20
-17.83710877405449
 10
-56.34414114368441
 20
-18.5975599299526
 10
-57.083037198299
 20
-19.30080138196337
 10
-57.8490253060232
 20
-19.94517200843786
 10
-58.64124917515536
 20
-20.52901068772712
 10
-59.45885251399381
 20
-21.0506562981822
 10
-60.30097903083688
 20
-21.50844771815414
 10
-61.1667724339829
 20
-21.90072382599401
 10
-62.05537643173022
 20
-22.22582350005286
 10
-62.96593473237717
 20
-22.48208561868172
 10
-63.89759104422208
 20
-22.66784906023166
 10
-64.84948907556329
 20
-22.78145270305373
 10
-65.82077253469916
 20
-22.82123542549898
210
0.0
220
0.0
230
-1.0
  0
LWPOLYLINE
  5
252
330
1F
100
AcDbEntity
  8
Default Layer
 62
    18
420
        0
370
    30
100
AcDbPolyline
 90
      107
 70
     0
 43
0.0
 10
-49.43048798120479
 20
5.615473826610068
 10
-49.70549748956622
 20
6.085850751615324
 10
-50.03704246937521
 20
6.512816585130262
 10
-50.42545632832147
 20
6.898457127667207
 10
-50.87107247409465
 20
7.244858179738484
 10
-51.37422431438446
 20
7.554105541856418
 10
-51.93524525688058
 20
7.828285014533333
 10
-52.55446870927269
 20
8.069482398281556
 10
-53.23222807925048
 20
8.279783493613409
 10
-53.96885677450365
 20
8.461274101041221
 10
-54.76468820272186
 20
8.616040021077314
 10
-55.62005577159482
 20
8.746167054234014
 10
-56.5352928888122
 20
8.853741001023648
 10
-57.51073296206369
 20
8.940847661958539
 10
-58.54670939903897
 20
9.009572837551012
 10
-59.64355560742774
 20
9.062002328313392
 10
-60.80160499491968
 20
9.100221934758003
 10
-62.02119096920447
 20
9.126317457397172
 10
-63.30264693797179
 20
9.142374696743225
 10
-64.64630630891135
 20
9.150479453308484
 10
-66.0525024897128
 20
9.152717527605277
 10
-66.05250248971279
 20
9.152717527605277
 10
-67.46339561725446
 20
9.150217393763156
 10
-68.81012983673429
 20
9.14109514220048
 10
-70.09292693088231
 20
9.122917997862781
 10
-71.31200868242861
 20
9.093253185695591
 10
-72.46759687410322
 20
9.04966793064444
 10
-73.55991328863621
 20
8.989729457654862
 10
-74.58917970875763
 20
8.911004991672385
 10
-75.55561791719752
 20
8.811061757642541
 10
-76.45944969668597
 20
8.687466980510862
 10
-77.300896829953
 20
8.537787885222881
 10
-78.08018109972869
 20
8.359591696724127
 10
-78.79752428874309
 20
8.150445639960132
 10
-79.45314817972624
 20
7.907916939876429
 10
-80.04727455540821
 20
7.629572821418547
 10
-80.58012519851905
 20
7.312980509532019
 10
-81.05192189178884
 20
6.955707229162376
 10
-81.46288641794759
 20
6.555320205255149
 10
-81.81324055972538
 20
6.10938666275587
 10
-82.10320609985227
 20
5.615473826610069
 10
-82.10320609985227
 20
5.615473826610068
 10
-82.10807475864427
 20
3.891292579029551
 10
-82.05856037061128
 20
2.222368981576717
 10
-81.95672363196756
 20
0.6086688189883285
 10
-81.80462523892744
 20
-0.9498421239988514
 10
-81.60432588770518
 20
-2.453198062648059
 10
-81.35788627451509
 20
-3.901433212222533
 10
-81.06736709557145
 20
-5.294581787985508
 10
-80.73482904708855
 20
-6.632678005200223
 10
-80.36233282528069
 20
-7.915756079129915
 10
-79.95193912636215
 20
-9.143850225037819
 10
-79.50570864654723
 20
-10.31699465818717
 10
-79.02570208205021
 20
-11.43522359384121
 10
-78.51398012908539
 20
-12.49857124726318
 10
-77.97260348386707
 20
-13.5070718337163
 10
-77.40363284260952
 20
-14.46075956846383
 10
-76.80912890152704
 20
-15.35966866676899
 10
-76.19115235683394
 20
-16.20383334389502
 10
-75.55176390474447
 20
-16.99328781510516
 10
-74.89302424147296
 20
-17.72806629566264
 10
-74.21699406323367
 20
-18.40820300083071
 10
-73.52573406624092
 20
-19.0337321458726
 10
-72.82130494670896
 20
-19.60468794605154
 10
-72.10576740085213
 20
-20.12110461663078
 10
-71.38118212488469
 20
-20.58301637287355
 10
-70.64960981502093
 20
-20.99045743004308
 10
-69.91311116747517
 20
-21.34346200340262
 10
-69.17374687846166
 20
-21.6420643082154
 10
-68.43357764419471
 20
-21.88629855974466
 10
-67.69466416088862
 20
-22.07619897325363
 10
-66.95906712475767
 20
-22.21179976400556
 10
-66.22884723201615
 20
-22.29313514726367
 10
-65.50606517887835
 20
-22.32023933829121
 10
-65.5060651788784
 20
-22.32023933829122
 10
-64.79806094151324
 20
-22.29208497581779
 10
-64.08367642341649
 20
-22.20773458421503
 10
-63.36490102770949
 20
-22.06735720720923
 10
-62.64372415751357
 20
-21.87112188852669
 10
-61.92213521595007
 20
-21.61919767189368
 10
-61.2021236061403
 20
-21.3117536010365
 10
-60.4856787312056
 20
-20.94895871968143
 10
-59.77478999426732
 20
-20.53098207155477
 10
-59.07144679844676
 20
-20.05799270038282
 10
-58.37763854686526
 20
-19.53015964989184
 10
-57.69535464264416
 20
-18.94765196380814
 10
-57.02658448890479
 20
-18.31063868585801
 10
-56.37331748876847
 20
-17.61928885976773
 10
-55.73754304535654
 20
-16.8737715292636
 10
-55.12125056179032
 20
-16.0742557380719
 10
-54.52642944119115
 20
-15.22091052991893
 10
-53.95506908668036
 20
-14.31390494853097
 10
-53.40915890137927
 20
-13.35340803763431
 10
-52.89068828840922
 20
-12.33958884095524
 10
-52.40164665089154
 20
-11.27261640222005
 10
-51.94402339194756
 20
-10.15265976515504
 10
-51.51980791469862
 20
-8.979887973486482
 10
-51.13098962226603
 20
-7.754470070940676
 10
-50.77955791777114
 20
-6.47657510124391
 10
-50.46750220433526
 20
-5.146372108122473
 10
-50.19681188507973
 20
-3.764030135302654
 10
-49.9694763631259
 20
-2.329718226510743
 10
-49.78748504159508
 20
-0.8436054254730295
 10
-49.65282732360861
 20
0.6941392240841971
 10
-49.5674926122878
 20
2.283346678434647
 10
-49.533470310754
 20
3.923847893852031
 10
-49.55274982212855
 20
5.61547382661006
210
0.0
220
0.0
230
-1.0
  0
LWPOLYLINE
  5
253
330
1F
100
AcDbEntity
  8
Default Layer
 62
    18
420
        0
370
    30
100
AcDbPolyline
 90
       29
 70
     0
 43
0.0
 10
111.1983422998545
 20
-10.20603841385426
 10
103.4868297485951
 20
-16.50743707830435
 10
103.4868297485951
 20
-16.50743707830435
 10
103.4868297485951
 20
4.004847004814767
 10
103.4868297485951
 20
4.004847004814767
 10
103.2723452760399
 20
4.698918547801006
 10
103.0385964424143
 20
5.31992992836764
 10
102.7877237322816
 20
5.86788114651467
 10
102.5218676302053
 20
6.342772202242096
 10
102.2431686207488
 20
6.744603095549917
 10
101.9537671884753
 20
7.073373826438135
 10
101.6558038179484
 20
7.329084394906749
 10
101.3514189937313
 20
7.51173480095576
 10
101.0427532003875
 20
7.621325044585166
 10
100.7319469224803
 20
7.657855125794967
 10
100.4211406445731
 20
7.621325044585165
 10
100.1124748512293
 20
7.511734800955759
 10
99.80809002701228
 20
7.329084394906749
 10
99.51012665648534
 20
7.073373826438134
 10
99.2207252242119
 20
6.744603095549916
 10
98.94202621475535
 20
6.342772202242095
 10
98.67617011267906
 20
5.867881146514669
 10
98.4252974025464
 20
5.319929928367638
 10
98.19154856892076
 20
4.698918547801004
 10
97.9770640963655
 20
4.004847004814766
 10
97.9770640963655
 20
4.004847004814766
 10
97.9770640963655
 20
-16.50743707830435
 10
97.9770640963655
 20
-16.50743707830435
 10
90.29962896954375
 20
-10.20603841385426
  0
LWPOLYLINE
  5
254
330
1F
100
AcDbEntity
  8
Default Layer
 62
    18
420
        0
370
    30
100
AcDbPolyline
 90
        4
 70
     0
 43
0.0
 10
87.96477393660698
 20
-14.14052334720098
 10
100.7319469224803
 20
-25.53613878632705
 10
100.7319469224803
 20
-25.53613878632705
 10
113.4991199083537
 20
-14.14052334720098
  0
LWPOLYLINE
  5
255
330
1F
100
AcDbEntity
  8
Default Layer
 62
    18
420
        0
370
    30
100
AcDbPolyline
 90
      198
 70
     0
 43
0.0
 10
-135.6707725346991
 20
-22.82123542549898
 10
-136.642055993835
 20
-22.78145270305373
 10
-137.5939540251762
 20
-22.66784906023166
 10
-138.5256103370211
 20
-22.48208561868171
 10
-139.4361686376681
 20
-22.22582350005285
 10
-140.3247726354154
 20
-21.90072382599401
 10
-141.1905660385614
 20
-21.50844771815414
 10
-142.0326925554045
 20
-21.05065629818219
 10
-142.8502958942429
 20
-20.52901068772712
 10
-143.642519763375
 20
-19.94517200843786
 10
-144.4085078710993
 20
-19.30080138196337
 10
-145.1474039257139
 20
-18.5975599299526
 10
-145.8583516355172
 20
-17.83710877405449
 10
-146.5404947088076
 20
-17.021109035918
 10
-147.1929768538833
 20
-16.15122183719207
 10
-147.8149417790428
 20
-15.22910829952565
 10
-148.4055331925844
 20
-14.25642954456768
 10
-148.9638948028063
 20
-13.23484669396713
 10
-149.489170318007
 20
-12.16602086937293
 10
-149.9805034464848
 20
-11.05161319243403
 10
-150.4370378965379
 20
-9.893284784799394
 10
-150.8579173764649
 20
-8.692696768117956
 10
-151.2422855945638
 20
-7.451510264038668
 10
-151.5892862591333
 20
-6.171386394210479
 10
-151.8980630784714
 20
-4.853986280282337
 10
-152.1677597608767
 20
-3.500971043903192
 10
-152.3975200146473
 20
-2.114001806721991
 10
-152.5864875480818
 20
-0.694739690387684
 10
-152.7338060694783
 20
0.7551541834507818
 10
-152.8386192871353
 20
2.234018693144457
 10
-152.900070909351
 20
3.740192717044393
 10
-152.9173046444238
 20
5.272015133501642
 10
-152.9173046444237
 20
5.27201513350166
 10
-153.4007328941162
 20
5.939753338813575
 10
-153.9110249050029
 20
6.537203311987394
 10
-154.4451958147288
 20
7.064365053023117
 10
-155.0002607609391
 20
7.521238561920743
 10
-155.5732348812788
 20
7.907823838680272
 10
-156.161133313393
 20
8.224120883301706
 10
-156.7609711949268
 20
8.470129695785043
 10
-157.3697636635253
 20
8.645850276130284
 10
-157.9845258568337
 20
8.751282624337427
 10
-158.602272912497
 20
8.786426740406476
 10
-159.2200199681603
 20
8.751282624337427
 10
-159.8347821614686
 20
8.645850276130282
 10
-160.4435746300672
 20
8.47012969578504
 10
-161.043412511601
 20
8.224120883301702
 10
-161.6313109437152
 20
7.907823838680268
 10
-162.2042850640549
 20
7.521238561920737
 10
-162.7593500102651
 20
7.06436505302311
 10
-163.293520919991
 20
6.537203311987386
 10
-163.8038129308777
 20
5.939753338813567
 10
-164.2872411805702
 20
5.27201513350165
 10
-164.2872411805702
 20
5.27201513350166
 10
-164.078084473992
 20
3.484564127356551
 10
-163.8228585802269
 20
1.749725563608047
 10
-163.521735516593
 20
0.0677402473082134
 10
-163.1748873004083
 20
-1.561151016490883
 10
-162.7824859489909
 20
-3.136707422737175
 10
-162.3447034796587
 20
-4.658688166378598
 10
-161.8617119097299
 20
-6.126852442363084
 10
-161.3336832565224
 20
-7.540959445638566
 10
-160.7607895373544
 20
-8.900768371152981
 10
-160.1432027695437
 20
-10.20603841385426
 10
-160.1432027695437
 20
-10.20603841385426
 10
-159.5972864411465
 20
-10.07796232930581
 10
-159.1068241499087
 20
-10.00566538251933
 10
-158.6718177535346
 20
-9.989144972915863
 10
-158.2922691097288
 20
-10.02839849991641
 10
-157.9681800761958
 20
-10.12342336294201
 10
-157.69955251064
 20
-10.27421696141369
 10
-157.4863882707658
 20
-10.48077669475246
 10
-157.3286892142779
 20
-10.74309996237935
 10
-157.2264571988805
 20
-11.06118416371539
 10
-157.1796940822782
 20
-11.43502669818159
 10
-157.1884017221755
 20
-11.86462496519899
 10
-157.2525819762768
 20
-12.3499763641886
 10
-157.3722367022865
 20
-12.89107829457145
 10
-157.5473677579092
 20
-13.48792815576857
 10
-157.7779770008493
 20
-14.14052334720098
 10
-157.7779770008493
 20
-14.14052334720098
 10
-156.9398583833896
 20
-15.24467615740339
 10
-156.054797253056
 20
-16.28895021326966
 10
-155.1229910793557
 20
-17.27307788865327
 10
-154.1446373317958
 20
-18.19679155740771
 10
-153.1199334798834
 20
-19.05982359338647
 10
-152.0490769931257
 20
-19.86190637044302
 10
-150.9322653410299
 20
-20.60277226243086
 10
-149.769695993103
 20
-21.28215364320347
 10
-148.5615664188523
 20
-21.89978288661433
 10
-147.3080740877848
 20
-22.45539236651694
 10
-146.0094164694077
 20
-22.94871445676477
 10
-144.6657910332281
 20
-23.3794815312113
 10
-143.2773952487532
 20
-23.74742596371004
 10
-141.8444265854902
 20
-24.05228012811446
 10
-140.3670825129461
 20
-24.29377639827804
 10
-138.8455605006282
 20
-24.47164714805428
 10
-137.2800580180435
 20
-24.58562475129666
 10
-135.6707725346992
 20
-24.63544158185866
 10
-135.6707725346991
 20
-24.63544158185866
 10
-134.0614870513548
 20
-24.58562475129666
 10
-132.4959845687701
 20
-24.47164714805428
 10
-130.9744625564521
 20
-24.29377639827805
 10
-129.4971184839081
 20
-24.05228012811446
 10
-128.064149820645
 20
-23.74742596371004
 10
-126.6757540361701
 20
-23.3794815312113
 10
-125.3321285999906
 20
-22.94871445676477
 10
-124.0334709816135
 20
-22.45539236651694
 10
-122.779978650546
 20
-21.89978288661433
 10
-121.5718490762952
 20
-21.28215364320347
 10
-120.4092797283684
 20
-20.60277226243086
 10
-119.2924680762725
 20
-19.86190637044302
 10
-118.2216115895148
 20
-19.05982359338647
 10
-117.1969077376025
 20
-18.19679155740771
 10
-116.2185539900425
 20
-17.27307788865327
 10
-115.2867478163422
 20
-16.28895021326966
 10
-114.4016866860086
 20
-15.24467615740339
 10
-113.5635680685489
 20
-14.14052334720097
 10
-113.5635680685489
 20
-14.14052334720098
 10
-113.794177311489
 20
-13.48792815576857
 10
-113.9693083671117
 20
-12.89107829457145
 10
-114.0889630931215
 20
-12.3499763641886
 10
-114.1531433472227
 20
-11.86462496519899
 10
-114.16185098712
 20
-11.43502669818159
 10
-114.1150878705177
 20
-11.06118416371539
 10
-114.0128558551203
 20
-10.74309996237935
 10
-113.8551567986324
 20
-10.48077669475246
 10
-113.6419925587582
 20
-10.27421696141369
 10
-113.3733649932024
 20
-10.12342336294201
 10
-113.0492759596694
 20
-10.02839849991641
 10
-112.6697273158636
 20
-9.989144972915861
 10
-112.2347209194896
 20
-10.00566538251933
 10
-111.7442586282517
 20
-10.0779623293058
 10
-111.1983422998545
 20
-10.20603841385425
 10
-111.1983422998545
 20
-10.20603841385426
 10
-110.5807555320439
 20
-8.900768371152981
 10
-110.0078618128758
 20
-7.540959445638567
 10
-109.4798331596684
 20
-6.126852442363084
 10
-108.9968415897395
 20
-4.658688166378598
 10
-108.5590591204074
 20
-3.136707422737176
 10
-108.1666577689899
 20
-1.561151016490883
 10
-107.8198095528053
 20
0.0677402473082132
 10
-107.5186864891713
 20
1.749725563608047
 10
-107.2634605954063
 20
3.484564127356551
 10
-107.054303888828
 20
5.27201513350166
 10
-107.054303888828
 20
5.27201513350166
 10
-107.5377321385205
 20
5.939753338813575
 10
-108.0480241494072
 20
6.537203311987394
 10
-108.5821950591331
 20
7.064365053023117
 10
-109.1372600053433
 20
7.521238561920743
 10
-109.710234125683
 20
7.907823838680273
 10
-110.2981325577972
 20
8.224120883301706
 10
-110.8979704393311
 20
8.470129695785043
 10
-111.5067629079296
 20
8.645850276130284
 10
-112.121525101238
 20
8.751282624337427
 10
-112.7392721569012
 20
8.786426740406476
 10
-113.3570192125645
 20
8.751282624337427
 10
-113.9717814058729
 20
8.645850276130282
 10
-114.5805738744714
 20
8.470129695785042
 10
-115.1804117560053
 20
8.224120883301704
 10
-115.7683101881195
 20
7.907823838680271
 10
-116.3412843084592
 20
7.521238561920742
 10
-116.8963492546694
 20
7.064365053023117
 10
-117.4305201643953
 20
6.537203311987394
 10
-117.940812175282
 20
5.939753338813576
 10
-118.4242404249745
 20
5.272015133501662
 10
-118.4242404249745
 20
5.27201513350166
 10
-118.4414741600473
 20
3.74019271704441
 10
-118.502925782263
 20
2.234018693144472
 10
-118.60773899992
 20
0.7551541834507956
 10
-118.7550575213165
 20
-0.6947396903876716
 10
-118.9440250547509
 20
-2.11400180672198
 10
-119.1737853085216
 20
-3.500971043903182
 10
-119.4434819909268
 20
-4.853986280282328
 10
-119.752258810265
 20
-6.171386394210471
 10
-120.0992594748344
 20
-7.451510264038661
 10
-120.4836276929334
 20
-8.692696768117951
 10
-120.9045071728603
 20
-9.893284784799391
 10
-121.3610416229135
 20
-11.05161319243403
 10
-121.8523747513912
 20
-12.16602086937293
 10
-122.3776502665919
 20
-13.23484669396713
 10
-122.9360118768139
 20
-14.25642954456768
 10
-123.5266032903554
 20
-15.22910829952564
 10
-124.1485682155149
 20
-16.15122183719207
 10
-124.8010503605907
 20
-17.021109035918
 10
-125.4831934338811
 20
-17.83710877405449
 10
-126.1941411436843
 20
-18.5975599299526
 10
-126.9330371982989
 20
-19.30080138196337
 10
-127.6990253060231
 20
-19.94517200843786
 10
-128.4912491751553
 20
-20.52901068772712
 10
-129.3088525139937
 20
-21.0506562981822
 10
-130.1509790308368
 20
-21.50844771815414
 10
-131.0167724339829
 20
-21.90072382599401
 10
-131.9053764317302
 20
-22.22582350005286
 10
-132.8159347323771
 20
-22.48208561868172
 10
-133.747591044222
 20
-22.66784906023166
 10
-134.6994890755633
 20
-22.78145270305373
 10
-135.6707725346991
 20
-22.82123542549898
210
0.0
220
0.0
230
-1.0
  0
LWPOLYLINE
  5
256
330
1F
100
AcDbEntity
  8
Default Layer
 62
    18
420
        0
370
    30
100
AcDbPolyline
 90
      107
 70
     0
 43
0.0
 10
-119.2804879812048
 20
5.615473826610068
 10
-119.5554974895662
 20
6.085850751615324
 10
-119.8870424693752
 20
6.512816585130262
 10
-120.2754563283214
 20
6.898457127667207
 10
-120.7210724740946
 20
7.244858179738484
 10
-121.2242243143844
 20
7.554105541856418
 10
-121.7852452568806
 20
7.828285014533333
 10
-122.4044687092727
 20
8.069482398281556
 10
-123.0822280792505
 20
8.279783493613409
 10
-123.8188567745036
 20
8.461274101041221
 10
-124.6146882027219
 20
8.616040021077314
 10
-125.4700557715948
 20
8.746167054234014
 10
-126.3852928888122
 20
8.853741001023648
 10
-127.3607329620637
 20
8.940847661958539
 10
-128.396709399039
 20
9.009572837551012
 10
-129.4935556074277
 20
9.062002328313392
 10
-130.6516049949197
 20
9.100221934758003
 10
-131.8711909692044
 20
9.126317457397172
 10
-133.1526469379717
 20
9.142374696743225
 10
-134.4963063089113
 20
9.150479453308484
 10
-135.9025024897128
 20
9.152717527605277
 10
-135.9025024897128
 20
9.152717527605277
 10
-137.3133956172544
 20
9.150217393763156
 10
-138.6601298367343
 20
9.14109514220048
 10
-139.9429269308823
 20
9.122917997862781
 10
-141.1620086824286
 20
9.093253185695591
 10
-142.3175968741032
 20
9.04966793064444
 10
-143.4099132886362
 20
8.989729457654862
 10
-144.4391797087576
 20
8.911004991672385
 10
-145.4056179171975
 20
8.811061757642541
 10
-146.309449696686
 20
8.687466980510862
 10
-147.150896829953
 20
8.537787885222881
 10
-147.9301810997287
 20
8.359591696724127
 10
-148.6475242887431
 20
8.150445639960132
 10
-149.3031481797262
 20
7.907916939876429
 10
-149.8972745554082
 20
7.629572821418547
 10
-150.4301251985191
 20
7.312980509532019
 10
-150.9019218917888
 20
6.955707229162376
 10
-151.3128864179476
 20
6.555320205255149
 10
-151.6632405597253
 20
6.10938666275587
 10
-151.9532060998523
 20
5.615473826610069
 10
-151.9532060998523
 20
5.615473826610068
 10
-151.9580747586442
 20
3.891292579029551
 10
-151.9085603706112
 20
2.222368981576717
 10
-151.8067236319675
 20
0.6086688189883285
 10
-151.6546252389274
 20
-0.9498421239988514
 10
-151.4543258877051
 20
-2.453198062648059
 10
-151.2078862745151
 20
-3.901433212222533
 10
-150.9173670955714
 20
-5.294581787985508
 10
-150.5848290470885
 20
-6.632678005200223
 10
-150.2123328252807
 20
-7.915756079129915
 10
-149.8019391263621
 20
-9.143850225037819
 10
-149.3557086465472
 20
-10.31699465818717
 10
-148.8757020820502
 20
-11.43522359384121
 10
-148.3639801290854
 20
-12.49857124726318
 10
-147.8226034838671
 20
-13.5070718337163
 10
-147.2536328426095
 20
-14.46075956846383
 10
-146.659128901527
 20
-15.35966866676899
 10
-146.0411523568339
 20
-16.20383334389502
 10
-145.4017639047445
 20
-16.99328781510516
 10
-144.7430242414729
 20
-17.72806629566264
 10
-144.0669940632337
 20
-18.40820300083071
 10
-143.3757340662409
 20
-19.0337321458726
 10
-142.671304946709
 20
-19.60468794605154
 10
-141.9557674008521
 20
-20.12110461663078
 10
-141.2311821248847
 20
-20.58301637287355
 10
-140.4996098150209
 20
-20.99045743004308
 10
-139.7631111674752
 20
-21.34346200340262
 10
-139.0237468784617
 20
-21.6420643082154
 10
-138.2835776441947
 20
-21.88629855974466
 10
-137.5446641608886
 20
-22.07619897325363
 10
-136.8090671247577
 20
-22.21179976400556
 10
-136.0788472320162
 20
-22.29313514726367
 10
-135.3560651788784
 20
-22.32023933829121
 10
-135.3560651788784
 20
-22.32023933829122
 10
-134.6480609415132
 20
-22.29208497581779
 10
-133.9336764234164
 20
-22.20773458421503
 10
-133.2149010277095
 20
-22.06735720720923
 10
-132.4937241575136
 20
-21.87112188852669
 10
-131.7721352159501
 20
-21.61919767189368
 10
-131.0521236061403
 20
-21.3117536010365
 10
-130.3356787312056
 20
-20.94895871968143
 10
-129.6247899942673
 20
-20.53098207155477
 10
-128.9214467984467
 20
-20.05799270038282
 10
-128.2276385468652
 20
-19.53015964989184
 10
-127.5453546426441
 20
-18.94765196380814
 10
-126.8765844889047
 20
-18.31063868585801
 10
-126.2233174887684
 20
-17.61928885976773
 10
-125.5875430453565
 20
-16.8737715292636
 10
-124.9712505617903
 20
-16.0742557380719
 10
-124.3764294411911
 20
-15.22091052991893
 10
-123.8050690866803
 20
-14.31390494853097
 10
-123.2591589013792
 20
-13.35340803763431
 10
-122.7406882884092
 20
-12.33958884095524
 10
-122.2516466508915
 20
-11.27261640222005
 10
-121.7940233919475
 20
-10.15265976515504
 10
-121.3698079146986
 20
-8.979887973486482
 10
-120.980989622266
 20
-7.754470070940676
 10
-120.6295579177711
 20
-6.47657510124391
 10
-120.3175022043352
 20
-5.146372108122473
 10
-120.0468118850797
 20
-3.764030135302654
 10
-119.8194763631259
 20
-2.329718226510743
 10
-119.6374850415951
 20
-0.8436054254730295
 10
-119.5028273236086
 20
0.6941392240841971
 10
-119.4174926122878
 20
2.283346678434647
 10
-119.383470310754
 20
3.923847893852031
 10
-119.4027498221285
 20
5.61547382661006
210
0.0
220
0.0
230
-1.0
  0
LWPOLYLINE
  5
257
330
1F
100
AcDbEntity
  8
Default Layer
 62
    18
420
        0
370
    30
100
AcDbPolyline
 90
       29
 70
     0
 43
0.0
 10
181.0483422998545
 20
-10.20603841385426
 10
173.3368297485952
 20
-16.50743707830435
 10
173.3368297485952
 20
-16.50743707830435
 10
173.3368297485952
 20
4.004847004814767
 10
173.3368297485952
 20
4.004847004814767
 10
173.1223452760399
 20
4.698918547801006
 10
172.8885964424143
 20
5.31992992836764
 10
172.6377237322816
 20
5.86788114651467
 10
172.3718676302053
 20
6.342772202242096
 10
172.0931686207488
 20
6.744603095549917
 10
171.8037671884754
 20
7.073373826438135
 10
171.5058038179484
 20
7.329084394906749
 10
171.2014189937313
 20
7.51173480095576
 10
170.8927532003875
 20
7.621325044585166
 10
170.5819469224803
 20
7.657855125794967
 10
170.2711406445731
 20
7.621325044585165
 10
169.9624748512293
 20
7.511734800955759
 10
169.6580900270123
 20
7.329084394906749
 10
169.3601266564853
 20
7.073373826438134
 10
169.0707252242119
 20
6.744603095549916
 10
168.7920262147554
 20
6.342772202242095
 10
168.5261701126791
 20
5.867881146514669
 10
168.2752974025464
 20
5.319929928367638
 10
168.0415485689208
 20
4.698918547801004
 10
167.8270640963655
 20
4.004847004814766
 10
167.8270640963655
 20
4.004847004814766
 10
167.8270640963655
 20
-16.50743707830435
 10
167.8270640963655
 20
-16.50743707830435
 10
160.1496289695437
 20
-10.20603841385426
  0
LWPOLYLINE
  5
258
330
1F
100
AcDbEntity
  8
Default Layer
 62
    18
420
        0
370
    30
100
AcDbPolyline
 90
        4
 70
     0
 43
0.0
 10
157.8147739366069
 20
-14.14052334720098
 10
170.5819469224803
 20
-25.53613878632705
 10
170.5819469224803
 20
-25.53613878632705
 10
183.3491199083537
 20
-14.14052334720098
  0
LWPOLYLINE
  5
259
330
1F
100
AcDbEntity
  8
Default Layer
 62
    18
420
        0
370
    30
100
AcDbPolyline
 90
      198
 70
     0
 43
0.0
 10
-205.5207725346992
 20
-22.82123542549898
 10
-206.492055993835
 20
-22.78145270305373
 10
-207.4439540251762
 20
-22.66784906023166
 10
-208.3756103370211
 20
-22.48208561868171
 10
-209.2861686376681
 20
-22.22582350005285
 10
-210.1747726354154
 20
-21.90072382599401
 10
-211.0405660385614
 20
-21.50844771815414
 10
-211.8826925554045
 20
-21.05065629818219
 10
-212.7002958942429
 20
-20.52901068772712
 10
-213.4925197633751
 20
-19.94517200843786
 10
-214.2585078710993
 20
-19.30080138196337
 10
-214.9974039257139
 20
-18.5975599299526
 10
-215.7083516355172
 20
-17.83710877405449
 10
-216.3904947088076
 20
-17.021109035918
 10
-217.0429768538834
 20
-16.15122183719207
 10
-217.6649417790429
 20
-15.22910829952565
 10
-218.2555331925844
 20
-14.25642954456768
 10
-218.8138948028064
 20
-13.23484669396713
 10
-219.3391703180071
 20
-12.16602086937293
 10
-219.8305034464848
 20
-11.05161319243403
 10
-220.287037896538
 20
-9.893284784799394
 10
-220.7079173764649
 20
-8.692696768117956
 10
-221.0922855945639
 20
-7.451510264038668
 10
-221.4392862591333
 20
-6.171386394210479
 10
-221.7480630784714
 20
-4.853986280282337
 10
-222.0177597608767
 20
-3.500971043903192
 10
-222.2475200146474
 20
-2.114001806721991
 10
-222.4364875480818
 20
-0.694739690387684
 10
-222.5838060694783
 20
0.7551541834507818
 10
-222.6886192871353
 20
2.234018693144457
 10
-222.750070909351
 20
3.740192717044393
 10
-222.7673046444238
 20
5.272015133501642
 10
-222.7673046444238
 20
5.27201513350166
 10
-223.2507328941163
 20
5.939753338813575
 10
-223.7610249050029
 20
6.537203311987394
 10
-224.2951958147288
 20
7.064365053023117
 10
-224.8502607609391
 20
7.521238561920743
 10
-225.4232348812788
 20
7.907823838680272
 10
-226.011133313393
 20
8.224120883301706
 10
-226.6109711949268
 20
8.470129695785043
 10
-227.2197636635254
 20
8.645850276130284
 10
-227.8345258568337
 20
8.751282624337427
 10
-228.452272912497
 20
8.786426740406476
 10
-229.0700199681602
 20
8.751282624337427
 10
-229.6847821614687
 20
8.645850276130282
 10
-230.2935746300672
 20
8.47012969578504
 10
-230.893412511601
 20
8.224120883301702
 10
-231.4813109437152
 20
7.907823838680268
 10
-232.0542850640549
 20
7.521238561920737
 10
-232.6093500102651
 20
7.06436505302311
 10
-233.143520919991
 20
6.537203311987386
 10
-233.6538129308777
 20
5.939753338813567
 10
-234.1372411805702
 20
5.27201513350165
 10
-234.1372411805702
 20
5.27201513350166
 10
-233.928084473992
 20
3.484564127356551
 10
-233.6728585802269
 20
1.749725563608047
 10
-233.371735516593
 20
0.0677402473082134
 10
-233.0248873004083
 20
-1.561151016490883
 10
-232.6324859489909
 20
-3.136707422737175
 10
-232.1947034796587
 20
-4.658688166378598
 10
-231.7117119097299
 20
-6.126852442363084
 10
-231.1836832565224
 20
-7.540959445638566
 10
-230.6107895373544
 20
-8.900768371152981
 10
-229.9932027695438
 20
-10.20603841385426
 10
-229.9932027695438
 20
-10.20603841385426
 10
-229.4472864411466
 20
-10.07796232930581
 10
-228.9568241499087
 20
-10.00566538251933
 10
-228.5218177535347
 20
-9.989144972915863
 10
-228.1422691097289
 20
-10.02839849991641
 10
-227.8181800761958
 20
-10.12342336294201
 10
-227.54955251064
 20
-10.27421696141369
 10
-227.3363882707659
 20
-10.48077669475246
 10
-227.1786892142779
 20
-10.74309996237935
 10
-227.0764571988806
 20
-11.06118416371539
 10
-227.0296940822783
 20
-11.43502669818159
 10
-227.0384017221755
 20
-11.86462496519899
 10
-227.1025819762768
 20
-12.3499763641886
 10
-227.2222367022865
 20
-12.89107829457145
 10
-227.3973677579092
 20
-13.48792815576857
 10
-227.6279770008493
 20
-14.14052334720098
 10
-227.6279770008493
 20
-14.14052334720098
 10
-226.7898583833896
 20
-15.24467615740339
 10
-225.904797253056
 20
-16.28895021326966
 10
-224.9729910793557
 20
-17.27307788865327
 10
-223.9946373317958
 20
-18.19679155740771
 10
-222.9699334798834
 20
-19.05982359338647
 10
-221.8990769931258
 20
-19.86190637044302
 10
-220.7822653410299
 20
-20.60277226243086
 10
-219.6196959931031
 20
-21.28215364320347
 10
-218.4115664188523
 20
-21.89978288661433
 10
-217.1580740877848
 20
-22.45539236651694
 10
-215.8594164694077
 20
-22.94871445676477
 10
-214.5157910332281
 20
-23.3794815312113
 10
-213.1273952487533
 20
-23.74742596371004
 10
-211.6944265854902
 20
-24.05228012811446
 10
-210.2170825129462
 20
-24.29377639827804
 10
-208.6955605006282
 20
-24.47164714805428
 10
-207.1300580180435
 20
-24.58562475129666
 10
-205.5207725346991
 20
-24.63544158185866
 10
-205.5207725346992
 20
-24.63544158185866
 10
-203.9114870513548
 20
-24.58562475129666
 10
-202.3459845687701
 20
-24.47164714805428
 10
-200.8244625564521
 20
-24.29377639827805
 10
-199.347118483908
 20
-24.05228012811446
 10
-197.914149820645
 20
-23.74742596371004
 10
-196.5257540361701
 20
-23.3794815312113
 10
-195.1821285999906
 20
-22.94871445676477
 10
-193.8834709816135
 20
-22.45539236651694
 10
-192.629978650546
 20
-21.89978288661433
 10
-191.4218490762952
 20
-21.28215364320347
 10
-190.2592797283683
 20
-20.60277226243086
 10
-189.1424680762725
 20
-19.86190637044302
 10
-188.0716115895148
 20
-19.05982359338647
 10
-187.0469077376024
 20
-18.19679155740771
 10
-186.0685539900425
 20
-17.27307788865327
 10
-185.1367478163422
 20
-16.28895021326966
 10
-184.2516866860086
 20
-15.24467615740339
 10
-183.4135680685489
 20
-14.14052334720097
 10
-183.4135680685489
 20
-14.14052334720098
 10
-183.644177311489
 20
-13.48792815576857
 10
-183.8193083671118
 20
-12.89107829457145
 10
-183.9389630931215
 20
-12.3499763641886
 10
-184.0031433472228
 20
-11.86462496519899
 10
-184.01185098712
 20
-11.43502669818159
 10
-183.9650878705177
 20
-11.06118416371539
 10
-183.8628558551204
 20
-10.74309996237935
 10
-183.7051567986324
 20
-10.48077669475246
 10
-183.4919925587582
 20
-10.27421696141369
 10
-183.2233649932024
 20
-10.12342336294201
 10
-182.8992759596694
 20
-10.02839849991641
 10
-182.5197273158636
 20
-9.989144972915861
 10
-182.0847209194896
 20
-10.00566538251933
 10
-181.5942586282517
 20
-10.0779623293058
 10
-181.0483422998545
 20
-10.20603841385425
 10
-181.0483422998545
 20
-10.20603841385426
 10
-180.4307555320439
 20
-8.900768371152981
 10
-179.8578618128758
 20
-7.540959445638567
 10
-179.3298331596683
 20
-6.126852442363084
 10
-178.8468415897395
 20
-4.658688166378598
 10
-178.4090591204074
 20
-3.136707422737176
 10
-178.0166577689899
 20
-1.561151016490883
 10
-177.6698095528052
 20
0.0677402473082132
 10
-177.3686864891713
 20
1.749725563608047
 10
-177.1134605954062
 20
3.484564127356551
 10
-176.904303888828
 20
5.27201513350166
 10
-176.904303888828
 20
5.27201513350166
 10
-177.3877321385205
 20
5.939753338813575
 10
-177.8980241494072
 20
6.537203311987394
 10
-178.4321950591331
 20
7.064365053023117
 10
-178.9872600053433
 20
7.521238561920743
 10
-179.560234125683
 20
7.907823838680273
 10
-180.1481325577972
 20
8.224120883301706
 10
-180.747970439331
 20
8.470129695785043
 10
-181.3567629079296
 20
8.645850276130284
 10
-181.971525101238
 20
8.751282624337427
 10
-182.5892721569013
 20
8.786426740406476
 10
-183.2070192125645
 20
8.751282624337427
 10
-183.8217814058729
 20
8.645850276130282
 10
-184.4305738744714
 20
8.470129695785042
 10
-185.0304117560053
 20
8.224120883301704
 10
-185.6183101881195
 20
7.907823838680271
 10
-186.1912843084592
 20
7.521238561920742
 10
-186.7463492546694
 20
7.064365053023117
 10
-187.2805201643953
 20
6.537203311987394
 10
-187.790812175282
 20
5.939753338813576
 10
-188.2742404249745
 20
5.272015133501662
 10
-188.2742404249745
 20
5.27201513350166
 10
-188.2914741600473
 20
3.74019271704441
 10
-188.352925782263
 20
2.234018693144472
 10
-188.45773899992
 20
0.7551541834507956
 10
-188.6050575213165
 20
-0.6947396903876716
 10
-188.7940250547509
 20
-2.11400180672198
 10
-189.0237853085216
 20
-3.500971043903182
 10
-189.2934819909269
 20
-4.853986280282328
 10
-189.602258810265
 20
-6.171386394210471
 10
-189.9492594748345
 20
-7.451510264038661
 10
-190.3336276929334
 20
-8.692696768117951
 10
-190.7545071728604
 20
-9.893284784799391
 10
-191.2110416229135
 20
-11.05161319243403
 10
-191.7023747513913
 20
-12.16602086937293
 10
-192.227650266592
 20
-13.23484669396713
 10
-192.7860118768139
 20
-14.25642954456768
 10
-193.3766032903555
 20
-15.22910829952564
 10
-193.998568215515
 20
-16.15122183719207
 10
-194.6510503605907
 20
-17.021109035918
 10
-195.3331934338811
 20
-17.83710877405449
 10
-196.0441411436844
 20
-18.5975599299526
 10
-196.783037198299
 20
-19.30080138196337
 10
-197.5490253060232
 20
-19.94517200843786
 10
-198.3412491751554
 20
-20.52901068772712
 10
-199.1588525139938
 20
-21.0506562981822
 10
-200.0009790308369
 20
-21.50844771815414
 10
-200.8667724339829
 20
-21.90072382599401
 10
-201.7553764317302
 20
-22.22582350005286
 10
-202.6659347323772
 20
-22.48208561868172
 10
-203.5975910442221
 20
-22.66784906023166
 10
-204.5494890755633
 20
-22.78145270305373
 10
-205.5207725346992
 20
-22.82123542549898
210
0.0
220
0.0
230
-1.0
  0
LWPOLYLINE
  5
25A
330
1F
100
AcDbEntity
  8
Default Layer
 62
    18
420
        0
370
    30
100
AcDbPolyline
 90
      107
 70
     0
 43
0.0
 10
-189.1304879812047
 20
5.615473826610068
 10
-189.4054974895662
 20
6.085850751615324
 10
-189.7370424693752
 20
6.512816585130262
 10
-190.1254563283214
 20
6.898457127667207
 10
-190.5710724740946
 20
7.244858179738484
 10
-191.0742243143844
 20
7.554105541856418
 10
-191.6352452568805
 20
7.828285014533333
 10
-192.2544687092726
 20
8.069482398281556
 10
-192.9322280792504
 20
8.279783493613409
 10
-193.6688567745036
 20
8.461274101041221
 10
-194.4646882027218
 20
8.616040021077314
 10
-195.3200557715948
 20
8.746167054234014
 10
-196.2352928888121
 20
8.853741001023648
 10
-197.2107329620636
 20
8.940847661958539
 10
-198.2467093990389
 20
9.009572837551012
 10
-199.3435556074277
 20
9.062002328313392
 10
-200.5016049949196
 20
9.100221934758003
 10
-201.7211909692044
 20
9.126317457397172
 10
-203.0026469379718
 20
9.142374696743225
 10
-204.3463063089113
 20
9.150479453308484
 10
-205.7525024897127
 20
9.152717527605277
 10
-205.7525024897128
 20
9.152717527605277
 10
-207.1633956172544
 20
9.150217393763156
 10
-208.5101298367343
 20
9.14109514220048
 10
-209.7929269308823
 20
9.122917997862781
 10
-211.0120086824286
 20
9.093253185695591
 10
-212.1675968741032
 20
9.04966793064444
 10
-213.2599132886362
 20
8.989729457654862
 10
-214.2891797087576
 20
8.911004991672385
 10
-215.2556179171976
 20
8.811061757642541
 10
-216.159449696686
 20
8.687466980510862
 10
-217.000896829953
 20
8.537787885222881
 10
-217.7801810997287
 20
8.359591696724127
 10
-218.4975242887432
 20
8.150445639960132
 10
-219.1531481797263
 20
7.907916939876429
 10
-219.7472745554083
 20
7.629572821418547
 10
-220.2801251985191
 20
7.312980509532019
 10
-220.7519218917889
 20
6.955707229162376
 10
-221.1628864179476
 20
6.555320205255149
 10
-221.5132405597254
 20
6.10938666275587
 10
-221.8032060998523
 20
5.615473826610069
 10
-221.8032060998523
 20
5.615473826610068
 10
-221.8080747586443
 20
3.891292579029551
 10
-221.7585603706112
 20
2.222368981576717
 10
-221.6567236319675
 20
0.6086688189883285
 10
-221.5046252389274
 20
-0.9498421239988514
 10
-221.3043258877052
 20
-2.453198062648059
 10
-221.0578862745151
 20
-3.901433212222533
 10
-220.7673670955714
 20
-5.294581787985508
 10
-220.4348290470885
 20
-6.632678005200223
 10
-220.0623328252806
 20
-7.915756079129915
 10
-219.6519391263621
 20
-9.143850225037819
 10
-219.2057086465472
 20
-10.31699465818717
 10
-218.7257020820502
 20
-11.43522359384121
 10
-218.2139801290854
 20
-12.49857124726318
 10
-217.672603483867
 20
-13.5070718337163
 10
-217.1036328426095
 20
-14.46075956846383
 10
-216.509128901527
 20
-15.35966866676899
 10
-215.8911523568339
 20
-16.20383334389502
 10
-215.2517639047445
 20
-16.99328781510516
 10
-214.5930242414729
 20
-17.72806629566264
 10
-213.9169940632337
 20
-18.40820300083071
 10
-213.2257340662409
 20
-19.0337321458726
 10
-212.5213049467089
 20
-19.60468794605154
 10
-211.8057674008521
 20
-20.12110461663078
 10
-211.0811821248847
 20
-20.58301637287355
 10
-210.3496098150209
 20
-20.99045743004308
 10
-209.6131111674752
 20
-21.34346200340262
 10
-208.8737468784617
 20
-21.6420643082154
 10
-208.1335776441947
 20
-21.88629855974466
 10
-207.3946641608887
 20
-22.07619897325363
 10
-206.6590671247577
 20
-22.21179976400556
 10
-205.9288472320162
 20
-22.29313514726367
 10
-205.2060651788784
 20
-22.32023933829121
 10
-205.2060651788784
 20
-22.32023933829122
 10
-204.4980609415132
 20
-22.29208497581779
 10
-203.7836764234165
 20
-22.20773458421503
 10
-203.0649010277095
 20
-22.06735720720923
 10
-202.3437241575136
 20
-21.87112188852669
 10
-201.62213521595
 20
-21.61919767189368
 10
-200.9021236061403
 20
-21.3117536010365
 10
-200.1856787312056
 20
-20.94895871968143
 10
-199.4747899942673
 20
-20.53098207155477
 10
-198.7714467984467
 20
-20.05799270038282
 10
-198.0776385468652
 20
-19.53015964989184
 10
-197.3953546426441
 20
-18.94765196380814
 10
-196.7265844889047
 20
-18.31063868585801
 10
-196.0733174887684
 20
-17.61928885976773
 10
-195.4375430453565
 20
-16.8737715292636
 10
-194.8212505617903
 20
-16.0742557380719
 10
-194.2264294411911
 20
-15.22091052991893
 10
-193.6550690866803
 20
-14.31390494853097
 10
-193.1091589013792
 20
-13.35340803763431
 10
-192.5906882884092
 20
-12.33958884095524
 10
-192.1016466508915
 20
-11.27261640222005
 10
-191.6440233919475
 20
-10.15265976515504
 10
-191.2198079146986
 20
-8.979887973486482
 10
-190.830989622266
 20
-7.754470070940676
 10
-190.4795579177711
 20
-6.47657510124391
 10
-190.1675022043352
 20
-5.146372108122473
 10
-189.8968118850797
 20
-3.764030135302654
 10
-189.6694763631258
 20
-2.329718226510743
 10
-189.487485041595
 20
-0.8436054254730295
 10
-189.3528273236085
 20
0.6941392240841971
 10
-189.2674926122877
 20
2.283346678434647
 10
-189.2334703107539
 20
3.923847893852031
 10
-189.2527498221285
 20
5.61547382661006
210
0.0
220
0.0
230
-1.0
  0
LWPOLYLINE
  5
25B
330
1F
100
AcDbEntity
  8
Default Layer
 62
    18
420
        0
370
    30
100
AcDbPolyline
 90
       29
 70
     0
 43
0.0
 10
250.8983422998545
 20
-10.20603841385426
 10
243.1868297485952
 20
-16.50743707830435
 10
243.1868297485952
 20
-16.50743707830435
 10
243.1868297485952
 20
4.004847004814767
 10
243.1868297485952
 20
4.004847004814767
 10
242.9723452760399
 20
4.698918547801006
 10
242.7385964424143
 20
5.31992992836764
 10
242.4877237322816
 20
5.86788114651467
 10
242.2218676302053
 20
6.342772202242096
 10
241.9431686207488
 20
6.744603095549917
 10
241.6537671884753
 20
7.073373826438135
 10
241.3558038179484
 20
7.329084394906749
 10
241.0514189937314
 20
7.51173480095576
 10
240.7427532003876
 20
7.621325044585166
 10
240.4319469224803
 20
7.657855125794967
 10
240.1211406445732
 20
7.621325044585165
 10
239.8124748512294
 20
7.511734800955759
 10
239.5080900270123
 20
7.329084394906749
 10
239.2101266564854
 20
7.073373826438134
 10
238.9207252242119
 20
6.744603095549916
 10
238.6420262147554
 20
6.342772202242095
 10
238.3761701126791
 20
5.867881146514669
 10
238.1252974025464
 20
5.319929928367638
 10
237.8915485689208
 20
4.698918547801004
 10
237.6770640963655
 20
4.004847004814766
 10
237.6770640963655
 20
4.004847004814766
 10
237.6770640963655
 20
-16.50743707830435
 10
237.6770640963655
 20
-16.50743707830435
 10
229.9996289695437
 20
-10.20603841385426
  0
LWPOLYLINE
  5
25C
330
1F
100
AcDbEntity
  8
Default Layer
 62
    18
420
        0
370
    30
100
AcDbPolyline
 90
      198
 70
     0
 43
0.0
 10
-275.3707725346991
 20
-22.82123542549898
 10
-276.342055993835
 20
-22.78145270305373
 10
-277.2939540251762
 20
-22.66784906023166
 10
-278.2256103370211
 20
-22.48208561868171
 10
-279.1361686376681
 20
-22.22582350005285
 10
-280.0247726354154
 20
-21.90072382599401
 10
-280.8905660385614
 20
-21.50844771815414
 10
-281.7326925554045
 20
-21.05065629818219
 10
-282.5502958942429
 20
-20.52901068772712
 10
-283.3425197633751
 20
-19.94517200843786
 10
-284.1085078710993
 20
-19.30080138196337
 10
-284.8474039257139
 20
-18.5975599299526
 10
-285.5583516355172
 20
-17.83710877405449
 10
-286.2404947088076
 20
-17.021109035918
 10
-286.8929768538833
 20
-16.15122183719207
 10
-287.5149417790428
 20
-15.22910829952565
 10
-288.1055331925844
 20
-14.25642954456768
 10
-288.6638948028063
 20
-13.23484669396713
 10
-289.189170318007
 20
-12.16602086937293
 10
-289.6805034464847
 20
-11.05161319243403
 10
-290.1370378965379
 20
-9.893284784799394
 10
-290.5579173764648
 20
-8.692696768117956
 10
-290.9422855945638
 20
-7.451510264038668
 10
-291.2892862591332
 20
-6.171386394210479
 10
-291.5980630784714
 20
-4.853986280282337
 10
-291.8677597608766
 20
-3.500971043903192
 10
-292.0975200146473
 20
-2.114001806721991
 10
-292.2864875480817
 20
-0.694739690387684
 10
-292.4338060694783
 20
0.7551541834507818
 10
-292.5386192871352
 20
2.234018693144457
 10
-292.6000709093509
 20
3.740192717044393
 10
-292.6173046444237
 20
5.272015133501642
 10
-292.6173046444238
 20
5.27201513350166
 10
-293.1007328941163
 20
5.939753338813575
 10
-293.6110249050029
 20
6.537203311987394
 10
-294.1451958147288
 20
7.064365053023117
 10
-294.7002607609391
 20
7.521238561920743
 10
-295.2732348812787
 20
7.907823838680272
 10
-295.861133313393
 20
8.224120883301706
 10
-296.4609711949268
 20
8.470129695785043
 10
-297.0697636635254
 20
8.645850276130284
 10
-297.6845258568337
 20
8.751282624337427
 10
-298.302272912497
 20
8.786426740406476
 10
-298.9200199681602
 20
8.751282624337427
 10
-299.5347821614686
 20
8.645850276130282
 10
-300.1435746300671
 20
8.47012969578504
 10
-300.743412511601
 20
8.224120883301702
 10
-301.3313109437152
 20
7.907823838680268
 10
-301.9042850640549
 20
7.521238561920737
 10
-302.4593500102652
 20
7.06436505302311
 10
-302.9935209199911
 20
6.537203311987386
 10
-303.5038129308777
 20
5.939753338813567
 10
-303.9872411805702
 20
5.27201513350165
 10
-303.9872411805702
 20
5.27201513350166
 10
-303.778084473992
 20
3.484564127356551
 10
-303.5228585802269
 20
1.749725563608047
 10
-303.221735516593
 20
0.0677402473082134
 10
-302.8748873004083
 20
-1.561151016490883
 10
-302.4824859489909
 20
-3.136707422737175
 10
-302.0447034796587
 20
-4.658688166378598
 10
-301.5617119097299
 20
-6.126852442363084
 10
-301.0336832565225
 20
-7.540959445638566
 10
-300.4607895373544
 20
-8.900768371152981
 10
-299.8432027695438
 20
-10.20603841385426
 10
-299.8432027695438
 20
-10.20603841385426
 10
-299.2972864411466
 20
-10.07796232930581
 10
-298.8068241499087
 20
-10.00566538251933
 10
-298.3718177535347
 20
-9.989144972915863
 10
-297.9922691097289
 20
-10.02839849991641
 10
-297.6681800761959
 20
-10.12342336294201
 10
-297.3995525106401
 20
-10.27421696141369
 10
-297.1863882707659
 20
-10.48077669475246
 10
-297.0286892142779
 20
-10.74309996237935
 10
-296.9264571988805
 20
-11.06118416371539
 10
-296.8796940822782
 20
-11.43502669818159
 10
-296.8884017221755
 20
-11.86462496519899
 10
-296.9525819762767
 20
-12.3499763641886
 10
-297.0722367022865
 20
-12.89107829457145
 10
-297.2473677579092
 20
-13.48792815576857
 10
-297.4779770008492
 20
-14.14052334720098
 10
-297.4779770008493
 20
-14.14052334720098
 10
-296.6398583833896
 20
-15.24467615740339
 10
-295.754797253056
 20
-16.28895021326966
 10
-294.8229910793557
 20
-17.27307788865327
 10
-293.8446373317958
 20
-18.19679155740771
 10
-292.8199334798834
 20
-19.05982359338647
 10
-291.7490769931257
 20
-19.86190637044302
 10
-290.6322653410299
 20
-20.60277226243086
 10
-289.469695993103
 20
-21.28215364320347
 10
-288.2615664188522
 20
-21.89978288661433
 10
-287.0080740877847
 20
-22.45539236651694
 10
-285.7094164694077
 20
-22.94871445676477
 10
-284.3657910332281
 20
-23.3794815312113
 10
-282.9773952487532
 20
-23.74742596371004
 10
-281.5444265854901
 20
-24.05228012811446
 10
-280.067082512946
 20
-24.29377639827804
 10
-278.5455605006281
 20
-24.47164714805428
 10
-276.9800580180434
 20
-24.58562475129666
 10
-275.3707725346991
 20
-24.63544158185866
 10
-275.3707725346991
 20
-24.63544158185866
 10
-273.7614870513549
 20
-24.58562475129666
 10
-272.1959845687702
 20
-24.47164714805428
 10
-270.6744625564521
 20
-24.29377639827805
 10
-269.1971184839081
 20
-24.05228012811446
 10
-267.764149820645
 20
-23.74742596371004
 10
-266.3757540361701
 20
-23.3794815312113
 10
-265.0321285999906
 20
-22.94871445676477
 10
-263.7334709816135
 20
-22.45539236651694
 10
-262.479978650546
 20
-21.89978288661433
 10
-261.2718490762953
 20
-21.28215364320347
 10
-260.1092797283684
 20
-20.60277226243086
 10
-258.9924680762725
 20
-19.86190637044302
 10
-257.9216115895148
 20
-19.05982359338647
 10
-256.8969077376025
 20
-18.19679155740771
 10
-255.9185539900425
 20
-17.27307788865327
 10
-254.9867478163422
 20
-16.28895021326966
 10
-254.1016866860087
 20
-15.24467615740339
 10
-253.263568068549
 20
-14.14052334720097
 10
-253.263568068549
 20
-14.14052334720098
 10
-253.4941773114891
 20
-13.48792815576857
 10
-253.6693083671117
 20
-12.89107829457145
 10
-253.7889630931215
 20
-12.3499763641886
 10
-253.8531433472228
 20
-11.86462496519899
 10
-253.86185098712
 20
-11.43502669818159
 10
-253.8150878705177
 20
-11.06118416371539
 10
-253.7128558551204
 20
-10.74309996237935
 10
-253.5551567986324
 20
-10.48077669475246
 10
-253.3419925587583
 20
-10.27421696141369
 10
-253.0733649932025
 20
-10.12342336294201
 10
-252.7492759596694
 20
-10.02839849991641
 10
-252.3697273158636
 20
-9.989144972915861
 10
-251.9347209194896
 20
-10.00566538251933
 10
-251.4442586282517
 20
-10.0779623293058
 10
-250.8983422998546
 20
-10.20603841385425
 10
-250.8983422998545
 20
-10.20603841385426
 10
-250.2807555320439
 20
-8.900768371152981
 10
-249.7078618128758
 20
-7.540959445638567
 10
-249.1798331596684
 20
-6.126852442363084
 10
-248.6968415897395
 20
-4.658688166378598
 10
-248.2590591204074
 20
-3.136707422737176
 10
-247.8666577689899
 20
-1.561151016490883
 10
-247.5198095528052
 20
0.0677402473082132
 10
-247.2186864891713
 20
1.749725563608047
 10
-246.9634605954063
 20
3.484564127356551
 10
-246.754303888828
 20
5.27201513350166
 10
-246.754303888828
 20
5.27201513350166
 10
-247.2377321385205
 20
5.939753338813575
 10
-247.7480241494072
 20
6.537203311987394
 10
-248.2821950591331
 20
7.064365053023117
 10
-248.8372600053434
 20
7.521238561920743
 10
-249.4102341256831
 20
7.907823838680273
 10
-249.9981325577973
 20
8.224120883301706
 10
-250.5979704393311
 20
8.470129695785043
 10
-251.2067629079296
 20
8.645850276130284
 10
-251.821525101238
 20
8.751282624337427
 10
-252.4392721569013
 20
8.786426740406476
 10
-253.0570192125646
 20
8.751282624337427
 10
-253.6717814058729
 20
8.645850276130282
 10
-254.2805738744715
 20
8.470129695785042
 10
-254.8804117560053
 20
8.224120883301704
 10
-255.4683101881195
 20
7.907823838680271
 10
-256.0412843084592
 20
7.521238561920742
 10
-256.5963492546694
 20
7.064365053023117
 10
-257.1305201643954
 20
6.537203311987394
 10
-257.640812175282
 20
5.939753338813576
 10
-258.1242404249745
 20
5.272015133501662
 10
-258.1242404249745
 20
5.27201513350166
 10
-258.1414741600473
 20
3.74019271704441
 10
-258.202925782263
 20
2.234018693144472
 10
-258.30773899992
 20
0.7551541834507956
 10
-258.4550575213165
 20
-0.6947396903876716
 10
-258.6440250547509
 20
-2.11400180672198
 10
-258.8737853085216
 20
-3.500971043903182
 10
-259.1434819909269
 20
-4.853986280282328
 10
-259.4522588102651
 20
-6.171386394210471
 10
-259.7992594748344
 20
-7.451510264038661
 10
-260.1836276929335
 20
-8.692696768117951
 10
-260.6045071728603
 20
-9.893284784799391
 10
-261.0610416229135
 20
-11.05161319243403
 10
-261.5523747513913
 20
-12.16602086937293
 10
-262.077650266592
 20
-13.23484669396713
 10
-262.6360118768139
 20
-14.25642954456768
 10
-263.2266032903555
 20
-15.22910829952564
 10
-263.848568215515
 20
-16.15122183719207
 10
-264.5010503605907
 20
-17.021109035918
 10
-265.1831934338811
 20
-17.83710877405449
 10
-265.8941411436844
 20
-18.5975599299526
 10
-266.633037198299
 20
-19.30080138196337
 10
-267.3990253060232
 20
-19.94517200843786
 10
-268.1912491751553
 20
-20.52901068772712
 10
-269.0088525139938
 20
-21.0506562981822
 10
-269.8509790308369
 20
-21.50844771815414
 10
-270.7167724339829
 20
-21.90072382599401
 10
-271.6053764317302
 20
-22.22582350005286
 10
-272.5159347323772
 20
-22.48208561868172
 10
-273.4475910442221
 20
-22.66784906023166
 10
-274.3994890755633
 20
-22.78145270305373
 10
-275.3707725346992
 20
-22.82123542549898
210
0.0
220
0.0
230
-1.0
  0
LWPOLYLINE
  5
25D
330
1F
100
AcDbEntity
  8
Default Layer
 62
    18
420
        0
370
    30
100
AcDbPolyline
 90
      107
 70
     0
 43
0.0
 10
-258.9804879812048
 20
5.615473826610068
 10
-259.2554974895662
 20
6.085850751615324
 10
-259.5870424693752
 20
6.512816585130262
 10
-259.9754563283215
 20
6.898457127667207
 10
-260.4210724740947
 20
7.244858179738484
 10
-260.9242243143845
 20
7.554105541856418
 10
-261.4852452568806
 20
7.828285014533333
 10
-262.1044687092727
 20
8.069482398281556
 10
-262.7822280792506
 20
8.279783493613409
 10
-263.5188567745037
 20
8.461274101041221
 10
-264.3146882027219
 20
8.616040021077314
 10
-265.1700557715949
 20
8.746167054234014
 10
-266.0852928888123
 20
8.853741001023648
 10
-267.0607329620637
 20
8.940847661958539
 10
-268.096709399039
 20
9.009572837551012
 10
-269.1935556074278
 20
9.062002328313392
 10
-270.3516049949197
 20
9.100221934758003
 10
-271.5711909692045
 20
9.126317457397172
 10
-272.8526469379718
 20
9.142374696743225
 10
-274.1963063089114
 20
9.150479453308484
 10
-275.6025024897128
 20
9.152717527605277
 10
-275.6025024897128
 20
9.152717527605277
 10
-277.0133956172545
 20
9.150217393763156
 10
-278.3601298367342
 20
9.14109514220048
 10
-279.6429269308823
 20
9.122917997862781
 10
-280.8620086824285
 20
9.093253185695591
 10
-282.0175968741032
 20
9.04966793064444
 10
-283.1099132886361
 20
8.989729457654862
 10
-284.1391797087576
 20
8.911004991672385
 10
-285.1056179171975
 20
8.811061757642541
 10
-286.0094496966859
 20
8.687466980510862
 10
-286.8508968299529
 20
8.537787885222881
 10
-287.6301810997286
 20
8.359591696724127
 10
-288.347524288743
 20
8.150445639960132
 10
-289.0031481797262
 20
7.907916939876429
 10
-289.5972745554082
 20
7.629572821418547
 10
-290.1301251985191
 20
7.312980509532019
 10
-290.6019218917888
 20
6.955707229162376
 10
-291.0128864179476
 20
6.555320205255149
 10
-291.3632405597254
 20
6.10938666275587
 10
-291.6532060998523
 20
5.615473826610069
 10
-291.6532060998522
 20
5.615473826610068
 10
-291.6580747586443
 20
3.891292579029551
 10
-291.6085603706113
 20
2.222368981576717
 10
-291.5067236319675
 20
0.6086688189883285
 10
-291.3546252389274
 20
-0.9498421239988514
 10
-291.1543258877051
 20
-2.453198062648059
 10
-290.907886274515
 20
-3.901433212222533
 10
-290.6173670955714
 20
-5.294581787985508
 10
-290.2848290470885
 20
-6.632678005200223
 10
-289.9123328252807
 20
-7.915756079129915
 10
-289.5019391263621
 20
-9.143850225037819
 10
-289.0557086465472
 20
-10.31699465818717
 10
-288.5757020820502
 20
-11.43522359384121
 10
-288.0639801290854
 20
-12.49857124726318
 10
-287.5226034838671
 20
-13.5070718337163
 10
-286.9536328426095
 20
-14.46075956846383
 10
-286.3591289015271
 20
-15.35966866676899
 10
-285.7411523568339
 20
-16.20383334389502
 10
-285.1017639047445
 20
-16.99328781510516
 10
-284.4430242414729
 20
-17.72806629566264
 10
-283.7669940632336
 20
-18.40820300083071
 10
-283.0757340662409
 20
-19.0337321458726
 10
-282.371304946709
 20
-19.60468794605154
 10
-281.6557674008521
 20
-20.12110461663078
 10
-280.9311821248847
 20
-20.58301637287355
 10
-280.199609815021
 20
-20.99045743004308
 10
-279.4631111674752
 20
-21.34346200340262
 10
-278.7237468784617
 20
-21.6420643082154
 10
-277.9835776441947
 20
-21.88629855974466
 10
-277.2446641608886
 20
-22.07619897325363
 10
-276.5090671247577
 20
-22.21179976400556
 10
-275.7788472320162
 20
-22.29313514726367
 10
-275.0560651788784
 20
-22.32023933829121
 10
-275.0560651788784
 20
-22.32023933829122
 10
-274.3480609415132
 20
-22.29208497581779
 10
-273.6336764234165
 20
-22.20773458421503
 10
-272.9149010277095
 20
-22.06735720720923
 10
-272.1937241575136
 20
-21.87112188852669
 10
-271.4721352159501
 20
-21.61919767189368
 10
-270.7521236061404
 20
-21.3117536010365
 10
-270.0356787312057
 20
-20.94895871968143
 10
-269.3247899942674
 20
-20.53098207155477
 10
-268.6214467984469
 20
-20.05799270038282
 10
-267.9276385468654
 20
-19.53015964989184
 10
-267.2453546426443
 20
-18.94765196380814
 10
-266.5765844889049
 20
-18.31063868585801
 10
-265.9233174887685
 20
-17.61928885976773
 10
-265.2875430453566
 20
-16.8737715292636
 10
-264.6712505617904
 20
-16.0742557380719
 10
-264.0764294411912
 20
-15.22091052991893
 10
-263.5050690866804
 20
-14.31390494853097
 10
-262.9591589013793
 20
-13.35340803763431
 10
-262.4406882884093
 20
-12.33958884095524
 10
-261.9516466508916
 20
-11.27261640222005
 10
-261.4940233919477
 20
-10.15265976515504
 10
-261.0698079146987
 20
-8.979887973486482
 10
-260.6809896222662
 20
-7.754470070940676
 10
-260.3295579177713
 20
-6.47657510124391
 10
-260.0175022043354
 20
-5.146372108122473
 10
-259.7468118850799
 20
-3.764030135302654
 10
-259.5194763631261
 20
-2.329718226510743
 10
-259.3374850415953
 20
-0.8436054254730295
 10
-259.2028273236088
 20
0.6941392240841971
 10
-259.117492612288
 20
2.283346678434647
 10
-259.0834703107542
 20
3.923847893852031
 10
-259.1027498221287
 20
5.61547382661006
210
0.0
220
0.0
230
-1.0
  0
LWPOLYLINE
  5
25E
330
1F
100
AcDbEntity
  8
Default Layer
 62
    18
420
        0
370
    30
100
AcDbPolyline
 90
       29
 70
     0
 43
0.0
 10
320.7483422998545
 20
-10.20603841385426
 10
313.0368297485952
 20
-16.50743707830435
 10
313.0368297485952
 20
-16.50743707830435
 10
313.0368297485952
 20
4.004847004814767
 10
313.0368297485952
 20
4.004847004814767
 10
312.8223452760399
 20
4.698918547801006
 10
312.5885964424142
 20
5.31992992836764
 10
312.3377237322815
 20
5.86788114651467
 10
312.0718676302053
 20
6.342772202242096
 10
311.7931686207487
 20
6.744603095549917
 10
311.5037671884753
 20
7.073373826438135
 10
311.2058038179483
 20
7.329084394906749
 10
310.9014189937313
 20
7.51173480095576
 10
310.5927532003875
 20
7.621325044585166
 10
310.2819469224802
 20
7.657855125794967
 10
309.971140644573
 20
7.621325044585165
 10
309.6624748512292
 20
7.511734800955759
 10
309.3580900270121
 20
7.329084394906749
 10
309.0601266564852
 20
7.073373826438134
 10
308.7707252242117
 20
6.744603095549916
 10
308.4920262147552
 20
6.342772202242095
 10
308.2261701126789
 20
5.867881146514669
 10
307.9752974025462
 20
5.319929928367638
 10
307.7415485689205
 20
4.698918547801004
 10
307.5270640963653
 20
4.004847004814766
 10
307.5270640963655
 20
4.004847004814766
 10
307.5270640963655
 20
-16.50743707830435
 10
307.5270640963655
 20
-16.50743707830435
 10
299.8496289695438
 20
-10.20603841385426
  0
LWPOLYLINE
  5
25F
330
1F
100
AcDbEntity
  8
Default Layer
 62
    18
420
        0
370
    30
100
AcDbPolyline
 90
        4
 70
     0
 43
0.0
 10
297.514773936607
 20
-14.14052334720098
 10
310.2819469224804
 20
-25.53613878632705
 10
310.2819469224804
 20
-25.53613878632705
 10
323.0491199083537
 20
-14.14052334720098
  0
LWPOLYLINE
  5
260
330
1F
100
AcDbEntity
  8
Default Layer
 62
    18
420
        0
370
    30
100
AcDbPolyline
 90
      198
 70
     0
 43
0.0
 10
-345.2207725346991
 20
-22.82123542549898
 10
-346.192055993835
 20
-22.78145270305373
 10
-347.1439540251762
 20
-22.66784906023166
 10
-348.0756103370211
 20
-22.48208561868171
 10
-348.986168637668
 20
-22.22582350005285
 10
-349.8747726354153
 20
-21.90072382599401
 10
-350.7405660385614
 20
-21.50844771815414
 10
-351.5826925554045
 20
-21.05065629818219
 10
-352.4002958942429
 20
-20.52901068772712
 10
-353.192519763375
 20
-19.94517200843786
 10
-353.9585078710993
 20
-19.30080138196337
 10
-354.6974039257138
 20
-18.5975599299526
 10
-355.4083516355171
 20
-17.83710877405449
 10
-356.0904947088075
 20
-17.021109035918
 10
-356.7429768538833
 20
-16.15122183719207
 10
-357.3649417790428
 20
-15.22910829952565
 10
-357.9555331925843
 20
-14.25642954456768
 10
-358.5138948028062
 20
-13.23484669396713
 10
-359.039170318007
 20
-12.16602086937293
 10
-359.5305034464847
 20
-11.05161319243403
 10
-359.9870378965379
 20
-9.893284784799394
 10
-360.4079173764648
 20
-8.692696768117956
 10
-360.7922855945637
 20
-7.451510264038668
 10
-361.1392862591332
 20
-6.171386394210479
 10
-361.4480630784713
 20
-4.853986280282337
 10
-361.7177597608766
 20
-3.500971043903192
 10
-361.9475200146472
 20
-2.114001806721991
 10
-362.1364875480817
 20
-0.694739690387684
 10
-362.2838060694782
 20
0.7551541834507818
 10
-362.3886192871351
 20
2.234018693144457
 10
-362.4500709093509
 20
3.740192717044393
 10
-362.4673046444237
 20
5.272015133501642
 10
-362.4673046444237
 20
5.27201513350166
 10
-362.9507328941163
 20
5.939753338813575
 10
-363.4610249050029
 20
6.537203311987394
 10
-363.9951958147288
 20
7.064365053023117
 10
-364.550260760939
 20
7.521238561920743
 10
-365.1232348812787
 20
7.907823838680272
 10
-365.7111333133929
 20
8.224120883301706
 10
-366.3109711949268
 20
8.470129695785043
 10
-366.9197636635253
 20
8.645850276130284
 10
-367.5345258568337
 20
8.751282624337427
 10
-368.1522729124969
 20
8.786426740406476
 10
-368.7700199681602
 20
8.751282624337427
 10
-369.3847821614685
 20
8.645850276130282
 10
-369.9935746300671
 20
8.47012969578504
 10
-370.593412511601
 20
8.224120883301702
 10
-371.1813109437152
 20
7.907823838680268
 10
-371.7542850640549
 20
7.521238561920737
 10
-372.3093500102651
 20
7.06436505302311
 10
-372.843520919991
 20
6.537203311987386
 10
-373.3538129308777
 20
5.939753338813567
 10
-373.8372411805702
 20
5.27201513350165
 10
-373.8372411805702
 20
5.27201513350166
 10
-373.628084473992
 20
3.484564127356551
 10
-373.3728585802269
 20
1.749725563608047
 10
-373.071735516593
 20
0.0677402473082134
 10
-372.7248873004084
 20
-1.561151016490883
 10
-372.3324859489909
 20
-3.136707422737175
 10
-371.8947034796587
 20
-4.658688166378598
 10
-371.4117119097299
 20
-6.126852442363084
 10
-370.8836832565225
 20
-7.540959445638566
 10
-370.3107895373544
 20
-8.900768371152981
 10
-369.6932027695437
 20
-10.20603841385426
 10
-369.6932027695437
 20
-10.20603841385426
 10
-369.1472864411466
 20
-10.07796232930581
 10
-368.6568241499087
 20
-10.00566538251933
 10
-368.2218177535347
 20
-9.989144972915863
 10
-367.8422691097289
 20
-10.02839849991641
 10
-367.5181800761958
 20
-10.12342336294201
 10
-367.2495525106401
 20
-10.27421696141369
 10
-367.0363882707659
 20
-10.48077669475246
 10
-366.878689214278
 20
-10.74309996237935
 10
-366.7764571988806
 20
-11.06118416371539
 10
-366.7296940822784
 20
-11.43502669818159
 10
-366.7384017221756
 20
-11.86462496519899
 10
-366.8025819762768
 20
-12.3499763641886
 10
-366.9222367022866
 20
-12.89107829457145
 10
-367.0973677579092
 20
-13.48792815576857
 10
-367.3279770008493
 20
-14.14052334720098
 10
-367.3279770008493
 20
-14.14052334720098
 10
-366.4898583833896
 20
-15.24467615740339
 10
-365.604797253056
 20
-16.28895021326966
 10
-364.6729910793557
 20
-17.27307788865327
 10
-363.6946373317958
 20
-18.19679155740771
 10
-362.6699334798834
 20
-19.05982359338647
 10
-361.5990769931257
 20
-19.86190637044302
 10
-360.4822653410299
 20
-20.60277226243086
 10
-359.319695993103
 20
-21.28215364320347
 10
-358.1115664188522
 20
-21.89978288661433
 10
-356.8580740877848
 20
-22.45539236651694
 10
-355.5594164694077
 20
-22.94871445676477
 10
-354.2157910332282
 20
-23.3794815312113
 10
-352.8273952487532
 20
-23.74742596371004
 10
-351.3944265854902
 20
-24.05228012811446
 10
-349.9170825129461
 20
-24.29377639827804
 10
-348.3955605006281
 20
-24.47164714805428
 10
-346.8300580180434
 20
-24.58562475129666
 10
-345.220772534699
 20
-24.63544158185866
 10
-345.2207725346991
 20
-24.63544158185866
 10
-343.6114870513548
 20
-24.58562475129666
 10
-342.0459845687701
 20
-24.47164714805428
 10
-340.5244625564521
 20
-24.29377639827805
 10
-339.047118483908
 20
-24.05228012811446
 10
-337.614149820645
 20
-23.74742596371004
 10
-336.2257540361701
 20
-23.3794815312113
 10
-334.8821285999906
 20
-22.94871445676477
 10
-333.5834709816134
 20
-22.45539236651694
 10
-332.329978650546
 20
-21.89978288661433
 10
-331.1218490762952
 20
-21.28215364320347
 10
-329.9592797283684
 20
-20.60277226243086
 10
-328.8424680762725
 20
-19.86190637044302
 10
-327.7716115895148
 20
-19.05982359338647
 10
-326.7469077376024
 20
-18.19679155740771
 10
-325.7685539900425
 20
-17.27307788865327
 10
-324.8367478163422
 20
-16.28895021326966
 10
-323.9516866860086
 20
-15.24467615740339
 10
-323.1135680685489
 20
-14.14052334720097
 10
-323.1135680685489
 20
-14.14052334720098
 10
-323.344177311489
 20
-13.48792815576857
 10
-323.5193083671117
 20
-12.89107829457145
 10
-323.6389630931214
 20
-12.3499763641886
 10
-323.7031433472227
 20
-11.86462496519899
 10
-323.7118509871199
 20
-11.43502669818159
 10
-323.6650878705177
 20
-11.06118416371539
 10
-323.5628558551203
 20
-10.74309996237935
 10
-323.4051567986323
 20
-10.48077669475246
 10
-323.1919925587582
 20
-10.27421696141369
 10
-322.9233649932024
 20
-10.12342336294201
 10
-322.5992759596694
 20
-10.02839849991641
 10
-322.2197273158636
 20
-9.989144972915861
 10
-321.7847209194896
 20
-10.00566538251933
 10
-321.2942586282517
 20
-10.0779623293058
 10
-320.7483422998545
 20
-10.20603841385425
 10
-320.7483422998545
 20
-10.20603841385426
 10
-320.1307555320439
 20
-8.900768371152981
 10
-319.5578618128759
 20
-7.540959445638567
 10
-319.0298331596684
 20
-6.126852442363084
 10
-318.5468415897395
 20
-4.658688166378598
 10
-318.1090591204074
 20
-3.136707422737176
 10
-317.7166577689899
 20
-1.561151016490883
 10
-317.3698095528052
 20
0.0677402473082132
 10
-317.0686864891713
 20
1.749725563608047
 10
-316.8134605954062
 20
3.484564127356551
 10
-316.6043038888279
 20
5.27201513350166
 10
-316.604303888828
 20
5.27201513350166
 10
-317.0877321385205
 20
5.939753338813575
 10
-317.5980241494071
 20
6.537203311987394
 10
-318.1321950591331
 20
7.064365053023117
 10
-318.6872600053433
 20
7.521238561920743
 10
-319.260234125683
 20
7.907823838680273
 10
-319.8481325577972
 20
8.224120883301706
 10
-320.4479704393311
 20
8.470129695785043
 10
-321.0567629079296
 20
8.645850276130284
 10
-321.671525101238
 20
8.751282624337427
 10
-322.2892721569012
 20
8.786426740406476
 10
-322.9070192125645
 20
8.751282624337427
 10
-323.5217814058728
 20
8.645850276130282
 10
-324.1305738744714
 20
8.470129695785042
 10
-324.7304117560052
 20
8.224120883301704
 10
-325.3183101881195
 20
7.907823838680271
 10
-325.8912843084591
 20
7.521238561920742
 10
-326.4463492546694
 20
7.064365053023117
 10
-326.9805201643953
 20
6.537203311987394
 10
-327.490812175282
 20
5.939753338813576
 10
-327.9742404249745
 20
5.272015133501662
 10
-327.9742404249745
 20
5.27201513350166
 10
-327.9914741600474
 20
3.74019271704441
 10
-328.0529257822631
 20
2.234018693144472
 10
-328.15773899992
 20
0.7551541834507956
 10
-328.3050575213165
 20
-0.6947396903876716
 10
-328.494025054751
 20
-2.11400180672198
 10
-328.7237853085216
 20
-3.500971043903182
 10
-328.9934819909269
 20
-4.853986280282328
 10
-329.3022588102651
 20
-6.171386394210471
 10
-329.6492594748345
 20
-7.451510264038661
 10
-330.0336276929335
 20
-8.692696768117951
 10
-330.4545071728604
 20
-9.893284784799391
 10
-330.9110416229135
 20
-11.05161319243403
 10
-331.4023747513913
 20
-12.16602086937293
 10
-331.927650266592
 20
-13.23484669396713
 10
-332.4860118768139
 20
-14.25642954456768
 10
-333.0766032903555
 20
-15.22910829952564
 10
-333.698568215515
 20
-16.15122183719207
 10
-334.3510503605907
 20
-17.021109035918
 10
-335.0331934338811
 20
-17.83710877405449
 10
-335.7441411436844
 20
-18.5975599299526
 10
-336.483037198299
 20
-19.30080138196337
 10
-337.2490253060231
 20
-19.94517200843786
 10
-338.0412491751553
 20
-20.52901068772712
 10
-338.8588525139938
 20
-21.0506562981822
 10
-339.7009790308368
 20
-21.50844771815414
 10
-340.5667724339829
 20
-21.90072382599401
 10
-341.4553764317302
 20
-22.22582350005286
 10
-342.3659347323771
 20
-22.48208561868172
 10
-343.297591044222
 20
-22.66784906023166
 10
-344.2494890755633
 20
-22.78145270305373
 10
-345.2207725346991
 20
-22.82123542549898
210
0.0
220
0.0
230
-1.0
  0
LWPOLYLINE
  5
261
330
1F
100
AcDbEntity
  8
Default Layer
 62
    18
420
        0
370
    30
100
AcDbPolyline
 90
      107
 70
     0
 43
0.0
 10
-328.8304879812048
 20
5.615473826610068
 10
-329.1054974895662
 20
6.085850751615324
 10
-329.4370424693752
 20
6.512816585130262
 10
-329.8254563283215
 20
6.898457127667207
 10
-330.2710724740947
 20
7.244858179738484
 10
-330.7742243143845
 20
7.554105541856418
 10
-331.3352452568806
 20
7.828285014533333
 10
-331.9544687092728
 20
8.069482398281556
 10
-332.6322280792506
 20
8.279783493613409
 10
-333.3688567745038
 20
8.461274101041221
 10
-334.164688202722
 20
8.616040021077314
 10
-335.0200557715949
 20
8.746167054234014
 10
-335.9352928888123
 20
8.853741001023648
 10
-336.9107329620638
 20
8.940847661958539
 10
-337.9467093990391
 20
9.009572837551012
 10
-339.0435556074278
 20
9.062002328313392
 10
-340.2016049949197
 20
9.100221934758003
 10
-341.4211909692045
 20
9.126317457397172
 10
-342.7026469379718
 20
9.142374696743225
 10
-344.0463063089114
 20
9.150479453308484
 10
-345.4525024897129
 20
9.152717527605277
 10
-345.4525024897128
 20
9.152717527605277
 10
-346.8633956172545
 20
9.150217393763156
 10
-348.2101298367343
 20
9.14109514220048
 10
-349.4929269308823
 20
9.122917997862781
 10
-350.7120086824286
 20
9.093253185695591
 10
-351.8675968741032
 20
9.04966793064444
 10
-352.9599132886362
 20
8.989729457654862
 10
-353.9891797087576
 20
8.911004991672385
 10
-354.9556179171975
 20
8.811061757642541
 10
-355.8594496966859
 20
8.687466980510862
 10
-356.700896829953
 20
8.537787885222881
 10
-357.4801810997286
 20
8.359591696724127
 10
-358.1975242887431
 20
8.150445639960132
 10
-358.8531481797263
 20
7.907916939876429
 10
-359.4472745554082
 20
7.629572821418547
 10
-359.9801251985191
 20
7.312980509532019
 10
-360.4519218917888
 20
6.955707229162376
 10
-360.8628864179476
 20
6.555320205255149
 10
-361.2132405597254
 20
6.10938666275587
 10
-361.5032060998523
 20
5.615473826610069
 10
-361.5032060998522
 20
5.615473826610068
 10
-361.5080747586442
 20
3.891292579029551
 10
-361.4585603706112
 20
2.222368981576717
 10
-361.3567236319675
 20
0.6086688189883285
 10
-361.2046252389273
 20
-0.9498421239988514
 10
-361.0043258877051
 20
-2.453198062648059
 10
-360.757886274515
 20
-3.901433212222533
 10
-360.4673670955714
 20
-5.294581787985508
 10
-360.1348290470885
 20
-6.632678005200223
 10
-359.7623328252806
 20
-7.915756079129915
 10
-359.3519391263621
 20
-9.143850225037819
 10
-358.9057086465472
 20
-10.31699465818717
 10
-358.4257020820502
 20
-11.43522359384121
 10
-357.9139801290854
 20
-12.49857124726318
 10
-357.372603483867
 20
-13.5070718337163
 10
-356.8036328426095
 20
-14.46075956846383
 10
-356.209128901527
 20
-15.35966866676899
 10
-355.5911523568339
 20
-16.20383334389502
 10
-354.9517639047444
 20
-16.99328781510516
 10
-354.293024241473
 20
-17.72806629566264
 10
-353.6169940632337
 20
-18.40820300083071
 10
-352.9257340662409
 20
-19.0337321458726
 10
-352.221304946709
 20
-19.60468794605154
 10
-351.5057674008521
 20
-20.12110461663078
 10
-350.7811821248847
 20
-20.58301637287355
 10
-350.049609815021
 20
-20.99045743004308
 10
-349.3131111674752
 20
-21.34346200340262
 10
-348.5737468784617
 20
-21.6420643082154
 10
-347.8335776441948
 20
-21.88629855974466
 10
-347.0946641608886
 20
-22.07619897325363
 10
-346.3590671247577
 20
-22.21179976400556
 10
-345.6288472320162
 20
-22.29313514726367
 10
-344.9060651788784
 20
-22.32023933829121
 10
-344.9060651788784
 20
-22.32023933829122
 10
-344.1980609415132
 20
-22.29208497581779
 10
-343.4836764234165
 20
-22.20773458421503
 10
-342.7649010277095
 20
-22.06735720720923
 10
-342.0437241575136
 20
-21.87112188852669
 10
-341.3221352159501
 20
-21.61919767189368
 10
-340.6021236061403
 20
-21.3117536010365
 10
-339.8856787312056
 20
-20.94895871968143
 10
-339.1747899942674
 20
-20.53098207155477
 10
-338.4714467984468
 20
-20.05799270038282
 10
-337.7776385468653
 20
-19.53015964989184
 10
-337.0953546426442
 20
-18.94765196380814
 10
-336.4265844889049
 20
-18.31063868585801
 10
-335.7733174887685
 20
-17.61928885976773
 10
-335.1375430453566
 20
-16.8737715292636
 10
-334.5212505617904
 20
-16.0742557380719
 10
-333.9264294411912
 20
-15.22091052991893
 10
-333.3550690866804
 20
-14.31390494853097
 10
-332.8091589013793
 20
-13.35340803763431
 10
-332.2906882884093
 20
-12.33958884095524
 10
-331.8016466508916
 20
-11.27261640222005
 10
-331.3440233919477
 20
-10.15265976515504
 10
-330.9198079146987
 20
-8.979887973486482
 10
-330.5309896222661
 20
-7.754470070940676
 10
-330.1795579177713
 20
-6.47657510124391
 10
-329.8675022043354
 20
-5.146372108122473
 10
-329.5968118850798
 20
-3.764030135302654
 10
-329.369476363126
 20
-2.329718226510743
 10
-329.1874850415952
 20
-0.8436054254730295
 10
-329.0528273236087
 20
0.6941392240841971
 10
-328.9674926122879
 20
2.283346678434647
 10
-328.9334703107541
 20
3.923847893852031
 10
-328.9527498221286
 20
5.61547382661006
210
0.0
220
0.0
230
-1.0
  0
LWPOLYLINE
  5
262
330
1F
100
AcDbEntity
  8
Default Layer
 62
    18
420
        0
370
    30
100
AcDbPolyline
 90
       29
 70
     0
 43
0.0
 10
390.5983422998545
 20
-10.20603841385426
 10
382.8868297485952
 20
-16.50743707830435
 10
382.8868297485952
 20
-16.50743707830435
 10
382.8868297485952
 20
4.004847004814767
 10
382.8868297485952
 20
4.004847004814767
 10
382.6723452760399
 20
4.698918547801006
 10
382.4385964424142
 20
5.31992992836764
 10
382.1877237322815
 20
5.86788114651467
 10
381.9218676302053
 20
6.342772202242096
 10
381.6431686207487
 20
6.744603095549917
 10
381.3537671884753
 20
7.073373826438135
 10
381.0558038179483
 20
7.329084394906749
 10
380.7514189937313
 20
7.51173480095576
 10
380.4427532003875
 20
7.621325044585166
 10
380.1319469224803
 20
7.657855125794967
 10
379.8211406445731
 20
7.621325044585165
 10
379.5124748512292
 20
7.511734800955759
 10
379.2080900270122
 20
7.329084394906749
 10
378.9101266564852
 20
7.073373826438134
 10
378.6207252242118
 20
6.744603095549916
 10
378.3420262147553
 20
6.342772202242095
 10
378.076170112679
 20
5.867881146514669
 10
377.8252974025464
 20
5.319929928367638
 10
377.5915485689207
 20
4.698918547801004
 10
377.3770640963655
 20
4.004847004814766
 10
377.3770640963655
 20
4.004847004814766
 10
377.3770640963655
 20
-16.50743707830435
 10
377.3770640963655
 20
-16.50743707830435
 10
369.6996289695437
 20
-10.20603841385426
  0
LWPOLYLINE
  5
263
330
1F
100
AcDbEntity
  8
Default Layer
 62
    18
420
        0
370
    30
100
AcDbPolyline
 90
        4
 70
     0
 43
0.0
 10
367.364773936607
 20
-14.14052334720098
 10
380.1319469224803
 20
-25.53613878632705
 10
380.1319469224803
 20
-25.53613878632705
 10
392.8991199083537
 20
-14.14052334720098
  0
LWPOLYLINE
  5
264
330
1F
100
AcDbEntity
  8
Default Layer
 62
    18
420
        0
370
    30
100
AcDbPolyline
 90
      198
 70
     0
 43
0.0
 10
-415.0707725346991
 20
-22.82123542549898
 10
-416.042055993835
 20
-22.78145270305373
 10
-416.9939540251761
 20
-22.66784906023166
 10
-417.9256103370211
 20
-22.48208561868171
 10
-418.836168637668
 20
-22.22582350005285
 10
-419.7247726354153
 20
-21.90072382599401
 10
-420.5905660385614
 20
-21.50844771815414
 10
-421.4326925554044
 20
-21.05065629818219
 10
-422.2502958942428
 20
-20.52901068772712
 10
-423.042519763375
 20
-19.94517200843786
 10
-423.8085078710993
 20
-19.30080138196337
 10
-424.5474039257138
 20
-18.5975599299526
 10
-425.2583516355171
 20
-17.83710877405449
 10
-425.9404947088075
 20
-17.021109035918
 10
-426.5929768538832
 20
-16.15122183719207
 10
-427.2149417790427
 20
-15.22910829952565
 10
-427.8055331925843
 20
-14.25642954456768
 10
-428.3638948028062
 20
-13.23484669396713
 10
-428.8891703180069
 20
-12.16602086937293
 10
-429.3805034464847
 20
-11.05161319243403
 10
-429.8370378965379
 20
-9.893284784799394
 10
-430.2579173764647
 20
-8.692696768117956
 10
-430.6422855945637
 20
-7.451510264038668
 10
-430.9892862591332
 20
-6.171386394210479
 10
-431.2980630784713
 20
-4.853986280282337
 10
-431.5677597608766
 20
-3.500971043903192
 10
-431.7975200146472
 20
-2.114001806721991
 10
-431.9864875480816
 20
-0.694739690387684
 10
-432.1338060694782
 20
0.7551541834507818
 10
-432.2386192871351
 20
2.234018693144457
 10
-432.3000709093508
 20
3.740192717044393
 10
-432.3173046444237
 20
5.272015133501642
 10
-432.3173046444237
 20
5.27201513350166
 10
-432.8007328941162
 20
5.939753338813575
 10
-433.3110249050029
 20
6.537203311987394
 10
-433.8451958147287
 20
7.064365053023117
 10
-434.400260760939
 20
7.521238561920743
 10
-434.9732348812787
 20
7.907823838680272
 10
-435.5611333133929
 20
8.224120883301706
 10
-436.1609711949268
 20
8.470129695785043
 10
-436.7697636635253
 20
8.645850276130284
 10
-437.3845258568336
 20
8.751282624337427
 10
-438.0022729124969
 20
8.786426740406476
 10
-438.6200199681602
 20
8.751282624337427
 10
-439.2347821614685
 20
8.645850276130282
 10
-439.8435746300671
 20
8.47012969578504
 10
-440.443412511601
 20
8.224120883301702
 10
-441.0313109437152
 20
7.907823838680268
 10
-441.6042850640549
 20
7.521238561920737
 10
-442.1593500102651
 20
7.06436505302311
 10
-442.693520919991
 20
6.537203311987386
 10
-443.2038129308777
 20
5.939753338813567
 10
-443.6872411805701
 20
5.27201513350165
 10
-443.6872411805702
 20
5.27201513350166
 10
-443.4780844739919
 20
3.484564127356551
 10
-443.2228585802269
 20
1.749725563608047
 10
-442.9217355165929
 20
0.0677402473082134
 10
-442.5748873004082
 20
-1.561151016490883
 10
-442.1824859489908
 20
-3.136707422737175
 10
-441.7447034796587
 20
-4.658688166378598
 10
-441.2617119097298
 20
-6.126852442363084
 10
-440.7336832565223
 20
-7.540959445638566
 10
-440.1607895373543
 20
-8.900768371152981
 10
-439.5432027695437
 20
-10.20603841385426
 10
-439.5432027695437
 20
-10.20603841385426
 10
-438.9972864411465
 20
-10.07796232930581
 10
-438.5068241499086
 20
-10.00566538251933
 10
-438.0718177535346
 20
-9.989144972915863
 10
-437.6922691097288
 20
-10.02839849991641
 10
-437.3681800761958
 20
-10.12342336294201
 10
-437.09955251064
 20
-10.27421696141369
 10
-436.8863882707659
 20
-10.48077669475246
 10
-436.7286892142779
 20
-10.74309996237935
 10
-436.6264571988805
 20
-11.06118416371539
 10
-436.5796940822782
 20
-11.43502669818159
 10
-436.5884017221755
 20
-11.86462496519899
 10
-436.6525819762768
 20
-12.3499763641886
 10
-436.7722367022865
 20
-12.89107829457145
 10
-436.9473677579092
 20
-13.48792815576857
 10
-437.1779770008493
 20
-14.14052334720098
 10
-437.1779770008493
 20
-14.14052334720098
 10
-436.3398583833896
 20
-15.24467615740339
 10
-435.454797253056
 20
-16.28895021326966
 10
-434.5229910793556
 20
-17.27307788865327
 10
-433.5446373317957
 20
-18.19679155740771
 10
-432.5199334798833
 20
-19.05982359338647
 10
-431.4490769931256
 20
-19.86190637044302
 10
-430.3322653410297
 20
-20.60277226243086
 10
-429.1696959931029
 20
-21.28215364320347
 10
-427.9615664188522
 20
-21.89978288661433
 10
-426.7080740877847
 20
-22.45539236651694
 10
-425.4094164694076
 20
-22.94871445676477
 10
-424.0657910332281
 20
-23.3794815312113
 10
-422.6773952487532
 20
-23.74742596371004
 10
-421.2444265854901
 20
-24.05228012811446
 10
-419.767082512946
 20
-24.29377639827804
 10
-418.245560500628
 20
-24.47164714805428
 10
-416.6800580180433
 20
-24.58562475129666
 10
-415.0707725346991
 20
-24.63544158185866
 10
-415.0707725346991
 20
-24.63544158185866
 10
-413.4614870513548
 20
-24.58562475129666
 10
-411.8959845687701
 20
-24.47164714805428
 10
-410.3744625564521
 20
-24.29377639827805
 10
-408.897118483908
 20
-24.05228012811446
 10
-407.464149820645
 20
-23.74742596371004
 10
-406.0757540361701
 20
-23.3794815312113
 10
-404.7321285999906
 20
-22.94871445676477
 10
-403.4334709816135
 20
-22.45539236651694
 10
-402.179978650546
 20
-21.89978288661433
 10
-400.9718490762953
 20
-21.28215364320347
 10
-399.8092797283685
 20
-20.60277226243086
 10
-398.6924680762726
 20
-19.86190637044302
 10
-397.6216115895149
 20
-19.05982359338647
 10
-396.5969077376025
 20
-18.19679155740771
 10
-395.6185539900426
 20
-17.27307788865327
 10
-394.6867478163422
 20
-16.28895021326966
 10
-393.8016866860086
 20
-15.24467615740339
 10
-392.9635680685489
 20
-14.14052334720097
 10
-392.963568068549
 20
-14.14052334720098
 10
-393.194177311489
 20
-13.48792815576857
 10
-393.3693083671117
 20
-12.89107829457145
 10
-393.4889630931215
 20
-12.3499763641886
 10
-393.5531433472227
 20
-11.86462496519899
 10
-393.56185098712
 20
-11.43502669818159
 10
-393.5150878705177
 20
-11.06118416371539
 10
-393.4128558551203
 20
-10.74309996237935
 10
-393.2551567986323
 20
-10.48077669475246
 10
-393.0419925587582
 20
-10.27421696141369
 10
-392.7733649932024
 20
-10.12342336294201
 10
-392.4492759596694
 20
-10.02839849991641
 10
-392.0697273158636
 20
-9.989144972915861
 10
-391.6347209194896
 20
-10.00566538251933
 10
-391.1442586282517
 20
-10.0779623293058
 10
-390.5983422998545
 20
-10.20603841385425
 10
-390.5983422998545
 20
-10.20603841385426
 10
-389.9807555320439
 20
-8.900768371152981
 10
-389.4078618128758
 20
-7.540959445638567
 10
-388.8798331596683
 20
-6.126852442363084
 10
-388.3968415897395
 20
-4.658688166378598
 10
-387.9590591204074
 20
-3.136707422737176
 10
-387.5666577689899
 20
-1.561151016490883
 10
-387.2198095528052
 20
0.0677402473082132
 10
-386.9186864891713
 20
1.749725563608047
 10
-386.6634605954062
 20
3.484564127356551
 10
-386.454303888828
 20
5.27201513350166
 10
-386.454303888828
 20
5.27201513350166
 10
-386.9377321385205
 20
5.939753338813575
 10
-387.4480241494071
 20
6.537203311987394
 10
-387.9821950591331
 20
7.064365053023117
 10
-388.5372600053433
 20
7.521238561920743
 10
-389.1102341256829
 20
7.907823838680273
 10
-389.6981325577972
 20
8.224120883301706
 10
-390.297970439331
 20
8.470129695785043
 10
-390.9067629079296
 20
8.645850276130284
 10
-391.521525101238
 20
8.751282624337427
 10
-392.1392721569012
 20
8.786426740406476
 10
-392.7570192125644
 20
8.751282624337427
 10
-393.3717814058728
 20
8.645850276130282
 10
-393.9805738744714
 20
8.470129695785042
 10
-394.5804117560052
 20
8.224120883301704
 10
-395.1683101881195
 20
7.907823838680271
 10
-395.7412843084591
 20
7.521238561920742
 10
-396.2963492546693
 20
7.064365053023117
 10
-396.8305201643953
 20
6.537203311987394
 10
-397.3408121752819
 20
5.939753338813576
 10
-397.8242404249744
 20
5.272015133501662
 10
-397.8242404249745
 20
5.27201513350166
 10
-397.8414741600473
 20
3.74019271704441
 10
-397.9029257822631
 20
2.234018693144472
 10
-398.00773899992
 20
0.7551541834507956
 10
-398.1550575213165
 20
-0.6947396903876716
 10
-398.344025054751
 20
-2.11400180672198
 10
-398.5737853085216
 20
-3.500971043903182
 10
-398.8434819909269
 20
-4.853986280282328
 10
-399.152258810265
 20
-6.171386394210471
 10
-399.4992594748345
 20
-7.451510264038661
 10
-399.8836276929334
 20
-8.692696768117951
 10
-400.3045071728603
 20
-9.893284784799391
 10
-400.7610416229135
 20
-11.05161319243403
 10
-401.2523747513912
 20
-12.16602086937293
 10
-401.777650266592
 20
-13.23484669396713
 10
-402.3360118768139
 20
-14.25642954456768
 10
-402.9266032903555
 20
-15.22910829952564
 10
-403.5485682155149
 20
-16.15122183719207
 10
-404.2010503605907
 20
-17.021109035918
 10
-404.8831934338811
 20
-17.83710877405449
 10
-405.5941411436844
 20
-18.5975599299526
 10
-406.3330371982989
 20
-19.30080138196337
 10
-407.0990253060231
 20
-19.94517200843786
 10
-407.8912491751553
 20
-20.52901068772712
 10
-408.7088525139938
 20
-21.0506562981822
 10
-409.5509790308368
 20
-21.50844771815414
 10
-410.4167724339829
 20
-21.90072382599401
 10
-411.3053764317302
 20
-22.22582350005286
 10
-412.2159347323771
 20
-22.48208561868172
 10
-413.147591044222
 20
-22.66784906023166
 10
-414.0994890755632
 20
-22.78145270305373
 10
-415.0707725346991
 20
-22.82123542549898
210
0.0
220
0.0
230
-1.0
  0
LWPOLYLINE
  5
265
330
1F
100
AcDbEntity
  8
Default Layer
 62
    18
420
        0
370
    30
100
AcDbPolyline
 90
      107
 70
     0
 43
0.0
 10
-398.6804879812047
 20
5.615473826610068
 10
-398.9554974895662
 20
6.085850751615324
 10
-399.2870424693752
 20
6.512816585130262
 10
-399.6754563283214
 20
6.898457127667207
 10
-400.1210724740946
 20
7.244858179738484
 10
-400.6242243143844
 20
7.554105541856418
 10
-401.1852452568805
 20
7.828285014533333
 10
-401.8044687092727
 20
8.069482398281556
 10
-402.4822280792505
 20
8.279783493613409
 10
-403.2188567745037
 20
8.461274101041221
 10
-404.0146882027219
 20
8.616040021077314
 10
-404.8700557715949
 20
8.746167054234014
 10
-405.7852928888122
 20
8.853741001023648
 10
-406.7607329620637
 20
8.940847661958539
 10
-407.7967093990389
 20
9.009572837551012
 10
-408.8935556074277
 20
9.062002328313392
 10
-410.0516049949196
 20
9.100221934758003
 10
-411.2711909692044
 20
9.126317457397172
 10
-412.5526469379718
 20
9.142374696743225
 10
-413.8963063089112
 20
9.150479453308484
 10
-415.3025024897127
 20
9.152717527605277
 10
-415.3025024897127
 20
9.152717527605277
 10
-416.7133956172544
 20
9.150217393763156
 10
-418.0601298367342
 20
9.14109514220048
 10
-419.3429269308823
 20
9.122917997862781
 10
-420.5620086824287
 20
9.093253185695591
 10
-421.7175968741032
 20
9.04966793064444
 10
-422.8099132886362
 20
8.989729457654862
 10
-423.8391797087577
 20
8.911004991672385
 10
-424.8056179171975
 20
8.811061757642541
 10
-425.709449696686
 20
8.687466980510862
 10
-426.550896829953
 20
8.537787885222881
 10
-427.3301810997288
 20
8.359591696724127
 10
-428.0475242887431
 20
8.150445639960132
 10
-428.7031481797263
 20
7.907916939876429
 10
-429.2972745554083
 20
7.629572821418547
 10
-429.8301251985192
 20
7.312980509532019
 10
-430.3019218917889
 20
6.955707229162376
 10
-430.7128864179476
 20
6.555320205255149
 10
-431.0632405597255
 20
6.10938666275587
 10
-431.3532060998523
 20
5.615473826610069
 10
-431.3532060998523
 20
5.615473826610068
 10
-431.3580747586443
 20
3.891292579029551
 10
-431.3085603706112
 20
2.222368981576717
 10
-431.2067236319675
 20
0.6086688189883285
 10
-431.0546252389274
 20
-0.9498421239988514
 10
-430.8543258877051
 20
-2.453198062648059
 10
-430.6078862745151
 20
-3.901433212222533
 10
-430.3173670955714
 20
-5.294581787985508
 10
-429.9848290470885
 20
-6.632678005200223
 10
-429.6123328252806
 20
-7.915756079129915
 10
-429.2019391263621
 20
-9.143850225037819
 10
-428.7557086465471
 20
-10.31699465818717
 10
-428.2757020820501
 20
-11.43522359384121
 10
-427.7639801290853
 20
-12.49857124726318
 10
-427.222603483867
 20
-13.5070718337163
 10
-426.6536328426095
 20
-14.46075956846383
 10
-426.0591289015271
 20
-15.35966866676899
 10
-425.4411523568339
 20
-16.20383334389502
 10
-424.8017639047445
 20
-16.99328781510516
 10
-424.1430242414729
 20
-17.72806629566264
 10
-423.4669940632336
 20
-18.40820300083071
 10
-422.7757340662408
 20
-19.0337321458726
 10
-422.0713049467089
 20
-19.60468794605154
 10
-421.3557674008521
 20
-20.12110461663078
 10
-420.6311821248847
 20
-20.58301637287355
 10
-419.8996098150209
 20
-20.99045743004308
 10
-419.1631111674751
 20
-21.34346200340262
 10
-418.4237468784616
 20
-21.6420643082154
 10
-417.6835776441946
 20
-21.88629855974466
 10
-416.9446641608886
 20
-22.07619897325363
 10
-416.2090671247576
 20
-22.21179976400556
 10
-415.4788472320161
 20
-22.29313514726367
 10
-414.7560651788784
 20
-22.32023933829121
 10
-414.7560651788784
 20
-22.32023933829122
 10
-414.0480609415131
 20
-22.29208497581779
 10
-413.3336764234164
 20
-22.20773458421503
 10
-412.6149010277094
 20
-22.06735720720923
 10
-411.8937241575135
 20
-21.87112188852669
 10
-411.17213521595
 20
-21.61919767189368
 10
-410.4521236061403
 20
-21.3117536010365
 10
-409.7356787312056
 20
-20.94895871968143
 10
-409.0247899942673
 20
-20.53098207155477
 10
-408.3214467984468
 20
-20.05799270038282
 10
-407.6276385468653
 20
-19.53015964989184
 10
-406.9453546426442
 20
-18.94765196380814
 10
-406.2765844889048
 20
-18.31063868585801
 10
-405.6233174887685
 20
-17.61928885976773
 10
-404.9875430453566
 20
-16.8737715292636
 10
-404.3712505617903
 20
-16.0742557380719
 10
-403.7764294411911
 20
-15.22091052991893
 10
-403.2050690866803
 20
-14.31390494853097
 10
-402.6591589013793
 20
-13.35340803763431
 10
-402.1406882884092
 20
-12.33958884095524
 10
-401.6516466508916
 20
-11.27261640222005
 10
-401.1940233919476
 20
-10.15265976515504
 10
-400.7698079146987
 20
-8.979887973486482
 10
-400.3809896222661
 20
-7.754470070940676
 10
-400.0295579177713
 20
-6.47657510124391
 10
-399.7175022043354
 20
-5.146372108122473
 10
-399.4468118850799
 20
-3.764030135302654
 10
-399.2194763631261
 20
-2.329718226510743
 10
-399.0374850415953
 20
-0.8436054254730295
 10
-398.9028273236088
 20
0.6941392240841971
 10
-398.817492612288
 20
2.283346678434647
 10
-398.7834703107542
 20
3.923847893852031
 10
-398.8027498221287
 20
5.61547382661006
210
0.0
220
0.0
230
-1.0
  0
LWPOLYLINE
  5
266
330
1F
100
AcDbEntity
  8
Default Layer
 62
    18
420
        0
370
    30
100
AcDbPolyline
 90
       29
 70
     0
 43
0.0
 10
460.4483422998545
 20
-10.20603841385426
 10
452.7368297485951
 20
-16.50743707830435
 10
452.7368297485951
 20
-16.50743707830435
 10
452.7368297485951
 20
4.004847004814767
 10
452.7368297485951
 20
4.004847004814767
 10
452.5223452760398
 20
4.698918547801006
 10
452.2885964424141
 20
5.31992992836764
 10
452.0377237322815
 20
5.86788114651467
 10
451.7718676302052
 20
6.342772202242096
 10
451.4931686207487
 20
6.744603095549917
 10
451.2037671884752
 20
7.073373826438135
 10
450.9058038179483
 20
7.329084394906749
 10
450.6014189937312
 20
7.51173480095576
 10
450.2927532003874
 20
7.621325044585166
 10
449.9819469224802
 20
7.657855125794967
 10
449.671140644573
 20
7.621325044585165
 10
449.3624748512291
 20
7.511734800955759
 10
449.0580900270122
 20
7.329084394906749
 10
448.7601266564852
 20
7.073373826438134
 10
448.4707252242118
 20
6.744603095549916
 10
448.1920262147552
 20
6.342772202242095
 10
447.9261701126789
 20
5.867881146514669
 10
447.6752974025463
 20
5.319929928367638
 10
447.4415485689205
 20
4.698918547801004
 10
447.2270640963653
 20
4.004847004814766
 10
447.2270640963654
 20
4.004847004814766
 10
447.2270640963654
 20
-16.50743707830435
 10
447.2270640963654
 20
-16.50743707830435
 10
439.5496289695437
 20
-10.20603841385426
  0
LWPOLYLINE
  5
267
330
1F
100
AcDbEntity
  8
Default Layer
 62
    18
420
        0
370
    30
100
AcDbPolyline
 90
        4
 70
     0
 43
0.0
 10
437.2147739366069
 20
-14.14052334720098
 10
449.9819469224802
 20
-25.53613878632705
 10
449.9819469224802
 20
-25.53613878632705
 10
462.7491199083537
 20
-14.14052334720098
  0
LWPOLYLINE
  5
268
330
1F
100
AcDbEntity
  8
Default Layer
 62
    18
420
        0
370
    30
100
AcDbPolyline
 90
      198
 70
     0
 43
0.0
 10
-484.9207725346991
 20
-22.82123542549898
 10
-485.8920559938349
 20
-22.78145270305373
 10
-486.8439540251761
 20
-22.66784906023166
 10
-487.775610337021
 20
-22.48208561868171
 10
-488.686168637668
 20
-22.22582350005285
 10
-489.5747726354153
 20
-21.90072382599401
 10
-490.4405660385613
 20
-21.50844771815414
 10
-491.2826925554043
 20
-21.05065629818219
 10
-492.1002958942429
 20
-20.52901068772712
 10
-492.892519763375
 20
-19.94517200843786
 10
-493.6585078710992
 20
-19.30080138196337
 10
-494.3974039257138
 20
-18.5975599299526
 10
-495.1083516355171
 20
-17.83710877405449
 10
-495.7904947088074
 20
-17.021109035918
 10
-496.4429768538832
 20
-16.15122183719207
 10
-497.0649417790427
 20
-15.22910829952565
 10
-497.6555331925843
 20
-14.25642954456768
 10
-498.2138948028062
 20
-13.23484669396713
 10
-498.7391703180069
 20
-12.16602086937293
 10
-499.2305034464846
 20
-11.05161319243403
 10
-499.6870378965378
 20
-9.893284784799394
 10
-500.1079173764647
 20
-8.692696768117956
 10
-500.4922855945637
 20
-7.451510264038668
 10
-500.8392862591331
 20
-6.171386394210479
 10
-501.1480630784713
 20
-4.853986280282337
 10
-501.4177597608765
 20
-3.500971043903192
 10
-501.6475200146472
 20
-2.114001806721991
 10
-501.8364875480816
 20
-0.694739690387684
 10
-501.9838060694781
 20
0.7551541834507818
 10
-502.0886192871351
 20
2.234018693144457
 10
-502.1500709093508
 20
3.740192717044393
 10
-502.1673046444236
 20
5.272015133501642
 10
-502.1673046444237
 20
5.27201513350166
 10
-502.6507328941162
 20
5.939753338813575
 10
-503.1610249050029
 20
6.537203311987394
 10
-503.6951958147287
 20
7.064365053023117
 10
-504.250260760939
 20
7.521238561920743
 10
-504.8232348812787
 20
7.907823838680272
 10
-505.4111333133929
 20
8.224120883301706
 10
-506.0109711949267
 20
8.470129695785043
 10
-506.6197636635252
 20
8.645850276130284
 10
-507.2345258568336
 20
8.751282624337427
 10
-507.8522729124968
 20
8.786426740406476
 10
-508.4700199681601
 20
8.751282624337427
 10
-509.0847821614685
 20
8.645850276130282
 10
-509.6935746300671
 20
8.47012969578504
 10
-510.2934125116009
 20
8.224120883301702
 10
-510.8813109437151
 20
7.907823838680268
 10
-511.4542850640548
 20
7.521238561920737
 10
-512.009350010265
 20
7.06436505302311
 10
-512.543520919991
 20
6.537203311987386
 10
-513.0538129308777
 20
5.939753338813567
 10
-513.5372411805702
 20
5.27201513350165
 10
-513.5372411805702
 20
5.27201513350166
 10
-513.328084473992
 20
3.484564127356551
 10
-513.0728585802269
 20
1.749725563608047
 10
-512.771735516593
 20
0.0677402473082134
 10
-512.4248873004082
 20
-1.561151016490883
 10
-512.0324859489908
 20
-3.136707422737175
 10
-511.5947034796587
 20
-4.658688166378598
 10
-511.1117119097299
 20
-6.126852442363084
 10
-510.5836832565223
 20
-7.540959445638566
 10
-510.0107895373543
 20
-8.900768371152981
 10
-509.3932027695437
 20
-10.20603841385426
 10
-509.3932027695436
 20
-10.20603841385426
 10
-508.8472864411464
 20
-10.07796232930581
 10
-508.3568241499086
 20
-10.00566538251933
 10
-507.9218177535345
 20
-9.989144972915863
 10
-507.5422691097288
 20
-10.02839849991641
 10
-507.2181800761957
 20
-10.12342336294201
 10
-506.94955251064
 20
-10.27421696141369
 10
-506.7363882707659
 20
-10.48077669475246
 10
-506.5786892142779
 20
-10.74309996237935
 10
-506.4764571988805
 20
-11.06118416371539
 10
-506.4296940822782
 20
-11.43502669818159
 10
-506.4384017221755
 20
-11.86462496519899
 10
-506.5025819762767
 20
-12.3499763641886
 10
-506.6222367022865
 20
-12.89107829457145
 10
-506.7973677579091
 20
-13.48792815576857
 10
-507.0279770008492
 20
-14.14052334720098
 10
-507.0279770008493
 20
-14.14052334720098
 10
-506.1898583833896
 20
-15.24467615740339
 10
-505.304797253056
 20
-16.28895021326966
 10
-504.3729910793556
 20
-17.27307788865327
 10
-503.3946373317957
 20
-18.19679155740771
 10
-502.3699334798833
 20
-19.05982359338647
 10
-501.2990769931256
 20
-19.86190637044302
 10
-500.1822653410298
 20
-20.60277226243086
 10
-499.0196959931028
 20
-21.28215364320347
 10
-497.8115664188521
 20
-21.89978288661433
 10
-496.5580740877847
 20
-22.45539236651694
 10
-495.2594164694075
 20
-22.94871445676477
 10
-493.915791033228
 20
-23.3794815312113
 10
-492.5273952487532
 20
-23.74742596371004
 10
-491.0944265854901
 20
-24.05228012811446
 10
-489.617082512946
 20
-24.29377639827804
 10
-488.095560500628
 20
-24.47164714805428
 10
-486.5300580180433
 20
-24.58562475129666
 10
-484.920772534699
 20
-24.63544158185866
 10
-484.9207725346991
 20
-24.63544158185866
 10
-483.3114870513547
 20
-24.58562475129666
 10
-481.74598456877
 20
-24.47164714805428
 10
-480.2244625564521
 20
-24.29377639827805
 10
-478.747118483908
 20
-24.05228012811446
 10
-477.3141498206449
 20
-23.74742596371004
 10
-475.9257540361701
 20
-23.3794815312113
 10
-474.5821285999905
 20
-22.94871445676477
 10
-473.2834709816134
 20
-22.45539236651694
 10
-472.0299786505459
 20
-21.89978288661433
 10
-470.8218490762952
 20
-21.28215364320347
 10
-469.6592797283683
 20
-20.60277226243086
 10
-468.5424680762724
 20
-19.86190637044302
 10
-467.4716115895147
 20
-19.05982359338647
 10
-466.4469077376024
 20
-18.19679155740771
 10
-465.4685539900425
 20
-17.27307788865327
 10
-464.5367478163421
 20
-16.28895021326966
 10
-463.6516866860085
 20
-15.24467615740339
 10
-462.8135680685487
 20
-14.14052334720097
 10
-462.8135680685489
 20
-14.14052334720098
 10
-463.044177311489
 20
-13.48792815576857
 10
-463.2193083671117
 20
-12.89107829457145
 10
-463.3389630931214
 20
-12.3499763641886
 10
-463.4031433472227
 20
-11.86462496519899
 10
-463.4118509871199
 20
-11.43502669818159
 10
-463.3650878705176
 20
-11.06118416371539
 10
-463.2628558551203
 20
-10.74309996237935
 10
-463.1051567986323
 20
-10.48077669475246
 10
-462.8919925587582
 20
-10.27421696141369
 10
-462.6233649932024
 20
-10.12342336294201
 10
-462.2992759596693
 20
-10.02839849991641
 10
-461.9197273158635
 20
-9.989144972915861
 10
-461.4847209194896
 20
-10.00566538251933
 10
-460.9942586282516
 20
-10.0779623293058
 10
-460.4483422998545
 20
-10.20603841385425
 10
-460.4483422998545
 20
-10.20603841385426
 10
-459.8307555320438
 20
-8.900768371152981
 10
-459.2578618128758
 20
-7.540959445638567
 10
-458.7298331596683
 20
-6.126852442363084
 10
-458.2468415897395
 20
-4.658688166378598
 10
-457.8090591204073
 20
-3.136707422737176
 10
-457.4166577689899
 20
-1.561151016490883
 10
-457.0698095528052
 20
0.0677402473082132
 10
-456.7686864891713
 20
1.749725563608047
 10
-456.5134605954062
 20
3.484564127356551
 10
-456.3043038888279
 20
5.27201513350166
 10
-456.3043038888279
 20
5.27201513350166
 10
-456.7877321385204
 20
5.939753338813575
 10
-457.2980241494071
 20
6.537203311987394
 10
-457.8321950591329
 20
7.064365053023117
 10
-458.3872600053432
 20
7.521238561920743
 10
-458.9602341256829
 20
7.907823838680273
 10
-459.5481325577971
 20
8.224120883301706
 10
-460.147970439331
 20
8.470129695785043
 10
-460.7567629079295
 20
8.645850276130284
 10
-461.3715251012378
 20
8.751282624337427
 10
-461.9892721569011
 20
8.786426740406476
 10
-462.6070192125644
 20
8.751282624337427
 10
-463.2217814058727
 20
8.645850276130282
 10
-463.8305738744713
 20
8.470129695785042
 10
-464.4304117560052
 20
8.224120883301704
 10
-465.0183101881194
 20
7.907823838680271
 10
-465.5912843084591
 20
7.521238561920742
 10
-466.1463492546693
 20
7.064365053023117
 10
-466.6805201643952
 20
6.537203311987394
 10
-467.1908121752819
 20
5.939753338813576
 10
-467.6742404249744
 20
5.272015133501662
 10
-467.6742404249745
 20
5.27201513350166
 10
-467.6914741600473
 20
3.74019271704441
 10
-467.752925782263
 20
2.234018693144472
 10
-467.8577389999199
 20
0.7551541834507956
 10
-468.0050575213165
 20
-0.6947396903876716
 10
-468.1940250547509
 20
-2.11400180672198
 10
-468.4237853085216
 20
-3.500971043903182
 10
-468.6934819909269
 20
-4.853986280282328
 10
-469.002258810265
 20
-6.171386394210471
 10
-469.3492594748344
 20
-7.451510264038661
 10
-469.7336276929334
 20
-8.692696768117951
 10
-470.1545071728603
 20
-9.893284784799391
 10
-470.6110416229135
 20
-11.05161319243403
 10
-471.1023747513912
 20
-12.16602086937293
 10
-471.6276502665919
 20
-13.23484669396713
 10
-472.1860118768138
 20
-14.25642954456768
 10
-472.7766032903554
 20
-15.22910829952564
 10
-473.3985682155149
 20
-16.15122183719207
 10
-474.0510503605906
 20
-17.021109035918
 10
-474.733193433881
 20
-17.83710877405449
 10
-475.4441411436843
 20
-18.5975599299526
 10
-476.1830371982989
 20
-19.30080138196337
 10
-476.9490253060231
 20
-19.94517200843786
 10
-477.7412491751553
 20
-20.52901068772712
 10
-478.5588525139937
 20
-21.0506562981822
 10
-479.4009790308368
 20
-21.50844771815414
 10
-480.2667724339828
 20
-21.90072382599401
 10
-481.1553764317301
 20
-22.22582350005286
 10
-482.0659347323771
 20
-22.48208561868172
 10
-482.997591044222
 20
-22.66784906023166
 10
-483.9494890755632
 20
-22.78145270305373
 10
-484.9207725346991
 20
-22.82123542549898
210
0.0
220
0.0
230
-1.0
  0
LWPOLYLINE
  5
269
330
1F
100
AcDbEntity
  8
Default Layer
 62
    18
420
        0
370
    30
100
AcDbPolyline
 90
      107
 70
     0
 43
0.0
 10
-468.5304879812047
 20
5.615473826610068
 10
-468.8054974895662
 20
6.085850751615324
 10
-469.1370424693751
 20
6.512816585130262
 10
-469.5254563283214
 20
6.898457127667207
 10
-469.9710724740945
 20
7.244858179738484
 10
-470.4742243143845
 20
7.554105541856418
 10
-471.0352452568805
 20
7.828285014533333
 10
-471.6544687092727
 20
8.069482398281556
 10
-472.3322280792505
 20
8.279783493613409
 10
-473.0688567745036
 20
8.461274101041221
 10
-473.8646882027218
 20
8.616040021077314
 10
-474.7200557715948
 20
8.746167054234014
 10
-475.6352928888122
 20
8.853741001023648
 10
-476.6107329620637
 20
8.940847661958539
 10
-477.6467093990389
 20
9.009572837551012
 10
-478.7435556074277
 20
9.062002328313392
 10
-479.9016049949196
 20
9.100221934758003
 10
-481.1211909692044
 20
9.126317457397172
 10
-482.4026469379717
 20
9.142374696743225
 10
-483.7463063089113
 20
9.150479453308484
 10
-485.1525024897127
 20
9.152717527605277
 10
-485.1525024897127
 20
9.152717527605277
 10
-486.5633956172544
 20
9.150217393763156
 10
-487.9101298367342
 20
9.14109514220048
 10
-489.1929269308822
 20
9.122917997862781
 10
-490.4120086824285
 20
9.093253185695591
 10
-491.5675968741031
 20
9.04966793064444
 10
-492.6599132886361
 20
8.989729457654862
 10
-493.6891797087575
 20
8.911004991672385
 10
-494.6556179171975
 20
8.811061757642541
 10
-495.5594496966859
 20
8.687466980510862
 10
-496.400896829953
 20
8.537787885222881
 10
-497.1801810997286
 20
8.359591696724127
 10
-497.897524288743
 20
8.150445639960132
 10
-498.5531481797262
 20
7.907916939876429
 10
-499.1472745554082
 20
7.629572821418547
 10
-499.680125198519
 20
7.312980509532019
 10
-500.1519218917888
 20
6.955707229162376
 10
-500.5628864179476
 20
6.555320205255149
 10
-500.9132405597254
 20
6.10938666275587
 10
-501.2032060998523
 20
5.615473826610069
 10
-501.2032060998522
 20
5.615473826610068
 10
-501.2080747586442
 20
3.891292579029551
 10
-501.1585603706112
 20
2.222368981576717
 10
-501.0567236319675
 20
0.6086688189883285
 10
-500.9046252389274
 20
-0.9498421239988514
 10
-500.7043258877051
 20
-2.453198062648059
 10
-500.457886274515
 20
-3.901433212222533
 10
-500.1673670955714
 20
-5.294581787985508
 10
-499.8348290470885
 20
-6.632678005200223
 10
-499.4623328252806
 20
-7.915756079129915
 10
-499.0519391263621
 20
-9.143850225037819
 10
-498.6057086465471
 20
-10.31699465818717
 10
-498.1257020820502
 20
-11.43522359384121
 10
-497.6139801290853
 20
-12.49857124726318
 10
-497.072603483867
 20
-13.5070718337163
 10
-496.5036328426095
 20
-14.46075956846383
 10
-495.9091289015271
 20
-15.35966866676899
 10
-495.2911523568339
 20
-16.20383334389502
 10
-494.6517639047445
 20
-16.99328781510516
 10
-493.993024241473
 20
-17.72806629566264
 10
-493.3169940632337
 20
-18.40820300083071
 10
-492.6257340662409
 20
-19.0337321458726
 10
-491.921304946709
 20
-19.60468794605154
 10
-491.2057674008521
 20
-20.12110461663078
 10
-490.4811821248848
 20
-20.58301637287355
 10
-489.749609815021
 20
-20.99045743004308
 10
-489.0131111674752
 20
-21.34346200340262
 10
-488.2737468784617
 20
-21.6420643082154
 10
-487.5335776441947
 20
-21.88629855974466
 10
-486.7946641608887
 20
-22.07619897325363
 10
-486.0590671247577
 20
-22.21179976400556
 10
-485.3288472320162
 20
-22.29313514726367
 10
-484.6060651788784
 20
-22.32023933829121
 10
-484.6060651788784
 20
-22.32023933829122
 10
-483.8980609415131
 20
-22.29208497581779
 10
-483.1836764234164
 20
-22.20773458421503
 10
-482.4649010277095
 20
-22.06735720720923
 10
-481.7437241575135
 20
-21.87112188852669
 10
-481.02213521595
 20
-21.61919767189368
 10
-480.3021236061403
 20
-21.3117536010365
 10
-479.5856787312057
 20
-20.94895871968143
 10
-478.8747899942674
 20
-20.53098207155477
 10
-478.1714467984468
 20
-20.05799270038282
 10
-477.4776385468653
 20
-19.53015964989184
 10
-476.7953546426443
 20
-18.94765196380814
 10
-476.1265844889049
 20
-18.31063868585801
 10
-475.4733174887685
 20
-17.61928885976773
 10
-474.8375430453566
 20
-16.8737715292636
 10
-474.2212505617904
 20
-16.0742557380719
 10
-473.6264294411911
 20
-15.22091052991893
 10
-473.0550690866804
 20
-14.31390494853097
 10
-472.5091589013793
 20
-13.35340803763431
 10
-471.9906882884093
 20
-12.33958884095524
 10
-471.5016466508916
 20
-11.27261640222005
 10
-471.0440233919476
 20
-10.15265976515504
 10
-470.6198079146987
 20
-8.979887973486482
 10
-470.2309896222661
 20
-7.754470070940676
 10
-469.8795579177713
 20
-6.47657510124391
 10
-469.5675022043354
 20
-5.146372108122473
 10
-469.2968118850799
 20
-3.764030135302654
 10
-469.0694763631261
 20
-2.329718226510743
 10
-468.8874850415952
 20
-0.8436054254730295
 10
-468.7528273236087
 20
0.6941392240841971
 10
-468.6674926122879
 20
2.283346678434647
 10
-468.6334703107541
 20
3.923847893852031
 10
-468.6527498221287
 20
5.61547382661006
210
0.0
220
0.0
230
-1.0
  0
LWPOLYLINE
  5
26A
330
1F
100
AcDbEntity
  8
Default Layer
 62
    18
420
        0
370
    30
100
AcDbPolyline
 90
       15
 70
     0
 43
0.0
 10
28.50165770014547
 20
-10.20603841385426
 10
36.21317025140481
 20
-16.50743707830435
 10
36.21317025140481
 20
-16.50743707830435
 10
36.21317025140481
 20
4.004847004814767
 10
36.21317025140481
 20
4.004847004814767
 10
36.42765472396007
 20
4.698918547801006
 10
36.66140355758571
 20
5.31992992836764
 10
36.91227626771837
 20
5.867881146514671
 10
37.17813236979466
 20
6.342772202242096
 10
37.45683137925122
 20
6.744603095549918
 10
37.74623281152464
 20
7.073373826438136
 10
38.04419618205158
 20
7.32908439490675
 10
38.34858100626865
 20
7.51173480095576
 10
38.65724679961246
 20
7.621325044585165
 10
38.96805307751965
 20
7.657855125794966
210
0.0
220
0.0
230
-1.0
  0
LINE
  5
26B
330
1F
100
AcDbEntity
  8
Default Layer
 62
    18
420
        0
370
    30
100
AcDbLine
 10
-38.96805307751966
 20
12.61434183219636
 30
0.0
 11
519.8319469224803
 21
12.61434183219636
 31
0.0
  0
LINE
  5
26C
330
1F
100
AcDbEntity
  8
Default Layer
 62
    18
420
        0
370
    30
100
AcDbLine
 10
-38.96805307751966
 20
-25.75408936945527
 30
0.0
 11
519.8319469224803
 21
-25.75408936945527
 31
0.0
  0
LWPOLYLINE
  5
26D
330
1F
100
AcDbEntity
  8
Default Layer
 62
    18
420
        0
370
    30
100
AcDbPolyline
 90
      103
 70
     0
 43
0.0
 10
-56.42495332545109
 20
9.750911651348413
 10
-56.54763388222524
 20
9.63230803439022
 10
-56.54763388222524
 20
9.63230803439022
 10
-56.63436702078649
 20
9.564534538985533
 10
-56.63436702078649
 20
9.564534538985533
 10
-58.02769736832448
 20
9.174836940408585
 10
-58.02769736832448
 20
9.174836940408585
 10
-59.10686478203603
 20
8.835969463385158
 10
-59.10686478203603
 20
8.835969463385158
 10
-60.02000702208349
 20
8.514045360212906
 10
-60.02000702208349
 20
8.514045360212906
 10
-60.8223108846552
 20
8.192121257040643
 10
-60.8223108846552
 20
8.192121257040643
 10
-61.52138098067113
 20
7.870197153868392
 10
-61.52138098067113
 20
7.870197153868392
 10
-62.13633708542653
 20
7.531329676844964
 10
-62.13633708542653
 20
7.531329676844964
 10
-62.6022939879305
 20
7.226348947523878
 10
-62.6022939879305
 20
7.226348947523878
 10
-63.00182144230674
 20
6.904424844351615
 10
-63.00182144230674
 20
6.904424844351615
 10
-63.28073186463186
 20
6.633330862732873
 10
-63.28073186463186
 20
6.633330862732873
 10
-63.52135277575324
 20
6.345293507262959
 10
-63.52135277575324
 20
6.345293507262959
 10
-63.72851975745032
 20
6.023369404090719
 10
-63.72851975745032
 20
6.023369404090719
 10
-63.87958399838279
 20
5.701445300918473
 10
-63.87958399838279
 20
5.701445300918473
 10
-63.9739611107714
 20
5.413407945448571
 10
-63.9739611107714
 20
5.413407945448571
 10
-64.04297185725043
 20
5.074540468425159
 10
-64.04297185725043
 20
5.074540468425159
 10
-64.07535693234274
 20
4.684842869848234
 10
-64.07535693234274
 20
4.684842869848234
 10
-64.06387961691686
 20
4.261258523568965
 10
-64.06387961691686
 20
4.261258523568965
 10
-64.00379365271398
 20
3.769900681885011
 10
-64.00379365271398
 20
3.769900681885011
 10
-63.88737785404988
 20
3.193825970945205
 10
-63.88737785404988
 20
3.193825970945205
 10
-63.70261745041677
 20
2.499147643047211
 10
-63.70261745041677
 20
2.499147643047211
 10
-63.34933081454106
 20
1.363941595018771
 10
-63.34933081454106
 20
1.363941595018771
 10
-62.86834333723851
 20
-0.1440186777354336
 10
-62.86834333723851
 20
-0.1440186777354336
 10
-62.57055537289448
 20
-1.160621108805684
 10
-62.57055537289448
 20
-1.160621108805684
 10
-62.31747912949391
 20
-2.143336792173593
 10
-62.31747912949391
 20
-2.143336792173593
 10
-62.11517346686192
 20
-3.075222353987981
 10
-62.11517346686192
 20
-3.075222353987981
 10
-61.9512103039629
 20
-4.007107915802369
 10
-61.9512103039629
 20
-4.007107915802369
 10
-61.83706998413867
 20
-4.854276608360907
 10
-61.83706998413867
 20
-4.854276608360907
 10
-61.75731921976872
 20
-5.684501927068271
 10
-61.75731921976872
 20
-5.684501927068271
 10
-61.70800355261631
 20
-6.548613993477986
 10
-61.70800355261631
 20
-6.548613993477986
 10
-61.69306381529636
 20
-7.361895938334214
 10
-61.69306381529636
 20
-7.361895938334214
 10
-61.70878626889056
 20
-8.209064630892784
 10
-61.70878626889056
 20
-8.209064630892784
 10
-61.75844409054583
 20
-9.10706344500487
 10
-61.75844409054583
 20
-9.10706344500487
 10
-61.85245633906191
 20
-10.08977912837281
 10
-61.85245633906191
 20
-10.08977912837281
 10
-61.98872921055621
 20
-11.08943818559192
 10
-61.98872921055621
 20
-11.08943818559192
 10
-62.14800364559954
 20
-12.00438037355518
 10
-62.14800364559954
 20
-12.00438037355518
 10
-62.35745518988437
 20
-13.00403943077429
 10
-62.35745518988437
 20
-13.00403943077429
 10
-62.57698212450808
 20
-13.90203824488638
 10
-62.57698212450808
 20
-13.90203824488638
 10
-63.11547698718232
 20
-15.57096056922677
 10
-63.70160193039848
 20
-17.23988289356715
 10
-64.33535695415658
 20
-18.90880521790753
 10
-65.0167420584566
 20
-20.57772754224791
 10
-65.0167420584566
 20
-20.57772754224792
 10
-65.16174289769001
 20
-20.84882152386666
 10
-65.16174289769001
 20
-20.84882152386666
 10
-65.66680836266344
 20
-21.88236732878812
 10
-65.66680836266344
 20
-21.88236732878812
 10
-66.29699639862841
 20
-23.10229024607246
 10
-66.29699639862841
 20
-23.10229024607246
 10
-66.86973124331301
 20
-24.15277942484509
 10
-66.86973124331301
 20
-24.15277942484509
 10
-67.06018715685671
 20
-24.5594203972732
 10
-67.06018715685671
 20
-24.5594203972732
 10
-67.22122838085955
 20
-24.98300474355249
 10
-67.22122838085955
 20
-24.98300474355249
 10
-67.33790609425371
 20
-25.40658908983176
 10
-67.33790609425371
 20
-25.40658908983176
 10
-67.42702977246111
 20
-25.89794693151574
 10
-67.42702977246111
 20
-25.89794693151574
 10
-67.49187259262865
 20
-26.50790839015791
 10
-67.49187259262865
 20
-26.50790839015791
 10
-67.52729315346543
 20
-27.27036021346063
 10
-67.52729315346543
 20
-27.27036021346063
 10
-67.53722168988054
 20
-28.57500000000083
  0
LWPOLYLINE
  5
26E
330
1F
100
AcDbEntity
  8
Default Layer
 62
    18
420
        0
370
    30
100
AcDbPolyline
 90
      202
 70
     0
 43
0.0
 10
55.34177997893166
 20
28.57499999999987
 10
54.84888446515869
 20
28.5072265045952
 10
54.84888446515869
 20
28.5072265045952
 10
54.20822438186477
 20
28.35473613993465
 10
54.20822438186477
 20
28.35473613993465
 10
53.61013074106049
 20
28.15141565372057
 10
53.61013074106049
 20
28.15141565372057
 10
53.0804823834307
 20
27.93115179365536
 10
53.0804823834307
 20
27.93115179365536
 10
52.57465766853164
 20
27.6770011858878
 10
52.57465766853164
 20
27.6770011858878
 10
52.02518024629425
 20
27.33813370886434
 10
52.02518024629425
 20
27.33813370886434
 10
51.53339408522914
 20
26.98232285798976
 10
51.53339408522914
 20
26.98232285798976
 10
51.05224347895454
 20
26.57568188556165
 10
51.05224347895454
 20
26.57568188556165
 10
50.62639094477962
 20
26.15209753928235
 10
50.62639094477962
 20
26.15209753928235
 10
50.24465855246853
 20
25.71156981915189
 10
50.24465855246853
 20
25.71156981915189
 10
49.91379022783111
 20
25.27104209902145
 10
49.91379022783111
 20
25.27104209902145
 10
49.60743136888813
 20
24.79662763118864
 10
49.60743136888813
 20
24.79662763118864
 10
49.33750931507419
 20
24.30526978950467
 10
49.33750931507419
 20
24.30526978950467
 10
49.0964501131184
 20
23.78002520011836
 10
49.0964501131184
 20
23.78002520011836
 10
48.89411303585838
 20
23.23783723688087
 10
48.89411303585838
 20
23.23783723688087
 10
48.73888957387279
 20
22.71259264749454
 10
48.73888957387279
 20
22.71259264749454
 10
48.61640999502014
 20
22.1534613104059
 10
48.61640999502014
 20
22.1534613104059
 10
48.53255110567879
 20
21.57738659946609
 10
48.53255110567879
 20
21.57738659946609
 10
48.49305307751965
 20
21.01825526237742
 10
48.49305307751965
 20
21.01825526237742
 10
48.49406742936444
 20
20.40829380373523
 10
48.49406742936444
 20
20.40829380373523
 10
48.53553360289406
 20
19.86610584049774
 10
48.53553360289406
 20
19.86610584049774
 10
48.61737362927269
 20
19.3069745034091
 10
48.61737362927269
 20
19.3069745034091
 10
48.74048036521744
 20
18.74784316632044
 10
48.74048036521744
 20
18.74784316632044
 10
48.9003460008509
 20
18.20565520308295
 10
48.9003460008509
 20
18.20565520308295
 10
49.10510692483256
 20
17.66346723984547
 10
49.10510692483256
 20
17.66346723984547
 10
49.33973407632183
 20
17.15516602431032
 10
49.33973407632183
 20
17.15516602431032
 10
49.62038517183136
 20
16.64686480877518
 10
49.62038517183136
 20
16.64686480877518
 10
49.92823603636097
 20
16.17245034094239
 10
49.92823603636097
 20
16.17245034094239
 10
50.27579385525058
 20
15.71497924696076
 10
50.27579385525058
 20
15.71497924696076
 10
50.64716358369659
 20
15.29139490068147
 10
50.64716358369659
 20
15.29139490068147
 10
51.02308237737488
 20
14.91864067595571
 10
51.02308237737488
 20
14.91864067595571
 10
51.43409547394584
 20
14.56282982508111
 10
51.43409547394584
 20
14.56282982508111
 10
51.88488478845428
 20
14.22396234805768
 10
51.88488478845428
 20
14.22396234805768
 10
52.38771716541123
 20
13.9020382448854
 10
52.38771716541123
 20
13.9020382448854
 10
52.91781819647621
 20
13.6140008894155
 10
52.91781819647621
 20
13.6140008894155
 10
53.45355266517471
 20
13.3767936554991
 10
53.45355266517471
 20
13.3767936554991
 10
54.06939897722076
 20
13.15652979543388
 10
54.06939897722076
 20
13.15652979543388
 10
54.86189769095253
 20
12.9532093092198
 10
54.86189769095253
 20
12.9532093092198
 10
56.25760495251487
 20
12.7837755707081
 10
56.25760495251487
 20
12.7837755707081
 10
56.42495332545113
 20
12.6143418321964
 10
56.42495332545113
 20
12.6143418321964
 10
56.42495332545113
 20
9.750911651348424
 10
56.42495332545113
 20
9.750911651348424
 10
56.54763388222526
 20
9.632308034390231
 10
56.54763388222526
 20
9.632308034390231
 10
56.63436702078652
 20
9.564534538985533
 10
56.63436702078652
 20
9.564534538985533
 10
58.02769736832451
 20
9.174836940408596
 10
58.02769736832451
 20
9.174836940408596
 10
59.10686478203605
 20
8.835969463385168
 10
59.10686478203605
 20
8.835969463385168
 10
60.02000702208351
 20
8.514045360212906
 10
60.02000702208351
 20
8.514045360212906
 10
60.82231088465523
 20
8.192121257040655
 10
60.82231088465523
 20
8.192121257040655
 10
61.52138098067116
 20
7.870197153868392
 10
61.52138098067116
 20
7.870197153868392
 10
61.86237730568717
 20
7.683820041505512
 10
61.86237730568717
 20
7.683820041505512
 10
62.08153937643837
 20
7.531329676844964
 10
62.08153937643837
 20
7.531329676844964
 10
61.43980589693855
 20
6.141973021048919
 10
61.43980589693855
 20
6.141973021048919
 10
60.78177465981315
 20
4.650956122145902
 10
60.78177465981315
 20
4.650956122145902
 10
60.36475644892525
 20
3.651297064926828
 10
60.36475644892525
 20
3.651297064926828
 10
59.87768286055397
 20
2.414430773791365
 10
59.87768286055397
 20
2.414430773791365
 10
59.46621784752678
 20
1.27922472576292
 10
59.46621784752678
 20
1.27922472576292
 10
59.10186417883704
 20
0.1779054254368176
 10
59.10186417883704
 20
0.1779054254368176
 10
58.82786049431633
 20
-0.737036762526405
 10
58.82786049431633
 20
-0.737036762526405
 10
58.56410176342796
 20
-1.719752445894313
 10
58.56410176342796
 20
-1.719752445894313
 10
58.34918785876106
 20
-2.634694633857535
 10
58.34918785876106
 20
-2.634694633857535
 10
58.15611279791664
 20
-3.600466943374267
 10
58.15611279791664
 20
-3.600466943374267
 10
58.01628515309166
 20
-4.447635635932804
 10
58.01628515309166
 20
-4.447635635932804
 10
57.89366893953155
 20
-5.379521197747192
 10
57.89366893953155
 20
-5.379521197747192
 10
57.80565499252151
 20
-6.31140675956158
 10
57.80565499252151
 20
-6.31140675956158
 10
57.75398966258834
 20
-7.226348947524837
 10
57.75398966258834
 20
-7.226348947524837
 10
57.73544670528244
 20
-8.090461013934573
 10
57.73544670528244
 20
-8.090461013934573
 10
57.74757275170158
 20
-8.988459828046664
 10
57.74757275170158
 20
-8.988459828046664
 10
57.79312093442749
 20
-9.920345389861086
 10
57.79312093442749
 20
-9.920345389861086
 10
57.87465287035774
 20
-10.86917432552668
 10
57.87465287035774
 20
-10.86917432552668
 10
57.99640007203888
 20
-11.8688333827458
 10
57.99640007203888
 20
-11.8688333827458
 10
58.14969513005088
 20
-12.83460569226257
 10
58.14969513005088
 20
-12.83460569226257
 10
58.33193630760979
 20
-13.78343462792817
 10
58.33193630760979
 20
-13.78343462792817
 10
58.53217390364479
 20
-14.68143344204026
 10
58.53217390364479
 20
-14.68143344204026
 10
58.79923911875557
 20
-15.73192262081288
 10
58.79923911875557
 20
-15.73192262081288
 10
59.09047770088982
 20
-16.74852505188317
 10
59.09047770088982
 20
-16.74852505188317
 10
59.46897173708748
 20
-17.93456122146517
 10
59.46897173708748
 20
-17.93456122146517
 10
59.88539193457436
 20
-19.12059739104717
 10
59.88539193457436
 20
-19.12059739104717
 10
60.33884960001778
 20
-20.30663356062917
 10
60.33884960001778
 20
-20.30663356062917
 10
60.53394428080391
 20
-20.81493477616431
 10
60.53394428080391
 20
-20.81493477616431
 10
60.76949797457527
 20
-21.47572635635999
 10
60.76949797457527
 20
-21.47572635635999
 10
60.89525792187522
 20
-21.76376371182991
 10
60.89525792187522
 20
-21.76376371182991
 10
61.11547976321052
 20
-22.10263118885334
 10
61.11547976321052
 20
-22.10263118885334
 10
61.27309641426872
 20
-22.28900830121622
 10
61.27309641426872
 20
-22.28900830121622
 10
61.6680592853434
 20
-22.62787577823965
 10
61.6680592853434
 20
-22.62787577823965
 10
61.9067907769091
 20
-22.79730951675136
 10
61.9067907769091
 20
-22.79730951675136
 10
62.66072368210624
 20
-23.20395048917948
 10
62.66072368210624
 20
-23.20395048917948
 10
63.34921878165077
 20
-23.50893121850056
 10
63.34921878165077
 20
-23.50893121850056
 10
64.21376297062706
 20
-23.86474206937517
 10
64.21376297062706
 20
-23.86474206937517
 10
65.38700470513176
 20
-24.32221316335679
 10
65.38700470513176
 20
-24.32221316335679
 10
66.18843349999259
 20
-24.66108064038022
 10
66.18843349999259
 20
-24.66108064038022
 10
66.51106248682808
 20
-24.81357100504077
 10
66.51106248682808
 20
-24.81357100504077
 10
67.00077490395378
 20
-25.1524384820642
 10
67.00077490395378
 20
-25.1524384820642
 10
67.19635859316658
 20
-25.32187222057591
 10
67.19635859316658
 20
-25.32187222057591
 10
67.36282130068611
 20
-25.6776830714505
 10
67.36282130068611
 20
-25.6776830714505
 10
67.41989146059822
 20
-25.84711680996222
 10
67.41989146059822
 20
-25.84711680996222
 10
67.48779247587989
 20
-26.45707826860439
 10
67.48779247587989
 20
-26.45707826860439
 10
67.52508883065056
 20
-27.18564334420477
 10
67.52508883065056
 20
-27.18564334420477
 10
67.53722168988059
 20
-28.47333975689379
 10
67.53722168988059
 20
-28.47333975689379
 10
67.53722168988059
 20
-28.57500000000081
 10
67.53722168988059
 20
-28.57500000000081
 10
77.06805307751965
 20
-28.57500000000012
 10
77.06805307751965
 20
-28.57500000000012
 10
77.06805307751965
 20
28.57499999999987
 10
77.06805307751965
 20
28.57499999999987
 10
55.34177997893166
 20
28.57499999999987
210
0.0
220
0.0
230
-1.0
  0
LWPOLYLINE
  5
26F
330
1F
100
AcDbEntity
  8
Default Layer
 62
    18
420
        0
370
    30
100
AcDbPolyline
 90
       64
 70
     0
 43
0.0
 10
58.77315059489082
 20
8.88679958493871
 10
58.03057540243934
 20
7.514386302993821
 10
58.03057540243934
 20
7.514386302993821
 10
57.42156006878684
 20
6.311406759560655
 10
57.42156006878684
 20
6.311406759560655
 10
56.8608036596186
 20
5.125370589978713
 10
56.8608036596186
 20
5.125370589978713
 10
56.34891100114654
 20
3.956277794247902
 10
56.34891100114654
 20
3.956277794247902
 10
55.92961579746078
 20
2.90578861547533
 10
55.92961579746078
 20
2.90578861547533
 10
55.60930543726753
 20
2.02473317521444
 10
55.60930543726753
 20
2.02473317521444
 10
55.30354042834114
 20
1.092847613400062
 10
55.30354042834114
 20
1.092847613400062
 10
55.03481515830825
 20
0.1609620515856406
 10
55.03481515830825
 20
0.1609620515856406
 10
54.83119689410995
 20
-0.6523198932705423
 10
54.83119689410995
 20
-0.6523198932705423
 10
54.64375678485702
 20
-1.55031870738261
 10
54.64375678485702
 20
-1.55031870738261
 10
54.49201731866669
 20
-2.46526089534581
 10
54.49201731866669
 20
-2.46526089534581
 10
54.38990917986702
 20
-3.329372961755524
 10
54.38990917986702
 20
-3.329372961755524
 10
54.3289254385836
 20
-4.142654906611707
 10
54.3289254385836
 20
-4.142654906611707
 10
54.30427290386032
 20
-4.922050103765581
 10
54.30427290386032
 20
-4.922050103765581
 10
54.31277756279778
 20
-5.684501927068232
 10
54.31277756279778
 20
-5.684501927068232
 10
54.35691625064682
 20
-6.480840498073272
 10
54.35691625064682
 20
-6.480840498073272
 10
54.44780671781372
 20
-7.361895938334185
 10
54.44780671781372
 20
-7.361895938334185
 10
54.582879777611
 20
-8.226008004743945
 10
54.582879777611
 20
-8.226008004743945
 10
54.75405543631385
 20
-9.056233323451328
 10
54.75405543631385
 20
-9.056233323451328
 10
54.96344793623756
 20
-9.869515268307555
 10
54.96344793623756
 20
-9.869515268307555
 10
55.20257154291939
 20
-10.64891046546145
 10
55.20257154291939
 20
-10.64891046546145
 10
55.47928748315643
 20
-11.42830566261532
 10
55.47928748315643
 20
-11.42830566261532
 10
55.79742077177833
 20
-12.20770085976922
 10
55.79742077177833
 20
-12.20770085976922
 10
56.16327704376053
 20
-13.00403943077427
 10
56.16327704376053
 20
-13.00403943077427
 10
56.53937069958519
 20
-13.73260450637464
 10
56.53937069958519
 20
-13.73260450637464
 10
56.97385241574119
 20
-14.49505632967736
 10
56.97385241574119
 20
-14.49505632967736
 10
57.42386961168121
 20
-15.20667803142655
 10
57.42386961168121
 20
-15.20667803142655
 10
57.83409242218803
 20
-15.79969611621756
 10
57.83409242218803
 20
-15.79969611621756
 10
58.3590800601847
 20
-16.49437444411559
 10
58.3590800601847
 20
-16.49437444411559
 10
58.85228517836402
 20
-17.08739252890659
 10
58.85228517836402
 20
-17.08739252890659
 10
59.36511876171898
 20
-17.64652386599523
 10
59.36511876171898
 20
-17.64652386599523
 10
59.38249293404621
 20
-17.66357415562002
210
0.0
220
0.0
230
-1.0
  0
LWPOLYLINE
  5
270
330
1F
100
AcDbEntity
  8
Default Layer
 62
    18
420
        0
370
    30
100
AcDbPolyline
 90
        6
 70
     0
 43
0.0
 10
-65.09367828665583
 20
-20.72156773340491
 10
-65.11415162867378
 20
-20.74716128075962
 10
-65.11415162867378
 20
-20.74716128075962
 10
-65.19823867093397
 20
-20.92350501729391
 10
-65.19823867093397
 20
-20.92350501729391
 10
-65.34844873732399
 20
-21.23851912244359
  0
LWPOLYLINE
  5
271
330
1F
100
AcDbEntity
  8
Default Layer
 62
    18
420
        0
370
    30
100
AcDbPolyline
 90
        4
 70
     0
 43
0.0
 10
227.664773936607
 20
-14.14052334720098
 10
240.4319469224803
 20
-25.53613878632705
 10
240.4319469224803
 20
-25.53613878632705
 10
253.1991199083537
 20
-14.14052334720098
  0
LINE
  5
272
330
1F
100
AcDbEntity
  8
Default Layer
 62
    18
420
        0
370
    30
100
AcDbLine
 10
507.0647739366069
 20
-14.14052334720098
 30
0.0
 11
519.8319469224802
 21
-25.53613878632705
 31
0.0
  0
LWPOLYLINE
  5
273
330
1F
100
AcDbEntity
  8
Default Layer
 62
    18
420
        0
370
    30
100
AcDbPolyline
 90
       15
 70
     0
 43
0.0
 10
-519.8319469224802
 20
7.657855125794966
 10
-519.5211905108522
 20
7.621373078940131
 10
-519.2125611966268
 20
7.511825540639979
 10
-518.9082003290294
 20
7.329210506416239
 10
-518.6102492572854
 20
7.073525971790638
 10
-518.3208493306201
 20
6.744769932284905
 10
-518.0421418982591
 20
6.34294038342077
 10
-517.7762683094278
 20
5.868035320719959
 10
-517.5253699133515
 20
5.320052739704203
 10
-517.2915880592555
 20
4.698990635895229
 10
-517.0770640963655
 20
4.004847004814765
 10
-517.0770640963654
 20
4.004847004814766
 10
-517.0770640963654
 20
-16.50743707830435
 10
-517.0770640963654
 20
-16.50743707830435
 10
-509.3996289695437
 20
-10.20603841385426
210
0.0
220
0.0
230
-1.0
  0
ENDSEC
  0
SECTION
  2
OBJECTS
  0
DICTIONARY
  5
C
330
0
100
AcDbDictionary
281
     1
  3
ACAD_CIP_PREVIOUS_PRODUCT_INFO
350
216
  3
ACAD_COLOR
350
6B
  3
ACAD_DETAILVIEWSTYLE
350
21B
  3
ACAD_GROUP
350
D
  3
ACAD_LAYOUT
350
1A
  3
ACAD_MATERIAL
350
6A
  3
ACAD_MLEADERSTYLE
350
12D
  3
ACAD_MLINESTYLE
350
17
  3
ACAD_PLOTSETTINGS
350
19
  3
ACAD_PLOTSTYLENAME
350
E
  3
ACAD_SCALELIST
350
10C
  3
ACAD_SECTIONVIEWSTYLE
350
219
  3
ACAD_TABLESTYLE
350
7E
  3
ACAD_VISUALSTYLE
350
EF
  3
ACDB_RECOMPOSE_DATA
350
276
  3
AcDbVariableDictionary
350
5E
  3
AcDsDecomposeData
350
27C
  0
DICTIONARY
  5
1FF
330
2
100
AcDbDictionary
280
     1
281
     1
  3
ACAD_LAYERSTATES
360
200
  0
DICTIONARY
  5
13C
330
10
100
AcDbDictionary
280
     1
281
     1
  0
DICTIONARY
  5
1CE
330
1F
100
AcDbDictionary
280
     1
281
     1
  0
XRECORD
  5
216
102
{ACAD_REACTORS
330
C
102
}
330
C
100
AcDbXrecord
280
     1
300
ACD
300
2015
300

  0
DICTIONARY
  5
6B
102
{ACAD_REACTORS
330
C
102
}
330
C
100
AcDbDictionary
281
     1
  0
DICTIONARY
  5
21B
102
{ACAD_REACTORS
330
C
102
}
330
C
100
AcDbDictionary
281
     1
  3
Metric50
350
21C
  0
DICTIONARY
  5
D
102
{ACAD_REACTORS
330
C
102
}
330
C
100
AcDbDictionary
281
     1
  0
DICTIONARY
  5
1A
102
{ACAD_REACTORS
330
C
102
}
330
C
100
AcDbDictionary
281
     1
  3
Layout1
350
D3
  3
Layout2
350
D7
  3
Model
350
22
  0
DICTIONARY
  5
6A
102
{ACAD_REACTORS
330
C
102
}
330
C
100
AcDbDictionary
281
     1
  3
ByBlock
350
ED
  3
ByLayer
350
EC
  3
Global
350
EE
  0
DICTIONARY
  5
12D
102
{ACAD_REACTORS
330
C
102
}
330
C
100
AcDbDictionary
281
     1
  3
Annotative
350
13B
  3
Standard
350
12E
  0
DICTIONARY
  5
17
102
{ACAD_REACTORS
330
C
102
}
330
C
100
AcDbDictionary
281
     1
  3
Standard
350
18
  0
DICTIONARY
  5
19
102
{ACAD_REACTORS
330
C
102
}
330
C
100
AcDbDictionary
281
     1
  0
ACDBDICTIONARYWDFLT
  5
E
102
{ACAD_REACTORS
330
C
102
}
330
C
100
AcDbDictionary
281
     1
  3
Normal
350
F
100
AcDbDictionaryWithDefault
340
F
  0
DICTIONARY
  5
10C
102
{ACAD_REACTORS
330
C
102
}
330
C
100
AcDbDictionary
281
     1
  3
A0
350
10D
  3
A1
350
1BE
  3
A2
350
1BF
  3
A3
350
1C0
  3
A4
350
1C1
  3
A5
350
1C2
  3
A6
350
1C3
  3
A7
350
1C4
  3
A8
350
1C5
  3
A9
350
1C6
  3
B0
350
1C7
  3
B1
350
1C8
  3
B2
350
1C9
  3
B3
350
1CA
  3
B4
350
1CB
  3
B5
350
1CC
  3
B6
350
1CD
  0
DICTIONARY
  5
219
102
{ACAD_REACTORS
330
C
102
}
330
C
100
AcDbDictionary
281
     1
  3
Metric50
350
21A
  0
DICTIONARY
  5
7E
102
{ACAD_REACTORS
330
C
102
}
330
C
100
AcDbDictionary
281
     1
  3
Standard
350
7F
  0
DICTIONARY
  5
EF
102
{ACAD_REACTORS
330
C
102
}
330
C
100
AcDbDictionary
281
     1
  3
2dWireframe
350
F5
  3
Basic
350
F4
  3
Brighten
350
FB
  3
ColorChange
350
FF
  3
Conceptual
350
F8
  3
Dim
350
FA
  3
EdgeColorOff
350
1E6
  3
Facepattern
350
FE
  3
Flat
350
F0
  3
FlatWithEdges
350
F1
  3
Gouraud
350
F2
  3
GouraudWithEdges
350
F3
  3
Hidden
350
F7
  3
JitterOff
350
1E4
  3
Linepattern
350
FD
  3
OverhangOff
350
1E5
  3
Realistic
350
F9
  3
Shaded
350
1F3
  3
Shaded with edges
350
1F2
  3
Shades of Gray
350
1EF
  3
Sketchy
350
1F0
  3
Thicken
350
FC
  3
Wireframe
350
F6
  3
X-Ray
350
1F1
  0
XRECORD
  5
276
102
{ACAD_REACTORS
330
C
102
}
330
C
100
AcDbXrecord
280
     1
 90
        1
330
7F
  0
DICTIONARY
  5
5E
102
{ACAD_REACTORS
330
C
102
}
330
C
100
AcDbDictionary
281
     1
  3
CANNOSCALE
350
146
  3
CMLEADERSTYLE
350
145
  3
CTABLESTYLE
350
84
  3
CVIEWDETAILSTYLE
350
227
  3
CVIEWSECTIONSTYLE
350
228
  3
DIMASSOC
350
5F
  3
HIDETEXT
350
63
  3
LAYEREVAL
350
1AE
  3
LAYERNOTIFY
350
1AF
  3
XCLIPFRAME
350
274
  0
DICTIONARY
  5
27C
102
{ACAD_REACTORS
330
C
102
}
330
C
100
AcDbDictionary
281
     1
  3
AcDsRecords
350
27E
  3
AcDsSchemas
350
27D
1001
ACAD
1070
     2
  0
DICTIONARY
  5
200
102
{ACAD_REACTORS
330
1FF
102
}
330
1FF
100
AcDbDictionary
281
     1
  0
ACDBDETAILVIEWSTYLE
  5
21C
102
{ACAD_XDICTIONARY
360
236
102
}
102
{ACAD_REACTORS
330
21B
102
}
330
21B
100
AcDbModelDocViewStyle
 70
     0
  3
Metric50
290
     0
100
AcDbDetailViewStyle
 70
     0
 71
     0
 90
        3
 71
     1
340
11
 62
   256
 40
5.0
340
0
 62
   256
 40
5.0
300

 40
0.0
280
     1
 71
     2
340
16
 90
       25
 62
   256
 71
     3
340
11
 62
   256
 40
5.0
 90
        0
 40
15.0
 90
        1
300
%<\AcVar ViewDetailId>% (%<\AcVar ViewScale \f "%sn">%)
 71
     4
340
16
 90
       25
 62
   256
340
16
 90
       25
 62
   256
280
     0
  0
LAYOUT
  5
D3
102
{ACAD_REACTORS
330
1A
102
}
330
1A
100
AcDbPlotSettings
  1

  2
C:\Documents and Settings\basas\Application Data\Autodesk\AutoCAD 2005\R16.1\enu\plotters\Default Windows System Printer.pc3
  4

  6

 40
0.0
 41
0.0
 42
0.0
 43
0.0
 44
0.0
 45
0.0
 46
0.0
 47
0.0
 48
0.0
 49
0.0
140
0.0
141
0.0
142
1.0
143
1.0
 70
   688
 72
     0
 73
     0
 74
     5
  7

 75
    16
147
1.0
 76
     0
 77
     2
 78
   300
148
0.0
149
0.0
100
AcDbLayout
  1
Layout1
 70
     1
 71
     1
 10
0.0
 20
0.0
 11
12.0
 21
9.0
 12
0.0
 22
0.0
 32
0.0
 14
0.0
 24
0.0
 34
0.0
 15
0.0
 25
0.0
 35
0.0
146
0.0
 13
0.0
 23
0.0
 33
0.0
 16
1.0
 26
0.0
 36
0.0
 17
0.0
 27
1.0
 37
0.0
 76
     0
330
D2
  0
LAYOUT
  5
D7
102
{ACAD_REACTORS
330
1A
102
}
330
1A
100
AcDbPlotSettings
  1

  2
C:\Documents and Settings\basas\Application Data\Autodesk\AutoCAD 2005\R16.1\enu\plotters\Default Windows System Printer.pc3
  4

  6

 40
0.0
 41
0.0
 42
0.0
 43
0.0
 44
0.0
 45
0.0
 46
0.0
 47
0.0
 48
0.0
 49
0.0
140
0.0
141
0.0
142
1.0
143
1.0
 70
   688
 72
     0
 73
     0
 74
     5
  7

 75
    16
147
1.0
 76
     0
 77
     2
 78
   300
148
0.0
149
0.0
100
AcDbLayout
  1
Layout2
 70
     1
 71
     2
 10
0.0
 20
0.0
 11
12.0
 21
9.0
 12
0.0
 22
0.0
 32
0.0
 14
0.0
 24
0.0
 34
0.0
 15
0.0
 25
0.0
 35
0.0
146
0.0
 13
0.0
 23
0.0
 33
0.0
 16
1.0
 26
0.0
 36
0.0
 17
0.0
 27
1.0
 37
0.0
 76
     0
330
D6
  0
LAYOUT
  5
22
102
{ACAD_XDICTIONARY
360
205
102
}
102
{ACAD_REACTORS
330
1A
102
}
330
1A
100
AcDbPlotSettings
  1

  2
none_device
  4
ISO_A4_(210.00_x_297.00_MM)
  6

 40
7.5
 41
20.0
 42
7.5
 43
20.0
 44
210.0
 45
297.0
 46
11.54999923706054
 47
-13.65000009536743
 48
0.0
 49
0.0
140
0.0
141
0.0
142
1.0
143
8.704084754739808
 70
 11952
 72
     1
 73
     0
 74
     0
  7

 75
     0
147
0.1148885871608098
 76
     0
 77
     2
 78
   300
148
0.0
149
0.0
100
AcDbLayout
  1
Model
 70
     1
 71
     0
 10
0.0
 20
0.0
 11
12.0
 21
9.0
 12
0.0
 22
0.0
 32
0.0
 14
0.0
 24
0.0
 34
0.0
 15
0.0
 25
0.0
 35
0.0
146
0.0
 13
0.0
 23
0.0
 33
0.0
 16
1.0
 26
0.0
 36
0.0
 17
0.0
 27
1.0
 37
0.0
 76
     0
330
1F
331
EA
1001
ACAD_PSEXT
1000
None
1000
None
1000
Not applicable
1000
The layout will not be plotted unless a new plotter configuration name is selected.
1070
     0
  0
MATERIAL
  5
ED
102
{ACAD_XDICTIONARY
360
1F9
102
}
102
{ACAD_REACTORS
330
6A
102
}
330
6A
100
AcDbMaterial
  1
ByBlock
 94
       63
  0
MATERIAL
  5
EC
102
{ACAD_XDICTIONARY
360
1F7
102
}
102
{ACAD_REACTORS
330
6A
102
}
330
6A
100
AcDbMaterial
  1
ByLayer
 94
       63
  0
MATERIAL
  5
EE
102
{ACAD_XDICTIONARY
360
173
102
}
102
{ACAD_REACTORS
330
6A
102
}
330
6A
100
AcDbMaterial
  1
Global
 43
0.0007999999797903
 43
0.0
 43
0.0
 43
0.0
 43
0.0
 43
0.0007999999797903
 43
0.0
 43
0.0
 43
0.0
 43
0.0
 43
1.0
 43
0.0
 43
0.0
 43
0.0
 43
0.0
 43
1.0
 49
0.0007999999797903
 49
0.0
 49
0.0
 49
0.0
 49
0.0
 49
0.0007999999797903
 49
0.0
 49
0.0
 49
0.0
 49
0.0
 49
1.0
 49
0.0
 49
0.0
 49
0.0
 49
0.0
 49
1.0
142
0.0007999999797903
142
0.0
142
0.0
142
0.0
142
0.0
142
0.0007999999797903
142
0.0
142
0.0
142
0.0
142
0.0
142
1.0
142
0.0
142
0.0
142
0.0
142
0.0
142
1.0
144
0.0007999999797903
144
0.0
144
0.0
144
0.0
144
0.0
144
0.0007999999797903
144
0.0
144
0.0
144
0.0
144
0.0
144
1.0
144
0.0
144
0.0
144
0.0
144
0.0
144
1.0
 94
       63
1001
ACAD
1070
    -1
1070
     3
1070
     0
1000

1071
        0
1070
     0
  0
MLEADERSTYLE
  5
13B
102
{ACAD_REACTORS
330
12D
102
}
330
12D
100
AcDbMLeaderStyle
170
     2
171
     1
172
     0
 90
        2
 40
0.0
 41
0.0
173
     1
 91
-1056964608
340
14
 92
       -2
290
     1
 42
2.0
291
     1
 43
8.0
  3
Standard
 44
4.0
300

342
11
174
     1
178
     1
175
     1
176
     0
 93
-1056964608
 45
4.0
292
     0
297
     0
 46
4.0
 94
-1056964608
 47
1.0
 49
1.0
140
1.0
293
     1
141
0.0
294
     1
177
     0
142
1.0
295
     0
296
     1
143
3.75
1001
ACAD_MLEADERVER
1070
     2
  0
MLEADERSTYLE
  5
12E
102
{ACAD_REACTORS
330
12D
102
}
330
12D
100
AcDbMLeaderStyle
170
     2
171
     1
172
     0
 90
        2
 40
0.0
 41
0.0
173
     1
 91
-1056964608
340
14
 92
       -2
290
     1
 42
2.0
291
     1
 43
8.0
  3
Standard
 44
4.0
300

342
11
174
     1
178
     1
175
     1
176
     0
 93
-1056964608
 45
4.0
292
     0
297
     0
 46
4.0
 94
-1056964608
 47
1.0
 49
1.0
140
1.0
293
     1
141
0.0
294
     1
177
     0
142
1.0
295
     0
296
     0
143
3.75
1001
ACAD_MLEADERVER
1070
     2
  0
MLINESTYLE
  5
18
102
{ACAD_REACTORS
330
17
102
}
330
17
100
AcDbMlineStyle
  2
STANDARD
 70
     0
  3

 62
   256
 51
90.0
 52
90.0
 71
     2
 49
0.5
 62
   256
  6
BYLAYER
 49
-0.5
 62
   256
  6
BYLAYER
  0
ACDBPLACEHOLDER
  5
F
102
{ACAD_REACTORS
330
E
102
}
330
E
  0
SCALE
  5
10D
102
{ACAD_REACTORS
330
10C
102
}
330
10C
100
AcDbScale
 70
     0
300
1:1
140
1.0
141
1.0
290
     1
  0
SCALE
  5
1BE
102
{ACAD_REACTORS
330
10C
102
}
330
10C
100
AcDbScale
 70
     0
300
1:2
140
1.0
141
2.0
290
     0
  0
SCALE
  5
1BF
102
{ACAD_REACTORS
330
10C
102
}
330
10C
100
AcDbScale
 70
     0
300
1:4
140
1.0
141
4.0
290
     0
  0
SCALE
  5
1C0
102
{ACAD_REACTORS
330
10C
102
}
330
10C
100
AcDbScale
 70
     0
300
1:5
140
1.0
141
5.0
290
     0
  0
SCALE
  5
1C1
102
{ACAD_REACTORS
330
10C
102
}
330
10C
100
AcDbScale
 70
     0
300
1:8
140
1.0
141
8.0
290
     0
  0
SCALE
  5
1C2
102
{ACAD_REACTORS
330
10C
102
}
330
10C
100
AcDbScale
 70
     0
300
1:10
140
1.0
141
10.0
290
     0
  0
SCALE
  5
1C3
102
{ACAD_REACTORS
330
10C
102
}
330
10C
100
AcDbScale
 70
     0
300
1:16
140
1.0
141
16.0
290
     0
  0
SCALE
  5
1C4
102
{ACAD_REACTORS
330
10C
102
}
330
10C
100
AcDbScale
 70
     0
300
1:20
140
1.0
141
20.0
290
     0
  0
SCALE
  5
1C5
102
{ACAD_REACTORS
330
10C
102
}
330
10C
100
AcDbScale
 70
     0
300
1:30
140
1.0
141
30.0
290
     0
  0
SCALE
  5
1C6
102
{ACAD_REACTORS
330
10C
102
}
330
10C
100
AcDbScale
 70
     0
300
1:40
140
1.0
141
40.0
290
     0
  0
SCALE
  5
1C7
102
{ACAD_REACTORS
330
10C
102
}
330
10C
100
AcDbScale
 70
     0
300
1:50
140
1.0
141
50.0
290
     0
  0
SCALE
  5
1C8
102
{ACAD_REACTORS
330
10C
102
}
330
10C
100
AcDbScale
 70
     0
300
1:100
140
1.0
141
100.0
290
     0
  0
SCALE
  5
1C9
102
{ACAD_REACTORS
330
10C
102
}
330
10C
100
AcDbScale
 70
     0
300
2:1
140
2.0
141
1.0
290
     0
  0
SCALE
  5
1CA
102
{ACAD_REACTORS
330
10C
102
}
330
10C
100
AcDbScale
 70
     0
300
4:1
140
4.0
141
1.0
290
     0
  0
SCALE
  5
1CB
102
{ACAD_REACTORS
330
10C
102
}
330
10C
100
AcDbScale
 70
     0
300
8:1
140
8.0
141
1.0
290
     0
  0
SCALE
  5
1CC
102
{ACAD_REACTORS
330
10C
102
}
330
10C
100
AcDbScale
 70
     0
300
10:1
140
10.0
141
1.0
290
     0
  0
SCALE
  5
1CD
102
{ACAD_REACTORS
330
10C
102
}
330
10C
100
AcDbScale
 70
     0
300
100:1
140
100.0
141
1.0
290
     0
  0
ACDBSECTIONVIEWSTYLE
  5
21A
102
{ACAD_XDICTIONARY
360
234
102
}
102
{ACAD_REACTORS
330
219
102
}
330
219
100
AcDbModelDocViewStyle
 70
     0
  3
Metric50
290
     0
100
AcDbSectionViewStyle
 70
     0
 71
     0
 90
      102
 71
     1
340
11
 62
   256
 40
5.0
340
0
340
0
 62
   256
 40
5.0
300
I, O, Q, S, X, Z
 40
10.0
 90
        0
 40
2.5
 90
        0
 71
     2
340
16
 90
       25
 62
   256
340
16
 90
       50
 62
   256
 40
5.0
 40
2.5
 40
5.0
 71
     3
340
11
 62
   256
 40
5.0
 90
        0
 40
15.0
 90
        1
300
%<\AcVar ViewSectionStartId>%-%<\AcVar ViewSectionEndId>% (%<\AcVar ViewScale \f "%sn">%)
 71
     4
 62
   256
 62
   257
300
ANSI31
 40
1.0
 90
        0
290
     0
290
     0
 90
        6
 40
0.0
 40
1.570796326794896
 40
0.2617993877991494
 40
1.308996938995747
 40
-0.2617993877991494
 40
1.832595714594046
  0
TABLESTYLE
  5
7F
102
{ACAD_XDICTIONARY
360
162
102
}
102
{ACAD_REACTORS
330
7E
102
}
330
7E
100
AcDbTableStyle
  3
Standard
 70
     0
 71
     0
 40
1.5
 41
1.5
280
     0
281
     0
  7
Standard
140
4.5
170
     2
 62
     0
 63
     7
283
     0
 90
      512
 91
        0
  1

274
    -2
284
     1
 64
     0
275
    -2
285
     1
 65
     0
276
    -2
286
     1
 66
     0
277
    -2
287
     1
 67
     0
278
    -2
288
     1
 68
     0
279
    -2
289
     1
 69
     0
  7
Standard
140
6.0
170
     5
 62
     0
 63
     7
283
     0
 90
      512
 91
        0
  1

274
    -2
284
     1
 64
     0
275
    -2
285
     1
 65
     0
276
    -2
286
     1
 66
     0
277
    -2
287
     1
 67
     0
278
    -2
288
     1
 68
     0
279
    -2
289
     1
 69
     0
  7
Standard
140
4.5
170
     5
 62
     0
 63
     7
283
     0
 90
      512
 91
        0
  1

274
    -2
284
     1
 64
     0
275
    -2
285
     1
 65
     0
276
    -2
286
     1
 66
     0
277
    -2
287
     1
 67
     0
278
    -2
288
     1
 68
     0
279
    -2
289
     1
 69
     0
  0
VISUALSTYLE
  5
F5
102
{ACAD_XDICTIONARY
360
289
102
}
102
{ACAD_REACTORS
330
EF
102
}
330
EF
100
AcDbVisualStyle
  2
2dWireframe
 70
     4
 71
     0
 72
     2
 73
     1
 90
        0
 40
-0.6
 41
-30.0
 62
     5
 63
     7
421
 16777215
 74
     1
 91
        4
 64
     7
 65
   257
 75
     1
175
     1
 42
1.0
 92
        0
 66
   257
 43
1.0
 76
     1
 77
     6
 78
     2
 67
     7
 79
     5
170
     0
171
     0
290
     0
174
     0
 93
        1
 44
0.0
173
     0
291
     0
 45
0.0
1001
ACAD
1000
AcDbSavedByObjectVersion
1070
     0
  0
VISUALSTYLE
  5
F4
102
{ACAD_XDICTIONARY
360
287
102
}
102
{ACAD_REACTORS
330
EF
102
}
330
EF
100
AcDbVisualStyle
  2
Basic
 70
     7
 71
     1
 72
     0
 73
     1
 90
        0
 40
-0.6
 41
-30.0
 62
     5
 63
     7
421
 16777215
 74
     0
 91
        4
 64
     7
 65
   257
 75
     1
175
     1
 42
1.0
 92
        8
 66
     7
 43
1.0
 76
     1
 77
     6
 78
     2
 67
     7
 79
     5
170
     0
171
     0
290
     0
174
     0
 93
        1
 44
0.0
173
     0
291
     1
 45
0.0
1001
ACAD
1000
AcDbSavedByObjectVersion
1070
     0
  0
VISUALSTYLE
  5
FB
102
{ACAD_XDICTIONARY
360
295
102
}
102
{ACAD_REACTORS
330
EF
102
}
330
EF
100
AcDbVisualStyle
  2
Brighten
 70
    12
 71
     2
 72
     2
 73
     1
 90
        0
 40
-0.6
 41
-30.0
 62
     5
 63
     7
421
 16777215
 74
     1
 91
        4
 64
     7
 65
   257
 75
     1
175
     1
 42
1.0
 92
        8
 66
     7
 43
1.0
 76
     1
 77
     6
 78
     2
 67
     7
 79
     5
170
     0
171
     0
290
     0
174
     0
 93
        1
 44
50.0
173
     0
291
     1
 45
0.0
1001
ACAD
1000
AcDbSavedByObjectVersion
1070
     0
  0
VISUALSTYLE
  5
FF
102
{ACAD_XDICTIONARY
360
29D
102
}
102
{ACAD_REACTORS
330
EF
102
}
330
EF
100
AcDbVisualStyle
  2
ColorChange
 70
    16
 71
     2
 72
     2
 73
     3
 90
        0
 40
-0.6
 41
-30.0
 62
     5
 63
     8
421
  8421504
 74
     1
 91
        4
 64
     7
 65
   257
 75
     1
175
     1
 42
1.0
 92
        8
 66
     8
424
  8421504
 43
1.0
 76
     1
 77
     6
 78
     2
 67
     7
 79
     5
170
     0
171
     0
290
     0
174
     0
 93
        1
 44
0.0
173
     0
291
     1
 45
0.0
1001
ACAD
1000
AcDbSavedByObjectVersion
1070
     0
  0
VISUALSTYLE
  5
F8
102
{ACAD_XDICTIONARY
360
28F
102
}
102
{ACAD_REACTORS
330
EF
102
}
330
EF
100
AcDbVisualStyle
  2
Conceptual
 70
     9
 71
     3
 72
     2
 73
     1
 90
        0
 40
-0.6
 41
-30.0
 62
     5
 63
     7
421
 16777215
 74
     2
 91
        2
 64
     7
 65
   257
 75
     1
175
     1
 42
40.0
 92
        8
 66
     7
 43
1.0
 76
     1
 77
     6
 78
     2
 67
     7
 79
     3
170
     0
171
     0
290
     0
174
     0
 93
        1
 44
0.0
173
     0
291
     0
 45
0.0
1001
ACAD
1000
AcDbSavedByObjectVersion
1070
     0
  0
VISUALSTYLE
  5
FA
102
{ACAD_XDICTIONARY
360
293
102
}
102
{ACAD_REACTORS
330
EF
102
}
330
EF
100
AcDbVisualStyle
  2
Dim
 70
    11
 71
     2
 72
     2
 73
     1
 90
        0
 40
-0.6
 41
-30.0
 62
     5
 63
     7
421
 16777215
 74
     1
 91
        4
 64
     7
 65
   257
 75
     1
175
     1
 42
1.0
 92
        8
 66
     7
 43
1.0
 76
     1
 77
     6
 78
     2
 67
     7
 79
     5
170
     0
171
     0
290
     0
174
     0
 93
        1
 44
-50.0
173
     0
291
     1
 45
0.0
1001
ACAD
1000
AcDbSavedByObjectVersion
1070
     0
  0
VISUALSTYLE
  5
1E6
102
{ACAD_XDICTIONARY
360
2A3
102
}
102
{ACAD_REACTORS
330
EF
102
}
330
EF
100
AcDbVisualStyle
  2
EdgeColorOff
 70
    22
 71
     2
 72
     2
 73
     0
 90
        0
 40
-0.6
 41
-30.0
 62
     5
 63
     7
421
 16777215
 74
     1
 91
        4
 64
     7
 65
   257
 75
     1
175
     1
 42
1.0
 92
        8
 66
     7
 43
1.0
 76
     1
 77
     6
 78
     2
 67
     7
 79
     5
170
     0
171
     0
290
     0
174
     0
 93
        1
 44
0.0
173
     0
291
     1
 45
0.0
1001
ACAD
1000
AcDbSavedByObjectVersion
1070
     0
  0
VISUALSTYLE
  5
FE
102
{ACAD_XDICTIONARY
360
29B
102
}
102
{ACAD_REACTORS
330
EF
102
}
330
EF
100
AcDbVisualStyle
  2
Facepattern
 70
    15
 71
     2
 72
     2
 73
     1
 90
        0
 40
-0.6
 41
-30.0
 62
     5
 63
     7
421
 16777215
 74
     1
 91
        4
 64
     7
 65
   257
 75
     1
175
     1
 42
1.0
 92
        8
 66
     7
 43
1.0
 76
     1
 77
     6
 78
     2
 67
     7
 79
     5
170
     0
171
     0
290
     0
174
     0
 93
        1
 44
0.0
173
     0
291
     1
 45
0.0
1001
ACAD
1000
AcDbSavedByObjectVersion
1070
     0
  0
VISUALSTYLE
  5
F0
102
{ACAD_XDICTIONARY
360
27F
102
}
102
{ACAD_REACTORS
330
EF
102
}
330
EF
100
AcDbVisualStyle
  2
Flat
 70
     0
 71
     2
 72
     1
 73
     1
 90
        2
 40
-0.6
 41
30.0
 62
     5
 63
     7
421
 16777215
 74
     0
 91
        0
 64
     7
 65
   257
 75
     1
175
     1
 42
1.0
 92
        8
 66
     7
 43
1.0
 76
     1
 77
     6
 78
     2
 67
     7
 79
     5
170
     0
171
     0
290
     0
174
     0
 93
       13
 44
0.0
173
     0
291
     1
 45
0.0
1001
ACAD
1000
AcDbSavedByObjectVersion
1070
     0
  0
VISUALSTYLE
  5
F1
102
{ACAD_XDICTIONARY
360
281
102
}
102
{ACAD_REACTORS
330
EF
102
}
330
EF
100
AcDbVisualStyle
  2
FlatWithEdges
 70
     1
 71
     2
 72
     1
 73
     1
 90
        2
 40
-0.6
 41
30.0
 62
     5
 63
     7
421
 16777215
 74
     1
 91
        0
 64
     7
 65
   257
 75
     1
175
     1
 42
1.0
 92
        0
 66
   257
 43
1.0
 76
     1
 77
     6
 78
     2
 67
     7
 79
     5
170
     0
171
     0
290
     0
174
     0
 93
       13
 44
0.0
173
     0
291
     1
 45
0.0
1001
ACAD
1000
AcDbSavedByObjectVersion
1070
     0
  0
VISUALSTYLE
  5
F2
102
{ACAD_XDICTIONARY
360
283
102
}
102
{ACAD_REACTORS
330
EF
102
}
330
EF
100
AcDbVisualStyle
  2
Gouraud
 70
     2
 71
     2
 72
     2
 73
     1
 90
        2
 40
-0.6
 41
30.0
 62
     5
 63
     7
421
 16777215
 74
     0
 91
        0
 64
     7
 65
   257
 75
     1
175
     1
 42
1.0
 92
        0
 66
     7
 43
1.0
 76
     1
 77
     6
 78
     2
 67
     7
 79
     5
170
     0
171
     0
290
     0
174
     0
 93
       13
 44
0.0
173
     0
291
     1
 45
0.0
1001
ACAD
1000
AcDbSavedByObjectVersion
1070
     0
  0
VISUALSTYLE
  5
F3
102
{ACAD_XDICTIONARY
360
285
102
}
102
{ACAD_REACTORS
330
EF
102
}
330
EF
100
AcDbVisualStyle
  2
GouraudWithEdges
 70
     3
 71
     2
 72
     2
 73
     1
 90
        2
 40
-0.6
 41
30.0
 62
     5
 63
     7
421
 16777215
 74
     1
 91
        0
 64
     7
 65
   257
 75
     1
175
     1
 42
1.0
 92
        0
 66
   257
 43
1.0
 76
     1
 77
     6
 78
     2
 67
     7
 79
     5
170
     0
171
     0
290
     0
174
     0
 93
       13
 44
0.0
173
     0
291
     1
 45
0.0
1001
ACAD
1000
AcDbSavedByObjectVersion
1070
     0
  0
VISUALSTYLE
  5
F7
102
{ACAD_XDICTIONARY
360
28D
102
}
102
{ACAD_REACTORS
330
EF
102
}
330
EF
100
AcDbVisualStyle
  2
Hidden
 70
     6
 71
     1
 72
     2
 73
     2
 90
        0
 40
-0.6
 41
-30.0
 62
     5
 63
     7
421
 16777215
 74
     2
 91
        2
 64
     7
 65
   257
 75
     2
175
     1
 42
40.0
 92
        0
 66
   257
 43
1.0
 76
     1
 77
     6
 78
     2
 67
     7
 79
     3
170
     0
171
     0
290
     0
174
     0
 93
        1
 44
0.0
173
     0
291
     0
 45
0.0
1001
ACAD
1000
AcDbSavedByObjectVersion
1070
     0
  0
VISUALSTYLE
  5
1E4
102
{ACAD_XDICTIONARY
360
29F
102
}
102
{ACAD_REACTORS
330
EF
102
}
330
EF
100
AcDbVisualStyle
  2
JitterOff
 70
    20
 71
     2
 72
     2
 73
     0
 90
        0
 40
-0.6
 41
-30.0
 62
     5
 63
     7
421
 16777215
 74
     1
 91
        4
 64
     7
 65
   257
 75
     1
175
     1
 42
1.0
 92
       10
 66
     7
 43
1.0
 76
     1
 77
     6
 78
     2
 67
     7
 79
     5
170
     0
171
     0
290
     0
174
     0
 93
        1
 44
0.0
173
     0
291
     1
 45
0.0
1001
ACAD
1000
AcDbSavedByObjectVersion
1070
     0
  0
VISUALSTYLE
  5
FD
102
{ACAD_XDICTIONARY
360
299
102
}
102
{ACAD_REACTORS
330
EF
102
}
330
EF
100
AcDbVisualStyle
  2
Linepattern
 70
    14
 71
     2
 72
     2
 73
     1
 90
        0
 40
-0.6
 41
-30.0
 62
     5
 63
     7
421
 16777215
 74
     1
 91
        4
 64
     7
 65
   257
 75
     7
175
     7
 42
1.0
 92
        8
 66
     7
 43
1.0
 76
     1
 77
     6
 78
     2
 67
     7
 79
     5
170
     0
171
     0
290
     0
174
     0
 93
        1
 44
0.0
173
     0
291
     1
 45
0.0
1001
ACAD
1000
AcDbSavedByObjectVersion
1070
     0
  0
VISUALSTYLE
  5
1E5
102
{ACAD_XDICTIONARY
360
2A1
102
}
102
{ACAD_REACTORS
330
EF
102
}
330
EF
100
AcDbVisualStyle
  2
OverhangOff
 70
    21
 71
     2
 72
     2
 73
     0
 90
        0
 40
-0.6
 41
-30.0
 62
     5
 63
     7
421
 16777215
 74
     1
 91
        4
 64
     7
 65
   257
 75
     1
175
     1
 42
1.0
 92
        9
 66
     7
 43
1.0
 76
     1
 77
     6
 78
     2
 67
     7
 79
     5
170
     0
171
     0
290
     0
174
     0
 93
        1
 44
0.0
173
     0
291
     1
 45
0.0
1001
ACAD
1000
AcDbSavedByObjectVersion
1070
     0
  0
VISUALSTYLE
  5
F9
102
{ACAD_XDICTIONARY
360
291
102
}
102
{ACAD_REACTORS
330
EF
102
}
330
EF
100
AcDbVisualStyle
  2
Realistic
 70
     8
 71
     2
 72
     3
 73
     0
 90
        2
 40
-0.6
 41
30.0
 62
     5
 63
     7
421
 16777215
 74
     0
 91
        0
 64
     7
 65
   257
 75
     1
175
     1
 42
1.0
 92
        8
 66
   257
 43
1.0
 76
     1
 77
     6
 78
     2
 67
     7
 79
     3
170
     0
171
     0
290
     0
174
     0
 93
       13
 44
0.0
173
     0
291
     0
 45
0.0
1001
ACAD
1000
AcDbSavedByObjectVersion
1070
     0
  0
VISUALSTYLE
  5
1F3
102
{ACAD_XDICTIONARY
360
2AD
102
}
102
{ACAD_REACTORS
330
EF
102
}
330
EF
100
AcDbVisualStyle
  2
Shaded
 70
    27
 71
     2
 72
     2
 73
     1
 90
        2
 40
-0.6
 41
30.0
 62
     5
 63
     7
421
 16777215
 74
     0
 91
        4
 64
     7
 65
   257
 75
     1
175
     1
 42
1.0
 92
        8
 66
   257
 43
1.0
 76
     1
 77
     6
 78
     2
 67
     8
425
  7895160
 79
     3
170
     0
171
     0
290
     0
174
     0
 93
        5
 44
0.0
173
     0
291
     0
 45
0.0
1001
ACAD
1000
AcDbSavedByObjectVersion
1070
     0
  0
VISUALSTYLE
  5
1F2
102
{ACAD_XDICTIONARY
360
2AB
102
}
102
{ACAD_REACTORS
330
EF
102
}
330
EF
100
AcDbVisualStyle
  2
Shaded with edges
 70
    26
 71
     2
 72
     2
 73
     1
 90
        2
 40
-0.6
 41
30.0
 62
     5
 63
     7
421
 16777215
 74
     1
 91
       10
 64
     7
 65
   257
 75
     2
175
     1
 42
1.0
 92
        8
 66
   257
 43
1.0
 76
     1
 77
     6
 78
     2
 67
     7
 79
     3
170
     0
171
     0
290
     0
174
     0
 93
        5
 44
0.0
173
     0
291
     0
 45
0.0
1001
ACAD
1000
AcDbSavedByObjectVersion
1070
     0
  0
VISUALSTYLE
  5
1EF
102
{ACAD_XDICTIONARY
360
2A5
102
}
102
{ACAD_REACTORS
330
EF
102
}
330
EF
100
AcDbVisualStyle
  2
Shades of Gray
 70
    23
 71
     2
 72
     2
 73
     3
 90
        0
 40
-0.6
 41
-30.0
 62
     5
 63
     7
421
 16777215
 74
     2
 91
        2
 64
     7
 65
     7
 75
     1
175
     1
 42
40.0
 92
        8
 66
     7
 43
1.0
 76
     1
 77
     6
 78
     2
 67
     7
 79
     3
170
     0
171
     0
290
     0
174
     0
 93
        1
 44
0.0
173
     0
291
     0
 45
0.0
1001
ACAD
1000
AcDbSavedByObjectVersion
1070
     0
  0
VISUALSTYLE
  5
1F0
102
{ACAD_XDICTIONARY
360
2A7
102
}
102
{ACAD_REACTORS
330
EF
102
}
330
EF
100
AcDbVisualStyle
  2
Sketchy
 70
    24
 71
     1
 72
     2
 73
     2
 90
        0
 40
-0.6
 41
-30.0
 62
     5
 63
     7
421
 16777215
 74
     2
 91
        2
 64
     7
 65
     7
 75
     1
175
     1
 42
40.0
 92
       11
 66
     7
 43
1.0
 76
     1
 77
     6
 78
     2
 67
     7
 79
     6
170
     0
171
     0
290
     0
174
     0
 93
        1
 44
0.0
173
     0
291
     0
 45
0.0
1001
ACAD
1000
AcDbSavedByObjectVersion
1070
     0
  0
VISUALSTYLE
  5
FC
102
{ACAD_XDICTIONARY
360
297
102
}
102
{ACAD_REACTORS
330
EF
102
}
330
EF
100
AcDbVisualStyle
  2
Thicken
 70
    13
 71
     2
 72
     2
 73
     1
 90
        0
 40
-0.6
 41
-30.0
 62
     5
 63
     7
421
 16777215
 74
     1
 91
        4
 64
     7
 65
   257
 75
     1
175
     1
 42
1.0
 92
       12
 66
     7
 43
1.0
 76
     1
 77
     6
 78
     2
 67
     7
 79
     5
170
     0
171
     0
290
     0
174
     0
 93
        1
 44
0.0
173
     0
291
     1
 45
0.0
1001
ACAD
1000
AcDbSavedByObjectVersion
1070
     0
  0
VISUALSTYLE
  5
F6
102
{ACAD_XDICTIONARY
360
28B
102
}
102
{ACAD_REACTORS
330
EF
102
}
330
EF
100
AcDbVisualStyle
  2
Wireframe
 70
     5
 71
     0
 72
     2
 73
     0
 90
        0
 40
-0.6
 41
-30.0
 62
     5
 63
     7
421
 16777215
 74
     1
 91
        4
 64
     7
 65
   257
 75
     1
175
     1
 42
1.0
 92
        0
 66
   257
 43
1.0
 76
     1
 77
     6
 78
     2
 67
     7
 79
     3
170
     0
171
     0
290
     0
174
     0
 93
        1
 44
0.0
173
     0
291
     0
 45
0.0
1001
ACAD
1000
AcDbSavedByObjectVersion
1070
     0
  0
VISUALSTYLE
  5
1F1
102
{ACAD_XDICTIONARY
360
2A9
102
}
102
{ACAD_REACTORS
330
EF
102
}
330
EF
100
AcDbVisualStyle
  2
X-Ray
 70
    25
 71
     2
 72
     2
 73
     1
 90
        1
 40
0.5
 41
-30.0
 62
     5
 63
     7
421
 16777215
 74
     1
 91
        0
 64
     7
 65
   257
 75
     1
175
     1
 42
1.0
 92
        8
 66
     7
 43
1.0
 76
     1
 77
     6
 78
     2
 67
     7
 79
     3
170
     0
171
     0
290
     0
174
     0
 93
       13
 44
0.0
173
     0
291
     0
 45
0.0
1001
ACAD
1000
AcDbSavedByObjectVersion
1070
     0
  0
DICTIONARYVAR
  5
146
102
{ACAD_REACTORS
330
5E
102
}
330
5E
100
DictionaryVariables
280
     0
  1
1:1
  0
DICTIONARYVAR
  5
145
102
{ACAD_REACTORS
330
5E
102
}
330
5E
100
DictionaryVariables
280
     0
  1
STANDARD
  0
DICTIONARYVAR
  5
84
102
{ACAD_REACTORS
330
5E
102
}
330
5E
100
DictionaryVariables
280
     0
  1
STANDARD
  0
DICTIONARYVAR
  5
227
102
{ACAD_REACTORS
330
5E
102
}
330
5E
100
DictionaryVariables
280
     0
  1
Metric50
  0
DICTIONARYVAR
  5
228
102
{ACAD_REACTORS
330
5E
102
}
330
5E
100
DictionaryVariables
280
     0
  1
Metric50
  0
DICTIONARYVAR
  5
5F
102
{ACAD_REACTORS
330
5E
102
}
330
5E
100
DictionaryVariables
280
     0
  1
2
  0
DICTIONARYVAR
  5
63
102
{ACAD_REACTORS
330
5E
102
}
330
5E
100
DictionaryVariables
280
     0
  1
1
  0
DICTIONARYVAR
  5
1AE
102
{ACAD_REACTORS
330
5E
102
}
330
5E
100
DictionaryVariables
280
     0
  1
0
  0
DICTIONARYVAR
  5
1AF
102
{ACAD_REACTORS
330
5E
102
}
330
5E
100
DictionaryVariables
280
     0
  1
0
  0
DICTIONARYVAR
  5
274
102
{ACAD_REACTORS
330
5E
102
}
330
5E
100
DictionaryVariables
280
     0
  1
2
  0
DICTIONARY
  5
27E
102
{ACAD_REACTORS
330
27C
102
}
330
27C
100
AcDbDictionary
281
     1
  0
DICTIONARY
  5
27D
102
{ACAD_REACTORS
330
27C
102
}
330
27C
100
AcDbDictionary
281
     1
  3
140699111546736
350
277
  3
140699111546880
350
278
  3
140699111546896
350
279
  3
140699111546912
350
27A
  3
140699111546928
350
27B
  0
DICTIONARY
  5
236
330
21C
100
AcDbDictionary
280
     1
281
     1
  3
ACAD_XREC_ROUNDTRIP
360
2B0
  0
DICTIONARY
  5
205
330
22
100
AcDbDictionary
280
     1
281
     1
  0
DICTIONARY
  5
1F9
330
ED
100
AcDbDictionary
280
     1
281
     1
  3
FBXASSET
360
1FA
  0
DICTIONARY
  5
1F7
330
EC
100
AcDbDictionary
280
     1
281
     1
  3
FBXASSET
360
1F8
  0
DICTIONARY
  5
173
330
EE
100
AcDbDictionary
280
     1
281
     1
  3
BUMPTILE
360
175
  3
DIFFUSETILE
360
174
  3
FBXASSET
360
1FB
  3
OPACITYTILE
360
176
  3
REFLECTIONTILE
360
177
  0
DICTIONARY
  5
234
330
21A
100
AcDbDictionary
280
     1
281
     1
  3
ACAD_XREC_ROUNDTRIP
360
2AF
  0
DICTIONARY
  5
162
330
7F
100
AcDbDictionary
280
     1
281
     1
  3
ACAD_ROUNDTRIP_2008_TABLESTYLE_CELLSTYLEMAP
360
275
  0
DICTIONARY
  5
289
330
F5
100
AcDbDictionary
280
     1
281
     1
  3
ACAD_XREC_ROUNDTRIP
360
28A
  0
DICTIONARY
  5
287
330
F4
100
AcDbDictionary
280
     1
281
     1
  3
ACAD_XREC_ROUNDTRIP
360
288
  0
DICTIONARY
  5
295
330
FB
100
AcDbDictionary
280
     1
281
     1
  3
ACAD_XREC_ROUNDTRIP
360
296
  0
DICTIONARY
  5
29D
330
FF
100
AcDbDictionary
280
     1
281
     1
  3
ACAD_XREC_ROUNDTRIP
360
29E
  0
DICTIONARY
  5
28F
330
F8
100
AcDbDictionary
280
     1
281
     1
  3
ACAD_XREC_ROUNDTRIP
360
290
  0
DICTIONARY
  5
293
330
FA
100
AcDbDictionary
280
     1
281
     1
  3
ACAD_XREC_ROUNDTRIP
360
294
  0
DICTIONARY
  5
2A3
330
1E6
100
AcDbDictionary
280
     1
281
     1
  3
ACAD_XREC_ROUNDTRIP
360
2A4
  0
DICTIONARY
  5
29B
330
FE
100
AcDbDictionary
280
     1
281
     1
  3
ACAD_XREC_ROUNDTRIP
360
29C
  0
DICTIONARY
  5
27F
330
F0
100
AcDbDictionary
280
     1
281
     1
  3
ACAD_XREC_ROUNDTRIP
360
280
  0
DICTIONARY
  5
281
330
F1
100
AcDbDictionary
280
     1
281
     1
  3
ACAD_XREC_ROUNDTRIP
360
282
  0
DICTIONARY
  5
283
330
F2
100
AcDbDictionary
280
     1
281
     1
  3
ACAD_XREC_ROUNDTRIP
360
284
  0
DICTIONARY
  5
285
330
F3
100
AcDbDictionary
280
     1
281
     1
  3
ACAD_XREC_ROUNDTRIP
360
286
  0
DICTIONARY
  5
28D
330
F7
100
AcDbDictionary
280
     1
281
     1
  3
ACAD_XREC_ROUNDTRIP
360
28E
  0
DICTIONARY
  5
29F
330
1E4
100
AcDbDictionary
280
     1
281
     1
  3
ACAD_XREC_ROUNDTRIP
360
2A0
  0
DICTIONARY
  5
299
330
FD
100
AcDbDictionary
280
     1
281
     1
  3
ACAD_XREC_ROUNDTRIP
360
29A
  0
DICTIONARY
  5
2A1
330
1E5
100
AcDbDictionary
280
     1
281
     1
  3
ACAD_XREC_ROUNDTRIP
360
2A2
  0
DICTIONARY
  5
291
330
F9
100
AcDbDictionary
280
     1
281
     1
  3
ACAD_XREC_ROUNDTRIP
360
292
  0
DICTIONARY
  5
2AD
330
1F3
100
AcDbDictionary
280
     1
281
     1
  3
ACAD_XREC_ROUNDTRIP
360
2AE
  0
DICTIONARY
  5
2AB
330
1F2
100
AcDbDictionary
280
     1
281
     1
  3
ACAD_XREC_ROUNDTRIP
360
2AC
  0
DICTIONARY
  5
2A5
330
1EF
100
AcDbDictionary
280
     1
281
     1
  3
ACAD_XREC_ROUNDTRIP
360
2A6
  0
DICTIONARY
  5
2A7
330
1F0
100
AcDbDictionary
280
     1
281
     1
  3
ACAD_XREC_ROUNDTRIP
360
2A8
  0
DICTIONARY
  5
297
330
FC
100
AcDbDictionary
280
     1
281
     1
  3
ACAD_XREC_ROUNDTRIP
360
298
  0
DICTIONARY
  5
28B
330
F6
100
AcDbDictionary
280
     1
281
     1
  3
ACAD_XREC_ROUNDTRIP
360
28C
  0
DICTIONARY
  5
2A9
330
1F1
100
AcDbDictionary
280
     1
281
     1
  3
ACAD_XREC_ROUNDTRIP
360
2AA
  0
XRECORD
  5
277
102
{ACAD_REACTORS
330
27D
102
}
330
27D
100
AcDbXrecord
280
     1
  1
AcDb_Thumbnail_Schema
102
{ATTRRECORD
341
278
  2
AcDbDs::TreatedAsObjectData
280
     1
291
     1
102
ATTRRECORD}
102
{ATTRRECORD
341
279
  2
AcDbDs::Legacy
280
     1
291
     1
102
ATTRRECORD}
  2
AcDbDs::ID
280
    10
 91
        8
102
{ATTRRECORD
341
27A
  2
AcDs:Indexable
280
     1
291
     1
102
ATTRRECORD}
102
{ATTRRECORD
341
27B
  2
AcDbDs::HandleAttribute
280
     7
282
     1
102
ATTRRECORD}
  2
Thumbnail_Data
280
    15
 91
        0
  0
XRECORD
  5
278
102
{ACAD_REACTORS
330
27D
102
}
330
27D
100
AcDbXrecord
280
     1
  1
AcDbDs::TreatedAsObjectDataSchema
  2
AcDbDs::TreatedAsObjectData
280
     1
 91
        0
  0
XRECORD
  5
279
102
{ACAD_REACTORS
330
27D
102
}
330
27D
100
AcDbXrecord
280
     1
  1
AcDbDs::LegacySchema
  2
AcDbDs::Legacy
280
     1
 91
        0
  0
XRECORD
  5
27A
102
{ACAD_REACTORS
330
27D
102
}
330
27D
100
AcDbXrecord
280
     1
  1
AcDbDs::IndexedPropertySchema
  2
AcDs:Indexable
280
     1
 91
        0
  0
XRECORD
  5
27B
102
{ACAD_REACTORS
330
27D
102
}
330
27D
100
AcDbXrecord
280
     1
  1
AcDbDs::HandleAttributeSchema
  2
AcDbDs::HandleAttribute
280
     7
 91
        1
284
     1
  0
XRECORD
  5
2B0
102
{ACAD_REACTORS
330
236
102
}
330
236
100
AcDbXrecord
280
     1
102
DISPLAYNAME
  1
Metric50
102
FLAGS
 90
        0
  0
XRECORD
  5
1FA
102
{ACAD_REACTORS
330
1F9
102
}
330
1F9
100
AcDbXrecord
280
     1
 70
     1
 90
429727718
  1
D62C5603-E3A1-4AEA-B7FB-FE5D8D0755AF
310
504B03040A0000080000CC70623B3DEE336E79000000790000001B0000006175746F6465736B2D64657369676E2D7061636B6167652E786D6C3C3F786D6C2076657273696F6E3D22312E302220656E636F64696E673D227574662D3822203F3E3C666F726D6174733E3C666F726D61743E687474703A2F2F736368656D612E
310
6175746F6465736B2E636F6D2F64657369676E2D7061636B6167652F323030393C2F666F726D61743E3C2F666F726D6174733E504B0304140006080800CC70623BD486FD9CA0000000F4000000130000005B436F6E74656E745F54797065735D2E786D6C7D8EC10E82300C865F65E91D8A1E8C310C0EEA1BF002731658846E
310
D98AC1B77784ABF1D8FE5FBFBF75BBCE937A534CCEB38643598122B6FEE978D0B0485F9C41B54DDD7D022595594E1A469170414C76A4D9A4D207E29CF43ECE46F218070CC6BECC4078ACAA135ACF422C856C0E68EA1BF5669944DDD7BCDE7B1F8E415D77AECB980613C2E4AC91FC167A2B244592486606FC29C8FD7F045B9A
310
EF7053A7E60B504B0304140006080800CC70623B853B8169EB0000007C01000008000000636F72652E786D6C8D90416EC3201045AF62CDB6C206821CC7C244919D9CA01740401C94182C03558F5F9C3852BBEB6A467FFE9B197D7EFC9E1EC5975982F5AE035262288C535E5B377690E21535501C055FBC8FBF6C503839990E
310
5619041F179FE64D52DE45E362569DD7661365082642A11EB9E920A89B99642953CC8E702F67A9EE7234257977194EC9EAE275C4EABCCF5EAD5940D4AC6F0E35A568B8F43562CD7046CD199FD07E60174276A7BE677B5EADB0E0D14EEFFB6A31321A0D82627C4084204C3F096B71DD52F6819B16635EADF63F509AF53FA164
310
5DDCD1EDDD17164090FCC8732078B56691CB33A85CD7DCC40F504B0304140006080800CC70623B55019EA25F0000007C00000007000000636E782E786D6C4DCB3B0E80201045D1AD90E915ED2CF8AC45050C11660C8261F98AB1B07AC9C97D42D718D865D3E909258CFD00CCE24AC6E326A164D74DC0B4128928FF32603847
310
2BA13128B1252AC747C6BAB984FC68F0B87FE8960A5C09FE86CFB69FBA01504B0304140006080800CC70623BDBABAAF470010000D40300000C0000006662782F636F72652E786D6CC553D16E823014FD95A6AF4B694182CC941A83FA05FB810A9511A125A5257EFE2E82712ECEB8A7F100CD39F7F69E734AF9FADC366850B6
310
AF8DCE7018308C942E4C59EB2AC3DE1D498AD15A706B8CFB56869196ADCAF00863C12B6B7C374385D14E6907A836A59A41D9F7CA615434B0C8705F7CAA5606D23BA8E84F41278B93AC54100640439DE0BDB320004D43C63716C7C399D30917DCFBBA9CD9BA8469F5B156168B24CED3F7248AC8769F27244EB73B92EED8862C
310
B7F13E0C179B3C8F979C8ECD82BBBABDAA2BAC924E9558448CBD9330242CFA08E3154B5651FCC6D215639C8EE5774DBE2B5F6CF2B5768B68963BB5F5588420E442FC700B1139D4CB01F450C1E918227C2E09DF070D8140C84E1E9AAB8F1340832A9CB13130A5F1376A908D57309505ECF2A0DF179C4E9D30F5B239B87E3823
310
7A79C6F31DE1A8A5AEC08474B03C7837EAE4938639B44E5932B833D2C6B6B279CDC613877FA26EE21F4A2A4C63EC7F29A2F301D1F9F7A0E37D145F504B0304140006080800CC70623B9C113CC27E0000009D0000000B0000006662782F636E782E786D6C4DCCDF0A83201C86E15B91DFB94BFB330DD428C8FB886521330DA7
310
6397BF1A1DECE883878F57749FCDA1B7892F1BBC047A23808C7F84D9FA55424E0BE6803A256208E9EF06C84F9B91703228B1C690F78B66B34CD9A5439DF5CF0BFBF65E35BCA1B8D6A5C6F540381E886698B5741C695F9503EBA150A2F8958E3DC3EA0B504B0304140006080800CC70623B7DF2F77C2A010000120200003100
310
00006662782F41393633353835312D344632462D344230382D423046372D3739314545314133324237412F636F72652E786D6C8D51DB8EC22014FC15C2939B0D2DB4B45643319AE817EC0F6041255A68B86CFCFC856D4D76DF7CE190393373060EDB3DC707F856CE6B6B7A480A0C81328395DA5C7B18C3057510EC3873D686
310
3F34088C18550F330C39BB3A1BA7051AAC09CA84841A2BD5020AEF55806078A44B0FFD7053A328440C89E1EFC52486BBB8AA8214A99D789CF9E05200300FC927E4FB4D5B375D43103D5527440FB843077C5AA3F5861C8F645F5787F59E95B390B318B55CE45AA638FAA2957BD7248B390B7A7CC51F9C124149C82B8C378810
310
84AB2F42B7B8DD56F413775B8C5999E9FF4471926F8AA236A1AE96B8B3CC434E5839373893369E1FAF30EA395917409EB7F26AF8801C171837A4A6AC9C89E9F9C9B1A58BA30FD6A5EF5DDDCF894B9AD9B6A59C957943A9FCAE2FD5BC4DFE03504B0304140006080800CC70623BAD7543B64E01000033030000300000006662
310
782F41393633353835312D344632462D344230382D423046372D3739314545314133324237412F636E782E786D6CD593CD6EC32010845F0571AD6CE3D48AD20813A9873E410FBD12D82434182C7EAAE6EDBB2424CD25871E7B41D6EC30B3FA84F9E67BB2E40B4234DE8DB46F1925E094D7C6ED479AD3AE5951B2113C789FEE
310
6C943839C1488B4C05DF079FE72A69D8C96C13AAD6B8631503449F83828872B949AC57D26200B826A308D316B4064D6E46FCDA41C05550DC9E483A00797BFD207EFB092A45DE9514C1BBD22178396BD39D891265658C238DEA00936C654E5E433CB65A26D9F6EDB5EBC14EBF49A45CB856E66048291F6939A9A81BB5C89177
310
38143CA680F4AA299D66A042CEB3354A2684DC9D8D178FE0D9B8B41CAAD720F880EE7EF93C0C18769E099ECC04D5A102C8049A8A05632F4DDF376CF1DE0F6BB65C2F8627B65A33C6BB62177CEBBDAD973006829F89F22E814B54F4BC2BE347F8AA8F681390B50FA73F804400B5F542E796F19FF974E7F78DB802FE05E20750
310
4B0304140006080800CC70623BE75B7789680500003C100000340000006662782F41393633353835312D344632462D344230382D423046372D3739314545314133324237412F6F626A656374732E786D6CAD575B8F9B3818FD2B887D06C22499CB8AA1CA655245D5B455A356FB305264C061D8018C6C3393D95FBFC7600890
310
A4CD5EF210B0B1BFEBF98E3F7B1FF6596ABC522E1296DF9BAE3D320D9A872C4AF2F8DE2CE5CEBA358D0FBEC719939D65A691938CDE9B6ADAF4BD98B3B2D05311DD91329583D9D5FC0F438434A7A611A644887B5384CF34233629258BA878B12322891DEFF6B66BD70BFB62634E8AE781D082709A4B588AF91C528CDA28B73F
310
1C998EEF39EABBEFA97FBD6A7C7E9553F9D3D79FE442923C3C523610337627CB87ABE99D359D4CC6D6E4FACAB5E6ABF9D2726FC6A3C5F56271377BB88362213924694B38DD99FE47C48627A1E7D49F5A8BB5E1A74C0A599ED3B0F21F1E56366B89112D681E218F0915D0D6F17AD41FBA2A369DCF6335D62ABBD39779D5DDD1
310
11D4D8DE3CBB96B2E04FB8202E41051754A1AA8E8F76B4C6DFE810B580B1547F4B84911149794252234D024EF8BBE963A95AE27B3D310A9D5C215C7960FAEE415ED75694C6AFB17BCACA5D99A60A9AA65F217B0BFC53292ACB92BF283FAD0D3621576592CB5BED907C2FA8E9DF794E35E97BEA31BED21FEB401ABB94C44839
310
DCACBF0E1C5DA8DA5B2F4DFFD32AD86F543D9E565E7056502E157C00AD2671CD534549AB752FCA9CDA00677A313F04E51B22FF19E57B300579E3C97EB29F682D92935CEC18CF901B7B54FD8C51F362B56FC72FE0B3C1EAE335EDCCBF5AEC39ADB17DC238973F804BA5E6F6BFE7AF1FB32E523BE9F3BD571418E3631DCA4D48
310
5250CF639223210A9446CA30052EDF057BD35F8329C1ECD84552BF0DC8D18BE7BCE23BFE6BD960AB4A7DE79923A103BEBD80F911CBAA2C60DB19B01CF164A5583B772EE6D3FFA56666CBCDA74DC97724A48F9A58967497E489C4D979006FD7A05E227A1EBDD0F737C623387A9C844D3709995625106D157315F8B8392CD4E0
310
A0B9A720C4BE9829CEF37EA1E13111214D53925356365ADA634861B52519DD27A00AEB808EAF0628E6F435519D446F45CF2C9CF5214F0A15B2F6D06B79DA3EE3CBF7F56780D2F4E7EF73A0F5E5B02A38D07DC852C6B7C1FBB6664213E0C39E3EBA7FF4E1AD23EA2829407C85E586727488B751B2DB9502BC7B228A3FD68B6E
310
A65A22397E690AA8D158D7E404EC8CDA235CC3B7D1898680131CEC2CDF2638C65196279577750F15884AEE19F94199155B92B13297978469D4F8D358DF0AEF7631E28DC8F0D9F437D5D39A83B2231A1D52D543813A824EF8D44BCFF2FA6A31BD1E8DAD87F1CCB526B3879935BF59CDADD5C37479BB1CDD4CA7B3556B516589
310
EF352754B706114D9C885EC9131DE6EFEB43D99AFE2391C2F958179413D7CFEF6B1B6DB1E7600F00DE6E5C67454A339A4BA2E0FBA85ED26F045D454F463DBFCE484C2F90F2E5E3666003662ED8F755951A7D1BECD5B30B550B2785C8E7320B7292A4838DDA71BBC863ED7613CAF659337A3354231D4FF4A182A54904C2898C
310
98B28C4AD0CE056CCF332A80986E571EE9DBC305BB5FEB7E509220A58D25CF042D712A806AC0AD0C657FDEF80D2D9CEAA2EE4D1C76F60BFE74219A06527D6F82DF6412526107381E55E353090704D085B52408A8913C4ED159D79BDA71BB4BC506F4831350EB6F975CD22D69BF7AC49B91A2C0A9DDA3D5CA36AD20FC478E37
310
E61844E2352865EBCB61A275A65283CAAA9DD27703B4102F5AF51EF5F573B75CBB5AD38BC845F7A49F82A0966A49C2E3EA5EA0ECD326CD965F1DB402C6FA8B51A4658C5C5E2EC9E214602E55810345408596591009A82E7E7FFACA19EEA299B14A0081A705CB3296EBC14CDF658DCD336EA6D1136881AAEB87B81AB9EE53D5
310
F5EB8BC8362082DA24122F98680A4E7930C01A0079749CEA14382A0783E5EBA5A10F8C098456A03D6A4AEB6BB881E2513747552A5DB22C7EDAF83BD5528081A365F7FF06504B0304140006080000CC70623B000000000000000000000000350000006662782F41393633353835312D344632462D344230382D423046372D37
310
39314545314133324237412F76657274696365732E62696E504B0304140006080800CC70623BF270F1330600000004000000360000006662782F41393633353835312D344632462D344230382D423046372D3739314545314133324237412F747269616E676C65732E62696E636660600000504B0304140006080000CC7062
310
3B000000000000000000000000370000006662782F41393633353835312D344632462D344230382D423046372D3739314545314133324237412F617474726962757465732E62696E504B0304140006080800CC70623B08DA0BD19000000041010000360000006662782F41393633353835312D344632462D344230382D4230
310
46372D3739314545314133324237412F6469726563746F72792E786D6C858F410AC3201045AF22B36F53E9A60B35CBEEBAE80D244E44489C6234F4F835464A48035D0DF398FF9F8AF63D0E6CC63039F212F8F9020C7D47C6792B21C5FE7403D62A1188E2E60C98D7234A5830286103A55745067B9D86B8A3CF9C7F90C11DE6
310
07FB144396D7B6A82D282E9A152AD114D5EF2CB866EEE831B8EEA07A7BB5A8D7D61A2BAAEB7FD5F70921FF497D00504B0304140006080800CC70623BEDD1DC58FD000000A00100003B0000006662782F41393633353835312D344632462D344230382D423046372D3739314545314133324237412F7265736F75726365732F
310
636F72652E786D6C8D504B6E833010BD0A9A6D65B00922041947112427E8052C33A156828DFCA97AFC9A40A576D7CDCCE87D344F8F9FBFE667F689CE6B6B3A6039850C8DB2A336530731DC4903D95970676DF82583CCC8193B5861107C72362E3BA4AC096842428D1D7107A5F7182053CF7474E0D507CE32973124857FE48B
310
540F3961CEF244279DE03EB81420DB9EAC1384436FA353E879B1B182C7A8C75DA3C7F453DF353A1075D537A7BA6464B8F535A99AE14A9A2BBD90E350DD183B5CFABE3AF262350B1EF4FC9351399401471025A527C218A1E53BAB5A5AB765F5469B96525EACF23FA6B88CFF34456DC2A1DCE36E360F82A5202F42F062ED2BAD
310
579969AFDD8A6F504B010214000A0000080000CC70623B3DEE336E79000000790000001B00000000000000000000000000000000006175746F6465736B2D64657369676E2D7061636B6167652E786D6C504B01021400140006080800CC70623BD486FD9CA0000000F40000001300000000000000000000000000B20000005B
310
436F6E74656E745F54797065735D2E786D6C504B01021400140006080800CC70623B853B8169EB0000007C010000080000000000000000000000000083010000636F72652E786D6C504B01021400140006080800CC70623B55019EA25F0000007C000000070000000000000000000000000094020000636E782E786D6C504B
310
01021400140006080800CC70623BDBABAAF470010000D40300000C00000000000000000000000000180300006662782F636F72652E786D6C504B01021400140006080800CC70623B9C113CC27E0000009D0000000B00000000000000000000000000B20400006662782F636E782E786D6C504B01021400140006080800CC70
310
623B7DF2F77C2A010000120200003100000000000000000000000000590500006662782F41393633353835312D344632462D344230382D423046372D3739314545314133324237412F636F72652E786D6C504B01021400140006080800CC70623BAD7543B64E010000330300003000000000000000000000000000D2060000
310
6662782F41393633353835312D344632462D344230382D423046372D3739314545314133324237412F636E782E786D6C504B01021400140006080800CC70623BE75B7789680500003C10000034000000000000000000000000006E0800006662782F41393633353835312D344632462D344230382D423046372D3739314545
310
314133324237412F6F626A656374732E786D6C504B01021400140006080000CC70623B0000000000000000000000003500000000000000000000000000280E00006662782F41393633353835312D344632462D344230382D423046372D3739314545314133324237412F76657274696365732E62696E504B01021400140006
310
080800CC70623BF270F133060000000400000036000000000000000000000000007B0E00006662782F41393633353835312D344632462D344230382D423046372D3739314545314133324237412F747269616E676C65732E62696E504B01021400140006080000CC70623B0000000000000000000000003700000000000000
310
000000000000D50E00006662782F41393633353835312D344632462D344230382D423046372D3739314545314133324237412F617474726962757465732E62696E504B01021400140006080800CC70623B08DA0BD1900000004101000036000000000000000000000000002A0F00006662782F41393633353835312D344632
310
462D344230382D423046372D3739314545314133324237412F6469726563746F72792E786D6C504B01021400140006080800CC70623BEDD1DC58FD000000A00100003B000000000000000000000000000E1000006662782F41393633353835312D344632462D344230382D423046372D3739314545314133324237412F7265
310
736F75726365732F636F72652E786D6C504B0506000000000E000E0080040000641100000000
  0
XRECORD
  5
1F8
102
{ACAD_REACTORS
330
1F7
102
}
330
1F7
100
AcDbXrecord
280
     1
 70
     1
 90
429727718
  1
30362254-06B7-45E0-A893-8CFA70E3D6BC
310
504B03040A0000080000CC70623B3DEE336E79000000790000001B0000006175746F6465736B2D64657369676E2D7061636B6167652E786D6C3C3F786D6C2076657273696F6E3D22312E302220656E636F64696E673D227574662D3822203F3E3C666F726D6174733E3C666F726D61743E687474703A2F2F736368656D612E
310
6175746F6465736B2E636F6D2F64657369676E2D7061636B6167652F323030393C2F666F726D61743E3C2F666F726D6174733E504B0304140006080800CC70623BD486FD9CA0000000F4000000130000005B436F6E74656E745F54797065735D2E786D6C7D8EC10E82300C865F65E91D8A1E8C310C0EEA1BF002731658846E
310
D98AC1B77784ABF1D8FE5FBFBF75BBCE937A534CCEB38643598122B6FEE978D0B0485F9C41B54DDD7D022595594E1A469170414C76A4D9A4D207E29CF43ECE46F218070CC6BECC4078ACAA135ACF422C856C0E68EA1BF5669944DDD7BCDE7B1F8E415D77AECB980613C2E4AC91FC167A2B244592486606FC29C8FD7F045B9A
310
EF7053A7E60B504B0304140006080800CC70623B1EC5D7A3EB0000007C01000008000000636F72652E786D6C8D90416EC3201045AF82665B6103C6756C6122AB4D4ED00B204C5C94182C03558F5F9C3852BBEB6A467FFE9B197D71FC9E6FE8CBACC17AD7032D0820E3B41FAD9B7A48F1820F808E52ACDEC75F36404ECDA687
310
4D0629A6D5A76597B477D1B89855E747B38B2A041301E95B6E7A08FAD3CCAA50296647B8168BD2573599823EBB0CA76447F43862C7BCCF5EAC59410E4DDD9C7973C2755553CCCFA4C603E3040F1565ED3B1FDE4E432BCA0D9622DAF9795FAF464533826484B498524CD807E51D79ED187F21878E10516EF63F505AC67F42C9
310
BA58B1FDDD071640D2FCC87D2045B96591CB3DA85CB7DCE40F504B0304140006080800CC70623B55019EA25F0000007C00000007000000636E782E786D6C4DCB3B0E80201045D1AD90E915ED2CF8AC45050C11660C8261F98AB1B07AC9C97D42D718D865D3E909258CFD00CCE24AC6E326A164D74DC0B4128928FF32603847
310
2BA13128B1252AC747C6BAB984FC68F0B87FE8960A5C09FE86CFB69FBA01504B0304140006080800CC70623B8C9102E971010000D40300000C0000006662782F636F72652E786D6CC5535B6E833010BC8AE5DF0A6C08340F1947A84D4ED00B38C6A128602363A31CBFCB234A53A551FA553EC09AD9F5CE8C31DB9E9B1AF5CA
310
7695D1198E428A91D2D214952E33ECDD315861B4E5CC1AE3BE9561A445A3323CC098B3D21ADFCE9034DA29ED00D5A6503328BA4E398C640D8B0C77F253352214DE4145770A5B214FA2546114020D759C75CE8200340D19DE981F0F6746269C33EFAB6266AB02A655C74A59CCF365BADC27CB5D902ED22848F6340DF238A141
310
BE88E2F57B92BFEDF23523433367AE6A2EEAA455C2A902F398D2751045018D3FA264435F3771F242571B4A1919CA6F9A7C5B3CD9E42BED16F12C776AEB308F40C848FC700B1139D4891EF410CEC810227CC6846F8386402064270EF5C5C709A05E49676C024C61FC95EA45ED154CA5211D1FF4FB8291A913A68E9B83EBBB33
310
E2A7673CDE118E5AE8124C0807CB8377834E366998436B950D7A7746DAD846D4CFD978E0F04FD455FC5D49D2D4C6FE9722321F10997F0F32DC47FE05504B0304140006080800CC70623BFFEA85907E0000009D0000000B0000006662782F636E782E786D6C4DCCD10A83201886E15B91FFDC95D95A811AB6F23E625948A6C3
310
E9D8E5AF46073BFAE0E1E365ED67B3E8ADC3CB78C7815C7240DA3DFC64DCC221C519D7805AC182F7F1EF06C88D9BE6703008B6049F9E274D7A1E938DBB5AE3D6131B2589BA0D3D965551E0B2EA732C9B9A624AAEB41E3A557677029960D9AFB4EF11165F504B0304140006080800CC70623B4FEEA4082C0100001202000031
310
0000006662782F39464131463745442D413632322D343644302D413938332D3331353338454246344243312F636F72652E786D6C8D515B6EC32010BC0AE2AB55850DD871ED0813254D72825EC00192A2C460F1A872FC42ED48ED5F7E00CDCECCCEB26C731F6FE05B39AFADE921293004CA082BB5B9F43086336A21D870E6AC
310
0D7F68109861543DCC30E4ECE26C9C164858139409093556AA051CBC570102714B8F1E7AF1A5C6A11862480C7F2DA6415C878B2A4891CA89C7990F2E050073937C42DE1DB7E4F87ED8A36D4329AA9B3D46DBAEAD504556557BD81DEBDD0761E52CE42C462D17B996298E3E6BE59E35C962CE821E1FF18553435012728A7187
310
0841987E927A8D9B35ADDF70BBC6989599FE4F1427F9A4286A132ABAC49D651EF234CD5CE04CDA78BA3DC2A8FB645D00B9DF8B57E215725C60BCA2A463E54C4CE327C7A65E1C7DB02E7DEFCBF594B864C5CA6CDBD49C957943E9FA5D5FBAF336F90F504B0304140006080800CC70623BAD7543B64E01000033030000300000
310
006662782F39464131463745442D413632322D343644302D413938332D3331353338454246344243312F636E782E786D6CD593CD6EC32010845F0571AD6CE3D48AD20813A9873E410FBD12D82434182C7EAAE6EDBB2424CD25871E7B41D6EC30B3FA84F9E67BB2E40B4234DE8DB46F1925E094D7C6ED479AD3AE5951B2113C
310
789FEE6C943839C1488B4C05DF079FE72A69D8C96C13AAD6B8631503449F83828872B949AC57D26200B826A308D316B4064D6E46FCDA41C05550DC9E483A00797BFD207EFB092A45DE9514C1BBD22178396BD39D891265658C238DEA00936C654E5E433CB65A26D9F6EDB5EBC14EBF49A45CB856E66048291F6939A9A81BB5
310
C8917738143CA680F4AA299D66A042CEB3354A2684DC9D8D178FE0D9B8B41CAAD720F880EE7EF93C0C18769E099ECC04D5A102C8049A8A05632F4DDF376CF1DE0F6BB65C2F8627B65A33C6BB62177CEBBDAD973006829F89F22E814B54F4BC2BE347F8AA8F681390B50FA73F804400B5F542E796F19FF974E7F78DB802FE05
310
E207504B0304140006080800CC70623B16AB87BA640500003C100000340000006662782F39464131463745442D413632322D343644302D413938332D3331353338454246344243312F6F626A656374732E786D6CAD575B6FA33818FD2B887DE6924B3BED8A326A92B68A663B534DD4D13E548A0C38942D60649B369D5FBFC7
310
600890A493BDE42160637FD7F31D7FF63E6FB3D478A55C242CBF3247B66B1A340F5994E4F19559CA8D75611A9F7D8F33263BCB4C232719BD32D5B4E97B316765A1A722BA21652A07B3B7B33F0D11D29C9A46981221AE4C113ED38CD8A4942CA2E2C58E882476BCD9DA23BB5ED8171B73523C0F841684D35CC252CCE79062D4
310
468DFA43D7747CCF51DF7D4FFDEB5593E3AB9CCA9FBEFE241792E4E19EB28198C968BAB8199F5D5A67D3E9C49A9E8F47D6EC76B6B0469F26EEFC7C3EBFBCBEB98462213924694B38DD98FE1D62C393D073EA4FADC5DAF04326852CCF6958F90F0F2B9BB5C48816348F90C7840A68EB78EDF68723159BCEE7891A6B95DDE9D3
310
BCEAEEE8086A6C6F9E5D4B59F0175C10A7A0820BAA5055C7473B5AE3CFDD452D602CD5DF12616444529E90D448938013FE6EFA58AA96F85E4F8C42275708571E98FE6827AF6B2B4AE3D7D83D64E5A64C53054DD3AF90BD06FEA9149565C94FCA0F6B834DC85599E4F2423B24DF0B6AFA979E534DFA9E7A4CC6FA631D486393
310
921829879BF5D781A373557BCB85E97FB90DB62B558F8795179C15944B051F40AB495CF35451D26A4727654E6D8033BD98EF82F21D91FF8AF2DD9982BCF1643BDD4EB516C9492E368C67C88DED563FC36D5EACF66DFF057C3658BDBFA69DF9578B3DA735B64F18C7F20770A9D45CFCF7FCF563D6456A277DBEF78A02637CA2
310
43B90A490AEAB94F72244481D24819A6C0E59B606BFA4B3025981DBB48EAB701D97BF19C577CC77F2D1B6C55A9EF3C732474C0B727303F625995056C3B02963D9EAC146BE78EC5FCEC7FA999EBC5EACBAAE41B12D27B4D2C0BBA49F244E2ECDC81B76B502F113D8F5EE8FB1BE3111CDD4FC2AA9B844CAB1288B68AB90A7CDC
310
1C166AB0D3DC5310625FCC14E779BFD0709F8890A629C9292B1B2DED31A4B0DA928CEE135085754027E3018A397D4D5427D15BD1330B677DC8934285AC3DF45A9EB68FF8F2B8FC0A509AFEECFD0FF2DE25CC6047F7214B195F07EFEB9A094D800F7BFAE8FED187B78EA8A3A400F115961BCAD1215E47C966530AF0EE8128FE
310
58CEBB996A8964FFA529A046635D9353B0336A8F700DDF46271A024E70B0B37C9DE01847591E54DED53D54202AB947E4076556AC49C6CA5C9E1226B7F1A7B1BE15DEED62C41B91E1B3E9AFAAA735036547343A925075041DF0A9979E893B391F8FCFA6967B3EFB644DCF6E5CEBFAE272625DCC6FAF3FB93793C5F90CE1EF57
310
407342756B10D1C489E8953CD1617E5CEECAD6F4EF8914CE5D5D504E5C3F1F9736DA62CFC11E00BCDDB8CC8A9466349744C1F75EBDA4DF09BA8A9E8C7A7E9991989E20E5DBDD6A6003664ED8F7A04A8DBE0DF6EAD9B9AA858342E47399053949D2C146EDB85DE4B176BB0965FBAC19BD19AA918E27FA50C1D22402E144464C
310
59462568E704B6E71915404CB72B8FF4EDE184DDAF753F284990D2C6926782963815403548A70C657FDEF80D2D9CEAA2AE4C1C76F60BFE74219A06527D6582DF6412526107381E55E353090704D085B52408D0933C4ED159D79BDA71BB4BC506F4831350EB6F979CD22D69BF7AC49B91A2C0A9DDA3D5CA36AD20FC478E37E6
310
1844E2352865EBCB6EA275A652E3836BE04EFB400BF1A2556F515F1FBB35B2AB35BD889C744FFA1004B5544B121E57F70215746DD2F5E2C1412B602CBF19455AC6C8E5E9922C4E01E65215385004546899059180EAFCF7A707CE7017CD8CDB0410789AB32C63B91E5CEBBBACB17AC6CD347A022D5075FD106377347AAABA7E
310
7D11590744509B44E205134DC1290F06580320F78E537D3D73540E06CB970B431F185308AD40BBD794D6D77003C5A36E8EAA54BA64597CD8F83BD552A080A365F7FF06504B0304140006080000CC70623B000000000000000000000000350000006662782F39464131463745442D413632322D343644302D413938332D3331
310
353338454246344243312F76657274696365732E62696E504B0304140006080800CC70623BF270F1330600000004000000360000006662782F39464131463745442D413632322D343644302D413938332D3331353338454246344243312F747269616E676C65732E62696E636660600000504B0304140006080000CC70623B
310
000000000000000000000000370000006662782F39464131463745442D413632322D343644302D413938332D3331353338454246344243312F617474726962757465732E62696E504B0304140006080800CC70623B08DA0BD19000000041010000360000006662782F39464131463745442D413632322D343644302D413938
310
332D3331353338454246344243312F6469726563746F72792E786D6C858F410AC3201045AF22B36F53E9A60B35CBEEBAE80D244E44489C6234F4F835464A48035D0DF398FF9F8AF63D0E6CC63039F212F8F9020C7D47C6792B21C5FE7403D62A1188E2E60C98D7234A5830286103A55745067B9D86B8A3CF9C7F90C11DE607
310
FB144396D7B6A82D282E9A152AD114D5EF2CB866EEE831B8EEA07A7BB5A8D7D61A2BAAEB7FD5F70921FF497D00504B0304140006080800CC70623B0D6EF93BFE000000A00100003B0000006662782F39464131463745442D413632322D343644302D413938332D3331353338454246344243312F7265736F75726365732F63
310
6F72652E786D6C8D50596E833010BD0A9ADFCA60B334011947A8694ED00B586642AC041B79A97AFC9A40A5F6AF3F33A3B7689E1E3F7DCD8FEC139DD7D6F4C0720A191A65476DA61E62B892236427C19DB5E1970C322367EC618541F0C9D9B8EC90B226A009093576C41D94DE63804C3DD2D18357379C652E63480A7FCF17A9
310
EE72C29CE5894E3AC17D702940B63D59270887DE46A7D0F36263058F518FBB468FE9A7BE6A7420864373B8D4873369AA8691FA421B3294352543C5CAF65C0F6FEF43CB8BD52C78D0F34F46E550061C419494B6843142CB0F5677F4B52BEB177AEC28E5C52AFF638ACBF84F53D42654E51E77B379102C05791282176B5F693D
310
CB4C7BED567C03504B010214000A0000080000CC70623B3DEE336E79000000790000001B00000000000000000000000000000000006175746F6465736B2D64657369676E2D7061636B6167652E786D6C504B01021400140006080800CC70623BD486FD9CA0000000F40000001300000000000000000000000000B20000005B
310
436F6E74656E745F54797065735D2E786D6C504B01021400140006080800CC70623B1EC5D7A3EB0000007C010000080000000000000000000000000083010000636F72652E786D6C504B01021400140006080800CC70623B55019EA25F0000007C000000070000000000000000000000000094020000636E782E786D6C504B
310
01021400140006080800CC70623B8C9102E971010000D40300000C00000000000000000000000000180300006662782F636F72652E786D6C504B01021400140006080800CC70623BFFEA85907E0000009D0000000B00000000000000000000000000B30400006662782F636E782E786D6C504B01021400140006080800CC70
310
623B4FEEA4082C0100001202000031000000000000000000000000005A0500006662782F39464131463745442D413632322D343644302D413938332D3331353338454246344243312F636F72652E786D6C504B01021400140006080800CC70623BAD7543B64E010000330300003000000000000000000000000000D5060000
310
6662782F39464131463745442D413632322D343644302D413938332D3331353338454246344243312F636E782E786D6C504B01021400140006080800CC70623B16AB87BA640500003C1000003400000000000000000000000000710800006662782F39464131463745442D413632322D343644302D413938332D3331353338
310
454246344243312F6F626A656374732E786D6C504B01021400140006080000CC70623B0000000000000000000000003500000000000000000000000000270E00006662782F39464131463745442D413632322D343644302D413938332D3331353338454246344243312F76657274696365732E62696E504B01021400140006
310
080800CC70623BF270F133060000000400000036000000000000000000000000007A0E00006662782F39464131463745442D413632322D343644302D413938332D3331353338454246344243312F747269616E676C65732E62696E504B01021400140006080000CC70623B0000000000000000000000003700000000000000
310
000000000000D40E00006662782F39464131463745442D413632322D343644302D413938332D3331353338454246344243312F617474726962757465732E62696E504B01021400140006080800CC70623B08DA0BD190000000410100003600000000000000000000000000290F00006662782F39464131463745442D413632
310
322D343644302D413938332D3331353338454246344243312F6469726563746F72792E786D6C504B01021400140006080800CC70623B0D6EF93BFE000000A00100003B000000000000000000000000000D1000006662782F39464131463745442D413632322D343644302D413938332D3331353338454246344243312F7265
310
736F75726365732F636F72652E786D6C504B0506000000000E000E0080040000641100000000
  0
XRECORD
  5
175
102
{ACAD_REACTORS
330
173
102
}
330
173
100
AcDbXrecord
280
     1
270
     1
271
     1
  0
XRECORD
  5
174
102
{ACAD_REACTORS
330
173
102
}
330
173
100
AcDbXrecord
280
     1
270
     1
271
     1
  0
XRECORD
  5
1FB
102
{ACAD_REACTORS
330
173
102
}
330
173
100
AcDbXrecord
280
     1
 70
     0
 90
1673772943
  1
ECE7A1D2-D628-4531-984C-D00F80459256
310
504B03040A0000080000CC70623B3DEE336E79000000790000001B0000006175746F6465736B2D64657369676E2D7061636B6167652E786D6C3C3F786D6C2076657273696F6E3D22312E302220656E636F64696E673D227574662D3822203F3E3C666F726D6174733E3C666F726D61743E687474703A2F2F736368656D612E
310
6175746F6465736B2E636F6D2F64657369676E2D7061636B6167652F323030393C2F666F726D61743E3C2F666F726D6174733E504B0304140006080800CC70623BD486FD9CA0000000F4000000130000005B436F6E74656E745F54797065735D2E786D6C7D8EC10E82300C865F65E91D8A1E8C310C0EEA1BF002731658846E
310
D98AC1B77784ABF1D8FE5FBFBF75BBCE937A534CCEB38643598122B6FEE978D0B0485F9C41B54DDD7D022595594E1A469170414C76A4D9A4D207E29CF43ECE46F218070CC6BECC4078ACAA135ACF422C856C0E68EA1BF5669944DDD7BCDE7B1F8E415D77AECB980613C2E4AC91FC167A2B244592486606FC29C8FD7F045B9A
310
EF7053A7E60B504B0304140006080800CC70623BD9DDAED0EC0000007C01000008000000636F72652E786D6C8D90416EC3201045AF82665B61836D9CD8C2444DD39CA01740405C94182C03558F5F9C3852BBEB6A467FFE9B197D7EF89E6EE8CB2CC17A37002D0820E394D7D68D03A478C17B4007C117EFE32F1B20272733C0
310
2A83E0E3E2D3BC49CABB685CCCAAF3DA6CA20CC14440EA969B0182FA34932C648AD911AEC52CD5558EA6A0CF2EC329598D1E47ACCEFBECC59A050463A7EA5833865FEBDD0E37353BE3EE8DBDE3F6786A48D375FBF6CC78B9C282473B3DEFABC5C86834888A900E538A49F5419B9EB47DD5BC907D4F082F57FB1F28CDFA9F50
310
B22ED6D5F6EE030B20687EE43E10BC5CB3C8E51E54AE6B6EE207504B0304140006080800CC70623B55019EA25F0000007C00000007000000636E782E786D6C4DCB3B0E80201045D1AD90E915ED2CF8AC45050C11660C8261F98AB1B07AC9C97D42D718D865D3E909258CFD00CCE24AC6E326A164D74DC0B4128928FF326038
310
472BA13128B1252AC747C6BAB984FC68F0B87FE8960A5C09FE86CFB69FBA01504B0304140006080800CC70623BA24EB22D72010000D40300000C0000006662782F636F72652E786D6CC5535B6E833010BC8AE5DF0A6C5E49888CA3A6694ED00B38E05014B091B1518EDFE511A5A9D228FD2A1F60CDEC7A67C6986DCE4D8D7A
310
69BA4AAB0C073EC548AA5C17952A33ECECD15B61B4E1CC686DBF9561A44423333CC098B3D268D7CE50AE9595CA02AA74216750749DB418E5352C32DCE59FB211BE70162ABA93DF8AFC244AE9073ED050C759670D0840D390E18DF9F1706664C23973AE2A66B62A605A75ACA4C13C4976E1364A12EF355A2EBD384AF65EFA96
310
BC7B8BED2EA6719AAE16FB8491A199335B351775B991C2CA02F390D2D40B028F861F41BCA68B7518BFD0D59A524686F29B26D7164F36B94AD9289CE54E6D1DE6010819891F6E21228B3AD1831EC219194284CF98F06DD01008846CC5A1BEF83801D4CBDC6A1303536877A57A513B0953A94FC707FDBE6064EA84A9E3E6E0FA
310
EE8CF0E9198F7784A316AA0413C2C2F2E0ECA0934D1AE6D05A69BCDE9E91D2A611F573361E38FC1375157F5752AE6B6DFE4B11990F88CCBF0719EE23FF02504B0304140006080800CC70623B408A7D3B7C0000009D0000000B0000006662782F636E782E786D6C4DCCD10A83201886E15B91FFDC552A92A0064DBC8F581632
310
D3703A76F9ABD1C18E3E78F878E5F0D9027ABBFCF2292AE86E2D20171F69F6715550CB827B40839639A5F2770314A7CD293819B45C73AAFB45B35BA61ACAA1C1C7E7855C58C15BC331339661262CC762340413D68D77DA5B42298546CBE6573AF60CEB2F504B0304140006080800CC70623B449FB9BD290100001202000031
310
0000006662782F36394639363044362D344446342D343946362D394244322D3234314243333846323333332F636F72652E786D6C8D515B6EC32010BC0AE22B55850D98B871848994463E412FE002495162B07854397EA176A4F62F3F2C9A9D991D587EB84F37F0AD7D30CEF6905418026DA553C65E7A98E219ED203808EE9D
310
8B7F6810D871D23D2C3014FCE25D9A57483A1BB58D19B54EE9151C43D0110279CB971E06F9A5A7B11A53CC8C70ADE6515EC78BAE4895DB992778883E0700CB907242D17643D7E2538BD869608875438BBAE38922CAC8F1BDD90DB4691A5E2F42C153326A951B95E398B3D1FE599322163C9AE9115F7A3D46ADA0A018778810
310
84E907617BDCEE297BC5BB3DC6BC2EF47FA234AB2745C9D8D8D035EE220B50105E2F0DC1954B9FB747187D9F9D8FA0CCDB042D5FA0C015C65B42DF78BD10F3F3B363CB56C7109DCFDFBBB97E662ED92EB62D13BC2E1BCAE5777DB9966D8A1F504B0304140006080800CC70623BAD7543B64E01000033030000300000006662
310
782F36394639363044362D344446342D343946362D394244322D3234314243333846323333332F636E782E786D6CD593CD6EC32010845F0571AD6CE3D48AD20813A9873E410FBD12D82434182C7EAAE6EDBB2424CD25871E7B41D6EC30B3FA84F9E67BB2E40B4234DE8DB46F1925E094D7C6ED479AD3AE5951B2113C789FEE
310
6C943839C1488B4C05DF079FE72A69D8C96C13AAD6B8631503449F83828872B949AC57D26200B826A308D316B4064D6E46FCDA41C05550DC9E483A00797BFD207EFB092A45DE9514C1BBD22178396BD39D891265658C238DEA00936C654E5E433CB65A26D9F6EDB5EBC14EBF49A45CB856E66048291F6939A9A81BB5C89177
310
38143CA680F4AA299D66A042CEB3354A2684DC9D8D178FE0D9B8B41CAAD720F880EE7EF93C0C18769E099ECC04D5A102C8049A8A05632F4DDF376CF1DE0F6BB65C2F8627B65A33C6BB62177CEBBDAD973006829F89F22E814B54F4BC2BE347F8AA8F681390B50FA73F804400B5F542E796F19FF974E7F78DB802FE05E20750
310
4B0304140006080800CC70623B8D05915C650500003B100000340000006662782F36394639363044362D344446342D343946362D394244322D3234314243333846323333332F6F626A656374732E786D6CAD575B6FA33814FE2B887D06429276DA1565D4266D158D3A339A6846FB502932E050B66023DB74D2FDF5FB190C01
310
9276B2973C046C8ECFF53B17071F77456EBD502133CEAE6CDF9DD81665314F32965ED995DA3A17B6F5310C04E7AA47665B8C14F4CAD6DB7618A48257A5D94AE89654B91AEDDEDDFC61C998326A5B714EA4BCB265FC440BE2924AF184CA6737218AB8E976E7FA6E4338649B0A523E8D98964450A6A029F619B8588D52FE7039
310
B1BD30F0F4F730D0FF866AF6369557DB33949F31A9088B0F848DD8CCFCF9F2767A76E99CCDE733677E3EF59D9BBB9BA5E37F984D16E78BC5E5F5ED25044B25C0C96822E8D60EEFE11B91C581D77CEA34368A1F5329E68CD1B8B61F16D63A1B8E092D294B10C78C4A48EB593D192E7DED9BDEE7995E1B91FDEDD3ACEA9FE831
310
6A756F9F7D4D79F4274C90A7A04248AA51D5F8C718DAE06FB2F75AC4796EBE65D22A88A22223B995679120E2D50E41AA49C260C046A35368846B0BECD0DFF3EBEB8AD4F835768F69B9ADF25C43D30E6B646F807FAA64AD59F61715C7A54127C4AACA98BA3006A9D792DAE165E0D59B61A01FB3A9F9D838D2DAE62445C86166
310
F37564E842E7DE6A69879FEEA2DD5AE7E371E1A5E025154AC307D06A03D73EB5978C58FFA4C8E9033066E0F3BD53BEC1F39F91BE7B55103791EDE6BBB991A2046172CB4581D8B893FA674DDA17A77B3B7C413D1B511FD2743BFF8A38F03A658705E3ADF8015C3A3417FF3D7E439FF591DA0B5F18BC20C1B8981957AE6392A3
310
F43C640C01D1A0B4728E2DD4F26DB4B3C3152A252A3B4E913CEC1C72F012782FF88EFF8637AA552DBEF76408E8A8DE9E50F9E1CB3A2DA0DB1B6039A893B56063DC5B3E3FFB5F72E67AB9FEB4AEC496C4F4C1149625DD662C53E89D7BF0F6151A046260D1337DFDC94502430F83B0EE07A130A224BCAD7DAE1D9FB6CD422FF6
310
920702629C4BB9AE79C12F243C6432A6794E18E5552BA56B431AAB5D91317302B2B071E86C3A42B1A02F999E24061403B5D0EB639195DA655DD3EBEAB4FB862DDF579F014AD0E73C22F99E28DA57FB98E75C6CA2D74D53086D600F4786E0FE3144B771A8A7B900F03594DB8A633CBC49B2EDB69228BB479CF863B5E807AAAB
310
23872F6DFEB4129B949CA33823F58830E86D65621E10047D9DB34D862E8EAC3C2ABC2F7B2C40D67CDFE01F5545B92105AF983AC54D93D69E56FB8E797F88913F898A9FEC705D3F9D1B54EC8426FB500D40A03BD0119B06E1B95DDC7EB8F6975367793EBD70E66733DFB9BC982F9CE564727731999F5D4ECFCE3B8D6A4DC2A0
310
6D50FD148437D110834A64C6CDDF57FBACB5C307A2A477DFE4939736CFEF2B175371E0E10CF0DD1D5C15654E0BCA14D1E87DD02FF93782A162C0A3D95F1524A52770F972BF1EE9809D13CE7DD599467F8ECE9ADD85CE85A34CD45355448C64F9E8A031DC2D596ACC6E5DD93D9B82DE2EF5CAF81363A8E47996A0DE24564A79
310
4115AACE09C55E14540231FDA13C319787134EBF34E3A022514E5B4D9E0826E25C02D5805B15ABE1BEF51B26383D445DD9E875EE33FE4C22DA16427D65A3BCA92CA6D28DD01DF5DC53330704308475351050232CCD31583787BA75774AFB06E5070DD0C8EF484E19968C5D83BA5B90B244D31E54D55A372320FE4786B7EA58
310
44E135AA5467CB7EA333A61683CC6A8C3257034C10CF46F40EF9F5BE59BE5BD30C3C72D235E95D10345C1D45445A5F0BB47E46A5EBE5570F9380B5FA629579952296A773720405982B9DE04011506178964401AA8BDF1FBF0A8EAB6861DD6580C0E38217056766716DAEB2D6FA0917D3E4116581EADB879C4E7CFFB11EFACD
310
3D641311495D92C8676CB409A72D18610D803CE8A626049E8EC1887CB5B44CC39883690DDA8399B4B9855B481E7D71D4A9D22F96E5BB73BF5793020C02137BF837504B0304140006080000CC70623B000000000000000000000000350000006662782F36394639363044362D344446342D343946362D394244322D32343142
310
43333846323333332F76657274696365732E62696E504B0304140006080800CC70623BF270F1330600000004000000360000006662782F36394639363044362D344446342D343946362D394244322D3234314243333846323333332F747269616E676C65732E62696E636660600000504B0304140006080000CC70623B0000
310
00000000000000000000370000006662782F36394639363044362D344446342D343946362D394244322D3234314243333846323333332F617474726962757465732E62696E504B0304140006080800CC70623B08DA0BD19000000041010000360000006662782F36394639363044362D344446342D343946362D394244322D
310
3234314243333846323333332F6469726563746F72792E786D6C858F410AC3201045AF22B36F53E9A60B35CBEEBAE80D244E44489C6234F4F835464A48035D0DF398FF9F8AF63D0E6CC63039F212F8F9020C7D47C6792B21C5FE7403D62A1188E2E60C98D7234A5830286103A55745067B9D86B8A3CF9C7F90C11DE607FB14
310
4396D7B6A82D282E9A152AD114D5EF2CB866EEE831B8EEA07A7BB5A8D7D61A2BAAEB7FD5F70921FF497D00504B0304140006080800CC70623BCA768048FE000000A00100003B0000006662782F36394639363044362D344446342D343946362D394244322D3234314243333846323333332F7265736F75726365732F636F72
310
652E786D6C8D50596E833010BD0A9ADFCA60D600328E9AA639412F609909B1126CE4A5EAF16B0295DABFFECC8CDEA2797AECF8353F924FB44E193D409E5248504B332A3D0D10FC95B4901C39B3C6F85F3248B49871801506CE266BC2B243D2688FDA47549B11775038871E12F988C7004EDE7016A9083E2ADC3D5D84BC8B09
310
D33C8D74D471E6BC8D0192EDC93A815B742658898E651BCB59086ADC356A8C3FD555A1055ED7E7E254D615792D0F075295F585746FF53B694EE78A565DD736979A65AB9933AFE69F8CD2A2F038022F28ED489E135A7CE4554F9BBEA85E68DB53CAB255FEC71496F19FA6A0B42F8B3DEE6673C0F318E4497096AD7DC5F52C33
310
EEB55BFE0D504B010214000A0000080000CC70623B3DEE336E79000000790000001B00000000000000000000000000000000006175746F6465736B2D64657369676E2D7061636B6167652E786D6C504B01021400140006080800CC70623BD486FD9CA0000000F40000001300000000000000000000000000B20000005B436F
310
6E74656E745F54797065735D2E786D6C504B01021400140006080800CC70623BD9DDAED0EC0000007C010000080000000000000000000000000083010000636F72652E786D6C504B01021400140006080800CC70623B55019EA25F0000007C000000070000000000000000000000000095020000636E782E786D6C504B0102
310
1400140006080800CC70623BA24EB22D72010000D40300000C00000000000000000000000000190300006662782F636F72652E786D6C504B01021400140006080800CC70623B408A7D3B7C0000009D0000000B00000000000000000000000000B50400006662782F636E782E786D6C504B01021400140006080800CC70623B
310
449FB9BD290100001202000031000000000000000000000000005A0500006662782F36394639363044362D344446342D343946362D394244322D3234314243333846323333332F636F72652E786D6C504B01021400140006080800CC70623BAD7543B64E010000330300003000000000000000000000000000D20600006662
310
782F36394639363044362D344446342D343946362D394244322D3234314243333846323333332F636E782E786D6C504B01021400140006080800CC70623B8D05915C650500003B10000034000000000000000000000000006E0800006662782F36394639363044362D344446342D343946362D394244322D32343142433338
310
46323333332F6F626A656374732E786D6C504B01021400140006080000CC70623B0000000000000000000000003500000000000000000000000000250E00006662782F36394639363044362D344446342D343946362D394244322D3234314243333846323333332F76657274696365732E62696E504B010214001400060808
310
00CC70623BF270F13306000000040000003600000000000000000000000000780E00006662782F36394639363044362D344446342D343946362D394244322D3234314243333846323333332F747269616E676C65732E62696E504B01021400140006080000CC70623B00000000000000000000000037000000000000000000
310
00000000D20E00006662782F36394639363044362D344446342D343946362D394244322D3234314243333846323333332F617474726962757465732E62696E504B01021400140006080800CC70623B08DA0BD190000000410100003600000000000000000000000000270F00006662782F36394639363044362D344446342D
310
343946362D394244322D3234314243333846323333332F6469726563746F72792E786D6C504B01021400140006080800CC70623BCA768048FE000000A00100003B000000000000000000000000000B1000006662782F36394639363044362D344446342D343946362D394244322D3234314243333846323333332F7265736F
310
75726365732F636F72652E786D6C504B0506000000000E000E0080040000621100000000
  0
XRECORD
  5
176
102
{ACAD_REACTORS
330
173
102
}
330
173
100
AcDbXrecord
280
     1
270
     1
271
     1
  0
XRECORD
  5
177
102
{ACAD_REACTORS
330
173
102
}
330
173
100
AcDbXrecord
280
     1
270
     1
271
     1
  0
XRECORD
  5
2AF
102
{ACAD_REACTORS
330
234
102
}
330
234
100
AcDbXrecord
280
     1
102
DISPLAYNAME
  1
Metric50
102
FLAGS
 90
        0
  0
CELLSTYLEMAP
  5
275
102
{ACAD_REACTORS
330
162
102
}
330
162
100
AcDbCellStyleMap
 90
        3
300
CELLSTYLE
  1
TABLEFORMAT_BEGIN
 90
        5
170
     1
 91
        0
 92
    32768
 62
   257
 93
        1
300
CONTENTFORMAT
  1
CONTENTFORMAT_BEGIN
 90
        0
 91
        0
 92
      512
 93
        0
300

 40
0.0
140
1.0
 94
        5
 62
     0
340
11
144
6.0
309
CONTENTFORMAT_END
171
     1
301
MARGIN
  1
CELLMARGIN_BEGIN
 40
1.5
 40
1.5
 40
1.5
 40
1.5
 40
4.5
 40
4.5
309
CELLMARGIN_END
 94
        6
 95
        1
302
GRIDFORMAT
  1
GRIDFORMAT_BEGIN
 90
        0
 91
        1
 62
     0
 92
       -2
340
14
 93
        0
 40
1.125
309
GRIDFORMAT_END
 95
        2
302
GRIDFORMAT
  1
GRIDFORMAT_BEGIN
 90
        0
 91
        1
 62
     0
 92
       -2
340
14
 93
        0
 40
1.125
309
GRIDFORMAT_END
 95
        4
302
GRIDFORMAT
  1
GRIDFORMAT_BEGIN
 90
        0
 91
        1
 62
     0
 92
       -2
340
14
 93
        0
 40
1.125
309
GRIDFORMAT_END
 95
        8
302
GRIDFORMAT
  1
GRIDFORMAT_BEGIN
 90
        0
 91
        1
 62
     0
 92
       -2
340
14
 93
        0
 40
1.125
309
GRIDFORMAT_END
 95
       16
302
GRIDFORMAT
  1
GRIDFORMAT_BEGIN
 90
        0
 91
        1
 62
     0
 92
       -2
340
14
 93
        0
 40
1.125
309
GRIDFORMAT_END
 95
       32
302
GRIDFORMAT
  1
GRIDFORMAT_BEGIN
 90
        0
 91
        1
 62
     0
 92
       -2
340
14
 93
        0
 40
1.125
309
GRIDFORMAT_END
309
TABLEFORMAT_END
  1
CELLSTYLE_BEGIN
 90
        1
 91
        1
300
_TITLE
309
CELLSTYLE_END
300
CELLSTYLE
  1
TABLEFORMAT_BEGIN
 90
        5
170
     1
 91
        0
 92
        0
 62
   257
 93
        1
300
CONTENTFORMAT
  1
CONTENTFORMAT_BEGIN
 90
        0
 91
        0
 92
      512
 93
        0
300

 40
0.0
140
1.0
 94
        5
 62
     0
340
11
144
4.5
309
CONTENTFORMAT_END
171
     1
301
MARGIN
  1
CELLMARGIN_BEGIN
 40
1.5
 40
1.5
 40
1.5
 40
1.5
 40
4.5
 40
4.5
309
CELLMARGIN_END
 94
        6
 95
        1
302
GRIDFORMAT
  1
GRIDFORMAT_BEGIN
 90
        0
 91
        1
 62
     0
 92
       -2
340
14
 93
        0
 40
1.125
309
GRIDFORMAT_END
 95
        2
302
GRIDFORMAT
  1
GRIDFORMAT_BEGIN
 90
        0
 91
        1
 62
     0
 92
       -2
340
14
 93
        0
 40
1.125
309
GRIDFORMAT_END
 95
        4
302
GRIDFORMAT
  1
GRIDFORMAT_BEGIN
 90
        0
 91
        1
 62
     0
 92
       -2
340
14
 93
        0
 40
1.125
309
GRIDFORMAT_END
 95
        8
302
GRIDFORMAT
  1
GRIDFORMAT_BEGIN
 90
        0
 91
        1
 62
     0
 92
       -2
340
14
 93
        0
 40
1.125
309
GRIDFORMAT_END
 95
       16
302
GRIDFORMAT
  1
GRIDFORMAT_BEGIN
 90
        0
 91
        1
 62
     0
 92
       -2
340
14
 93
        0
 40
1.125
309
GRIDFORMAT_END
 95
       32
302
GRIDFORMAT
  1
GRIDFORMAT_BEGIN
 90
        0
 91
        1
 62
     0
 92
       -2
340
14
 93
        0
 40
1.125
309
GRIDFORMAT_END
309
TABLEFORMAT_END
  1
CELLSTYLE_BEGIN
 90
        2
 91
        1
300
_HEADER
309
CELLSTYLE_END
300
CELLSTYLE
  1
TABLEFORMAT_BEGIN
 90
        5
170
     1
 91
        0
 92
        0
 62
   257
 93
        1
300
CONTENTFORMAT
  1
CONTENTFORMAT_BEGIN
 90
        0
 91
        0
 92
      512
 93
        0
300

 40
0.0
140
1.0
 94
        2
 62
     0
340
11
144
4.5
309
CONTENTFORMAT_END
171
     1
301
MARGIN
  1
CELLMARGIN_BEGIN
 40
1.5
 40
1.5
 40
1.5
 40
1.5
 40
4.5
 40
4.5
309
CELLMARGIN_END
 94
        6
 95
        1
302
GRIDFORMAT
  1
GRIDFORMAT_BEGIN
 90
        0
 91
        1
 62
     0
 92
       -2
340
14
 93
        0
 40
1.125
309
GRIDFORMAT_END
 95
        2
302
GRIDFORMAT
  1
GRIDFORMAT_BEGIN
 90
        0
 91
        1
 62
     0
 92
       -2
340
14
 93
        0
 40
1.125
309
GRIDFORMAT_END
 95
        4
302
GRIDFORMAT
  1
GRIDFORMAT_BEGIN
 90
        0
 91
        1
 62
     0
 92
       -2
340
14
 93
        0
 40
1.125
309
GRIDFORMAT_END
 95
        8
302
GRIDFORMAT
  1
GRIDFORMAT_BEGIN
 90
        0
 91
        1
 62
     0
 92
       -2
340
14
 93
        0
 40
1.125
309
GRIDFORMAT_END
 95
       16
302
GRIDFORMAT
  1
GRIDFORMAT_BEGIN
 90
        0
 91
        1
 62
     0
 92
       -2
340
14
 93
        0
 40
1.125
309
GRIDFORMAT_END
 95
       32
302
GRIDFORMAT
  1
GRIDFORMAT_BEGIN
 90
        0
 91
        1
 62
     0
 92
       -2
340
14
 93
        0
 40
1.125
309
GRIDFORMAT_END
309
TABLEFORMAT_END
  1
CELLSTYLE_BEGIN
 90
        3
 91
        2
300
_DATA
309
CELLSTYLE_END
  0
XRECORD
  5
28A
102
{ACAD_REACTORS
330
289
102
}
330
289
100
AcDbXrecord
280
     1
102
RTVSPost2010Prop28
280
     1
102
RTVSPost2010PropOp28
 70
     1
102
RTVSPost2010Prop29
280
     1
102
RTVSPost2010PropOp29
 70
     1
102
RTVSPost2010Prop30
280
     0
102
RTVSPost2010PropOp30
 70
     1
102
RTVSPost2010Prop31
280
     0
102
RTVSPost2010PropOp31
 70
     1
102
RTVSPost2010Prop32
280
     0
102
RTVSPost2010PropOp32
 70
     1
102
RTVSPost2010Prop33
280
     0
102
RTVSPost2010PropOp33
 70
     1
102
RTVSPost2010Prop34
280
     0
102
RTVSPost2010PropOp34
 70
     1
102
RTVSPost2010Prop35
280
     0
102
RTVSPost2010PropOp35
 70
     1
102
RTVSPost2010Prop36
280
     0
102
RTVSPost2010PropOp36
 70
     1
102
RTVSPost2010Prop37
 90
       50
102
RTVSPost2010PropOp37
 70
     1
102
RTVSPost2010Prop38
140
0.0
102
RTVSPost2010PropOp38
 70
     1
102
RTVSPost2010Prop39
140
1.0
102
RTVSPost2010PropOp39
 70
     1
102
RTVSPost2010Prop40
 90
        0
102
RTVSPost2010PropOp40
 70
     1
102
RTVSPost2010Prop41ColorIndex
 90
       18
102
RTVSPost2010Prop41ColorRGB
 90
        0
102
RTVSPost2010PropOp41
 70
     1
102
RTVSPost2010Prop42
 90
       50
102
RTVSPost2010PropOp42
 70
     1
102
RTVSPost2010Prop43
 90
        3
102
RTVSPost2010PropOp43
 70
     1
102
RTVSPost2010Prop44ColorIndex
 90
        5
102
RTVSPost2010Prop44ColorRGB
 90
      255
102
RTVSPost2010PropOp44
 70
     1
102
RTVSPost2010Prop45
280
     0
102
RTVSPost2010PropOp45
 70
     1
102
RTVSPost2010Prop46
 90
       50
102
RTVSPost2010PropOp46
 70
     1
102
RTVSPost2010Prop47
 90
       50
102
RTVSPost2010PropOp47
 70
     1
102
RTVSPost2010Prop48
 90
       50
102
RTVSPost2010PropOp48
 70
     1
102
RTVSPost2010Prop49
280
     0
102
RTVSPost2010PropOp49
 70
     1
102
RTVSPost2010Prop50
 90
       50
102
RTVSPost2010PropOp50
 70
     1
102
RTVSPost2010Prop51ColorIndex
 90
      256
102
RTVSPost2010Prop51ColorRGB
 90
-16777216
102
RTVSPost2010PropOp51
 70
     0
102
RTVSPost2010Prop52
140
1.0
102
RTVSPost2010PropOp52
 70
     0
102
RTVSPost2010Prop53
 90
        2
102
RTVSPost2010PropOp53
 70
     1
102
RTVSPost2010Prop54
  1
strokes_ogs.tif
102
RTVSPost2010PropOp54
 70
     1
102
RTVSPost2010Prop55
280
     0
102
RTVSPost2010PropOp55
 70
     1
102
RTVSPost2010Prop56
140
1.0
102
RTVSPost2010PropOp56
 70
     1
102
RTVSPost2010Prop57
140
1.0
102
RTVSPost2010PropOp57
 70
     1
102
RTVSPropertyOp0
 70
     1
102
RTVSPropertyOp1
 70
     1
102
RTVSPropertyOp2
 70
     1
102
RTVSPropertyOp3
 70
     1
102
RTVSPropertyOp4
 70
     1
102
RTVSPropertyOp5
 70
     1
102
RTVSPropertyOp6
 70
     1
102
RTVSPropertyOp7
 70
     1
102
RTVSPropertyOp8
 70
     1
102
RTVSPropertyOp9
 70
     1
102
RTVSPropertyOp10
 70
     1
102
RTVSPropertyOp11
 70
     1
102
RTVSPropertyOp12
 70
     1
102
RTVSPropertyOp13
 70
     1
102
RTVSPropertyOp14
 70
     1
102
RTVSPropertyOp15
 70
     1
102
RTVSPropertyOp16
 70
     1
102
RTVSPropertyOp17
 70
     1
102
RTVSPropertyOp18
 70
     1
102
RTVSPropertyOp19
 70
     1
102
RTVSPropertyOp20
 70
     1
102
RTVSPropertyOp21
 70
     1
102
RTVSPropertyOp22
 70
     1
102
RTVSPropertyOp23
 70
     1
102
RTVSPropertyOp24
 70
     1
102
RTVSPropertyOp25
 70
     1
102
RTVSPropertyOp26
 70
     1
102
RTVSPropertyOp27
 70
     1
102
RTVSPropertyOp28
 70
     1
102
RTVSPropertyOp29
 70
     1
102
RTVSPropertyOp30
 70
     1
102
RTVSPropertyOp31
 70
     1
102
RTVSPropertyOp32
 70
     1
102
RTVSPropertyOp33
 70
     1
102
RTVSPropertyOp34
 70
     1
102
RTVSPropertyOp35
 70
     1
102
RTVSPropertyOp36
 70
     1
102
RTVSPropertyOp37
 70
     1
102
RTVSPropertyOp38
 70
     1
102
RTVSPropertyOp39
 70
     1
102
RTVSPropertyOp40
 70
     1
102
RTVSPropertyOp41
 70
     1
102
RTVSPropertyOp42
 70
     1
102
RTVSPropertyOp43
 70
     1
102
RTVSPropertyOp44
 70
     1
102
RTVSPropertyOp45
 70
     1
102
RTVSPropertyOp46
 70
     1
102
RTVSPropertyOp47
 70
     1
102
RTVSPropertyOp48
 70
     1
102
RTVSPropertyOp49
 70
     1
102
RTVSPropertyOp50
 70
     1
102
RTVSPropertyOp51
 70
     0
102
RTVSPropertyOp52
 70
     0
102
RTVSPropertyOp53
 70
     1
102
RTVSPropertyOp54
 70
     1
102
RTVSPropertyOp55
 70
     1
102
RTVSPropertyOp56
 70
     1
102
RTVSPropertyOp57
 70
     1
102
RTVSPropertyOp58
 70
     1
102
RTVSPropertyOp59
 70
     1
102
RTVSPropertyOp60
 70
     1
102
RTVSPropertyOp61
 70
     1
102
RTVSPropertyOp62
 70
     1
  0
XRECORD
  5
288
102
{ACAD_REACTORS
330
287
102
}
330
287
100
AcDbXrecord
280
     1
102
RTVSPost2010Prop28
280
     0
102
RTVSPost2010PropOp28
 70
     1
102
RTVSPost2010Prop29
280
     1
102
RTVSPost2010PropOp29
 70
     1
102
RTVSPost2010Prop30
280
     1
102
RTVSPost2010PropOp30
 70
     1
102
RTVSPost2010Prop31
280
     0
102
RTVSPost2010PropOp31
 70
     1
102
RTVSPost2010Prop32
280
     0
102
RTVSPost2010PropOp32
 70
     1
102
RTVSPost2010Prop33
280
     0
102
RTVSPost2010PropOp33
 70
     1
102
RTVSPost2010Prop34
280
     0
102
RTVSPost2010PropOp34
 70
     1
102
RTVSPost2010Prop35
280
     0
102
RTVSPost2010PropOp35
 70
     1
102
RTVSPost2010Prop36
280
     0
102
RTVSPost2010PropOp36
 70
     1
102
RTVSPost2010Prop37
 90
       50
102
RTVSPost2010PropOp37
 70
     1
102
RTVSPost2010Prop38
140
0.0
102
RTVSPost2010PropOp38
 70
     1
102
RTVSPost2010Prop39
140
1.0
102
RTVSPost2010PropOp39
 70
     1
102
RTVSPost2010Prop40
 90
        0
102
RTVSPost2010PropOp40
 70
     1
102
RTVSPost2010Prop41ColorIndex
 90
       18
102
RTVSPost2010Prop41ColorRGB
 90
        0
102
RTVSPost2010PropOp41
 70
     1
102
RTVSPost2010Prop42
 90
       50
102
RTVSPost2010PropOp42
 70
     1
102
RTVSPost2010Prop43
 90
        3
102
RTVSPost2010PropOp43
 70
     1
102
RTVSPost2010Prop44ColorIndex
 90
        5
102
RTVSPost2010Prop44ColorRGB
 90
      255
102
RTVSPost2010PropOp44
 70
     1
102
RTVSPost2010Prop45
280
     0
102
RTVSPost2010PropOp45
 70
     1
102
RTVSPost2010Prop46
 90
       50
102
RTVSPost2010PropOp46
 70
     1
102
RTVSPost2010Prop47
 90
       50
102
RTVSPost2010PropOp47
 70
     1
102
RTVSPost2010Prop48
 90
       50
102
RTVSPost2010PropOp48
 70
     1
102
RTVSPost2010Prop49
280
     0
102
RTVSPost2010PropOp49
 70
     1
102
RTVSPost2010Prop50
 90
       50
102
RTVSPost2010PropOp50
 70
     1
102
RTVSPost2010Prop51ColorIndex
 90
      256
102
RTVSPost2010Prop51ColorRGB
 90
-16777216
102
RTVSPost2010PropOp51
 70
     0
102
RTVSPost2010Prop52
140
1.0
102
RTVSPost2010PropOp52
 70
     0
102
RTVSPost2010Prop53
 90
        2
102
RTVSPost2010PropOp53
 70
     1
102
RTVSPost2010Prop54
  1
strokes_ogs.tif
102
RTVSPost2010PropOp54
 70
     1
102
RTVSPost2010Prop55
280
     0
102
RTVSPost2010PropOp55
 70
     1
102
RTVSPost2010Prop56
140
1.0
102
RTVSPost2010PropOp56
 70
     1
102
RTVSPost2010Prop57
140
1.0
102
RTVSPost2010PropOp57
 70
     1
102
RTVSPropertyOp0
 70
     1
102
RTVSPropertyOp1
 70
     1
102
RTVSPropertyOp2
 70
     1
102
RTVSPropertyOp3
 70
     1
102
RTVSPropertyOp4
 70
     1
102
RTVSPropertyOp5
 70
     1
102
RTVSPropertyOp6
 70
     1
102
RTVSPropertyOp7
 70
     1
102
RTVSPropertyOp8
 70
     1
102
RTVSPropertyOp9
 70
     1
102
RTVSPropertyOp10
 70
     1
102
RTVSPropertyOp11
 70
     1
102
RTVSPropertyOp12
 70
     1
102
RTVSPropertyOp13
 70
     1
102
RTVSPropertyOp14
 70
     1
102
RTVSPropertyOp15
 70
     1
102
RTVSPropertyOp16
 70
     1
102
RTVSPropertyOp17
 70
     1
102
RTVSPropertyOp18
 70
     1
102
RTVSPropertyOp19
 70
     1
102
RTVSPropertyOp20
 70
     1
102
RTVSPropertyOp21
 70
     1
102
RTVSPropertyOp22
 70
     1
102
RTVSPropertyOp23
 70
     1
102
RTVSPropertyOp24
 70
     1
102
RTVSPropertyOp25
 70
     1
102
RTVSPropertyOp26
 70
     1
102
RTVSPropertyOp27
 70
     1
102
RTVSPropertyOp28
 70
     1
102
RTVSPropertyOp29
 70
     1
102
RTVSPropertyOp30
 70
     1
102
RTVSPropertyOp31
 70
     1
102
RTVSPropertyOp32
 70
     1
102
RTVSPropertyOp33
 70
     1
102
RTVSPropertyOp34
 70
     1
102
RTVSPropertyOp35
 70
     1
102
RTVSPropertyOp36
 70
     1
102
RTVSPropertyOp37
 70
     1
102
RTVSPropertyOp38
 70
     1
102
RTVSPropertyOp39
 70
     1
102
RTVSPropertyOp40
 70
     1
102
RTVSPropertyOp41
 70
     1
102
RTVSPropertyOp42
 70
     1
102
RTVSPropertyOp43
 70
     1
102
RTVSPropertyOp44
 70
     1
102
RTVSPropertyOp45
 70
     1
102
RTVSPropertyOp46
 70
     1
102
RTVSPropertyOp47
 70
     1
102
RTVSPropertyOp48
 70
     1
102
RTVSPropertyOp49
 70
     1
102
RTVSPropertyOp50
 70
     1
102
RTVSPropertyOp51
 70
     0
102
RTVSPropertyOp52
 70
     0
102
RTVSPropertyOp53
 70
     1
102
RTVSPropertyOp54
 70
     1
102
RTVSPropertyOp55
 70
     1
102
RTVSPropertyOp56
 70
     1
102
RTVSPropertyOp57
 70
     1
102
RTVSPropertyOp58
 70
     1
102
RTVSPropertyOp59
 70
     1
102
RTVSPropertyOp60
 70
     1
102
RTVSPropertyOp61
 70
     1
102
RTVSPropertyOp62
 70
     1
  0
XRECORD
  5
296
102
{ACAD_REACTORS
330
295
102
}
330
295
100
AcDbXrecord
280
     1
102
RTVSPost2010Prop28
280
     0
102
RTVSPost2010PropOp28
 70
     1
102
RTVSPost2010Prop29
280
     1
102
RTVSPost2010PropOp29
 70
     1
102
RTVSPost2010Prop30
280
     1
102
RTVSPost2010PropOp30
 70
     1
102
RTVSPost2010Prop31
280
     0
102
RTVSPost2010PropOp31
 70
     1
102
RTVSPost2010Prop32
280
     0
102
RTVSPost2010PropOp32
 70
     1
102
RTVSPost2010Prop33
280
     0
102
RTVSPost2010PropOp33
 70
     1
102
RTVSPost2010Prop34
280
     0
102
RTVSPost2010PropOp34
 70
     1
102
RTVSPost2010Prop35
280
     0
102
RTVSPost2010PropOp35
 70
     1
102
RTVSPost2010Prop36
280
     0
102
RTVSPost2010PropOp36
 70
     1
102
RTVSPost2010Prop37
 90
       50
102
RTVSPost2010PropOp37
 70
     1
102
RTVSPost2010Prop38
140
0.0
102
RTVSPost2010PropOp38
 70
     1
102
RTVSPost2010Prop39
140
1.0
102
RTVSPost2010PropOp39
 70
     1
102
RTVSPost2010Prop40
 90
        0
102
RTVSPost2010PropOp40
 70
     1
102
RTVSPost2010Prop41ColorIndex
 90
       18
102
RTVSPost2010Prop41ColorRGB
 90
        0
102
RTVSPost2010PropOp41
 70
     1
102
RTVSPost2010Prop42
 90
       50
102
RTVSPost2010PropOp42
 70
     1
102
RTVSPost2010Prop43
 90
        3
102
RTVSPost2010PropOp43
 70
     1
102
RTVSPost2010Prop44ColorIndex
 90
        5
102
RTVSPost2010Prop44ColorRGB
 90
      255
102
RTVSPost2010PropOp44
 70
     1
102
RTVSPost2010Prop45
280
     0
102
RTVSPost2010PropOp45
 70
     1
102
RTVSPost2010Prop46
 90
       50
102
RTVSPost2010PropOp46
 70
     1
102
RTVSPost2010Prop47
 90
       50
102
RTVSPost2010PropOp47
 70
     1
102
RTVSPost2010Prop48
 90
       50
102
RTVSPost2010PropOp48
 70
     1
102
RTVSPost2010Prop49
280
     0
102
RTVSPost2010PropOp49
 70
     1
102
RTVSPost2010Prop50
 90
       50
102
RTVSPost2010PropOp50
 70
     1
102
RTVSPost2010Prop51ColorIndex
 90
      256
102
RTVSPost2010Prop51ColorRGB
 90
-16777216
102
RTVSPost2010PropOp51
 70
     0
102
RTVSPost2010Prop52
140
1.0
102
RTVSPost2010PropOp52
 70
     0
102
RTVSPost2010Prop53
 90
        2
102
RTVSPost2010PropOp53
 70
     1
102
RTVSPost2010Prop54
  1
strokes_ogs.tif
102
RTVSPost2010PropOp54
 70
     1
102
RTVSPost2010Prop55
280
     0
102
RTVSPost2010PropOp55
 70
     1
102
RTVSPost2010Prop56
140
1.0
102
RTVSPost2010PropOp56
 70
     1
102
RTVSPost2010Prop57
140
1.0
102
RTVSPost2010PropOp57
 70
     1
102
RTVSPropertyOp0
 70
     1
102
RTVSPropertyOp1
 70
     1
102
RTVSPropertyOp2
 70
     1
102
RTVSPropertyOp3
 70
     1
102
RTVSPropertyOp4
 70
     1
102
RTVSPropertyOp5
 70
     1
102
RTVSPropertyOp6
 70
     1
102
RTVSPropertyOp7
 70
     1
102
RTVSPropertyOp8
 70
     1
102
RTVSPropertyOp9
 70
     1
102
RTVSPropertyOp10
 70
     1
102
RTVSPropertyOp11
 70
     1
102
RTVSPropertyOp12
 70
     1
102
RTVSPropertyOp13
 70
     1
102
RTVSPropertyOp14
 70
     1
102
RTVSPropertyOp15
 70
     1
102
RTVSPropertyOp16
 70
     1
102
RTVSPropertyOp17
 70
     1
102
RTVSPropertyOp18
 70
     1
102
RTVSPropertyOp19
 70
     1
102
RTVSPropertyOp20
 70
     1
102
RTVSPropertyOp21
 70
     1
102
RTVSPropertyOp22
 70
     1
102
RTVSPropertyOp23
 70
     1
102
RTVSPropertyOp24
 70
     1
102
RTVSPropertyOp25
 70
     1
102
RTVSPropertyOp26
 70
     1
102
RTVSPropertyOp27
 70
     1
102
RTVSPropertyOp28
 70
     1
102
RTVSPropertyOp29
 70
     1
102
RTVSPropertyOp30
 70
     1
102
RTVSPropertyOp31
 70
     1
102
RTVSPropertyOp32
 70
     1
102
RTVSPropertyOp33
 70
     1
102
RTVSPropertyOp34
 70
     1
102
RTVSPropertyOp35
 70
     1
102
RTVSPropertyOp36
 70
     1
102
RTVSPropertyOp37
 70
     1
102
RTVSPropertyOp38
 70
     1
102
RTVSPropertyOp39
 70
     1
102
RTVSPropertyOp40
 70
     1
102
RTVSPropertyOp41
 70
     1
102
RTVSPropertyOp42
 70
     1
102
RTVSPropertyOp43
 70
     1
102
RTVSPropertyOp44
 70
     1
102
RTVSPropertyOp45
 70
     1
102
RTVSPropertyOp46
 70
     1
102
RTVSPropertyOp47
 70
     1
102
RTVSPropertyOp48
 70
     1
102
RTVSPropertyOp49
 70
     1
102
RTVSPropertyOp50
 70
     1
102
RTVSPropertyOp51
 70
     0
102
RTVSPropertyOp52
 70
     0
102
RTVSPropertyOp53
 70
     1
102
RTVSPropertyOp54
 70
     1
102
RTVSPropertyOp55
 70
     1
102
RTVSPropertyOp56
 70
     1
102
RTVSPropertyOp57
 70
     1
102
RTVSPropertyOp58
 70
     1
102
RTVSPropertyOp59
 70
     1
102
RTVSPropertyOp60
 70
     1
102
RTVSPropertyOp61
 70
     1
102
RTVSPropertyOp62
 70
     1
  0
XRECORD
  5
29E
102
{ACAD_REACTORS
330
29D
102
}
330
29D
100
AcDbXrecord
280
     1
102
RTVSPost2010Prop28
280
     0
102
RTVSPost2010PropOp28
 70
     1
102
RTVSPost2010Prop29
280
     1
102
RTVSPost2010PropOp29
 70
     1
102
RTVSPost2010Prop30
280
     1
102
RTVSPost2010PropOp30
 70
     1
102
RTVSPost2010Prop31
280
     0
102
RTVSPost2010PropOp31
 70
     1
102
RTVSPost2010Prop32
280
     0
102
RTVSPost2010PropOp32
 70
     1
102
RTVSPost2010Prop33
280
     0
102
RTVSPost2010PropOp33
 70
     1
102
RTVSPost2010Prop34
280
     0
102
RTVSPost2010PropOp34
 70
     1
102
RTVSPost2010Prop35
280
     0
102
RTVSPost2010PropOp35
 70
     1
102
RTVSPost2010Prop36
280
     0
102
RTVSPost2010PropOp36
 70
     1
102
RTVSPost2010Prop37
 90
       50
102
RTVSPost2010PropOp37
 70
     1
102
RTVSPost2010Prop38
140
0.0
102
RTVSPost2010PropOp38
 70
     1
102
RTVSPost2010Prop39
140
1.0
102
RTVSPost2010PropOp39
 70
     1
102
RTVSPost2010Prop40
 90
        0
102
RTVSPost2010PropOp40
 70
     1
102
RTVSPost2010Prop41ColorIndex
 90
       18
102
RTVSPost2010Prop41ColorRGB
 90
        0
102
RTVSPost2010PropOp41
 70
     1
102
RTVSPost2010Prop42
 90
       50
102
RTVSPost2010PropOp42
 70
     1
102
RTVSPost2010Prop43
 90
        3
102
RTVSPost2010PropOp43
 70
     1
102
RTVSPost2010Prop44ColorIndex
 90
        5
102
RTVSPost2010Prop44ColorRGB
 90
      255
102
RTVSPost2010PropOp44
 70
     1
102
RTVSPost2010Prop45
280
     0
102
RTVSPost2010PropOp45
 70
     1
102
RTVSPost2010Prop46
 90
       50
102
RTVSPost2010PropOp46
 70
     1
102
RTVSPost2010Prop47
 90
       50
102
RTVSPost2010PropOp47
 70
     1
102
RTVSPost2010Prop48
 90
       50
102
RTVSPost2010PropOp48
 70
     1
102
RTVSPost2010Prop49
280
     0
102
RTVSPost2010PropOp49
 70
     1
102
RTVSPost2010Prop50
 90
       50
102
RTVSPost2010PropOp50
 70
     1
102
RTVSPost2010Prop51ColorIndex
 90
      256
102
RTVSPost2010Prop51ColorRGB
 90
-16777216
102
RTVSPost2010PropOp51
 70
     0
102
RTVSPost2010Prop52
140
1.0
102
RTVSPost2010PropOp52
 70
     0
102
RTVSPost2010Prop53
 90
        2
102
RTVSPost2010PropOp53
 70
     1
102
RTVSPost2010Prop54
  1
strokes_ogs.tif
102
RTVSPost2010PropOp54
 70
     1
102
RTVSPost2010Prop55
280
     0
102
RTVSPost2010PropOp55
 70
     1
102
RTVSPost2010Prop56
140
1.0
102
RTVSPost2010PropOp56
 70
     1
102
RTVSPost2010Prop57
140
1.0
102
RTVSPost2010PropOp57
 70
     1
102
RTVSPropertyOp0
 70
     1
102
RTVSPropertyOp1
 70
     1
102
RTVSPropertyOp2
 70
     1
102
RTVSPropertyOp3
 70
     1
102
RTVSPropertyOp4
 70
     1
102
RTVSPropertyOp5
 70
     1
102
RTVSPropertyOp6
 70
     1
102
RTVSPropertyOp7
 70
     1
102
RTVSPropertyOp8
 70
     1
102
RTVSPropertyOp9
 70
     1
102
RTVSPropertyOp10
 70
     1
102
RTVSPropertyOp11
 70
     1
102
RTVSPropertyOp12
 70
     1
102
RTVSPropertyOp13
 70
     1
102
RTVSPropertyOp14
 70
     1
102
RTVSPropertyOp15
 70
     1
102
RTVSPropertyOp16
 70
     1
102
RTVSPropertyOp17
 70
     1
102
RTVSPropertyOp18
 70
     1
102
RTVSPropertyOp19
 70
     1
102
RTVSPropertyOp20
 70
     1
102
RTVSPropertyOp21
 70
     1
102
RTVSPropertyOp22
 70
     1
102
RTVSPropertyOp23
 70
     1
102
RTVSPropertyOp24
 70
     1
102
RTVSPropertyOp25
 70
     1
102
RTVSPropertyOp26
 70
     1
102
RTVSPropertyOp27
 70
     1
102
RTVSPropertyOp28
 70
     1
102
RTVSPropertyOp29
 70
     1
102
RTVSPropertyOp30
 70
     1
102
RTVSPropertyOp31
 70
     1
102
RTVSPropertyOp32
 70
     1
102
RTVSPropertyOp33
 70
     1
102
RTVSPropertyOp34
 70
     1
102
RTVSPropertyOp35
 70
     1
102
RTVSPropertyOp36
 70
     1
102
RTVSPropertyOp37
 70
     1
102
RTVSPropertyOp38
 70
     1
102
RTVSPropertyOp39
 70
     1
102
RTVSPropertyOp40
 70
     1
102
RTVSPropertyOp41
 70
     1
102
RTVSPropertyOp42
 70
     1
102
RTVSPropertyOp43
 70
     1
102
RTVSPropertyOp44
 70
     1
102
RTVSPropertyOp45
 70
     1
102
RTVSPropertyOp46
 70
     1
102
RTVSPropertyOp47
 70
     1
102
RTVSPropertyOp48
 70
     1
102
RTVSPropertyOp49
 70
     1
102
RTVSPropertyOp50
 70
     1
102
RTVSPropertyOp51
 70
     0
102
RTVSPropertyOp52
 70
     0
102
RTVSPropertyOp53
 70
     1
102
RTVSPropertyOp54
 70
     1
102
RTVSPropertyOp55
 70
     1
102
RTVSPropertyOp56
 70
     1
102
RTVSPropertyOp57
 70
     1
102
RTVSPropertyOp58
 70
     1
102
RTVSPropertyOp59
 70
     1
102
RTVSPropertyOp60
 70
     1
102
RTVSPropertyOp61
 70
     1
102
RTVSPropertyOp62
 70
     1
  0
XRECORD
  5
290
102
{ACAD_REACTORS
330
28F
102
}
330
28F
100
AcDbXrecord
280
     1
102
RTVSPost2010Prop28
280
     0
102
RTVSPost2010PropOp28
 70
     1
102
RTVSPost2010Prop29
280
     1
102
RTVSPost2010PropOp29
 70
     1
102
RTVSPost2010Prop30
280
     1
102
RTVSPost2010PropOp30
 70
     1
102
RTVSPost2010Prop31
280
     0
102
RTVSPost2010PropOp31
 70
     1
102
RTVSPost2010Prop32
280
     0
102
RTVSPost2010PropOp32
 70
     1
102
RTVSPost2010Prop33
280
     0
102
RTVSPost2010PropOp33
 70
     1
102
RTVSPost2010Prop34
280
     0
102
RTVSPost2010PropOp34
 70
     1
102
RTVSPost2010Prop35
280
     0
102
RTVSPost2010PropOp35
 70
     1
102
RTVSPost2010Prop36
280
     0
102
RTVSPost2010PropOp36
 70
     1
102
RTVSPost2010Prop37
 90
       50
102
RTVSPost2010PropOp37
 70
     1
102
RTVSPost2010Prop38
140
0.0
102
RTVSPost2010PropOp38
 70
     1
102
RTVSPost2010Prop39
140
1.0
102
RTVSPost2010PropOp39
 70
     1
102
RTVSPost2010Prop40
 90
        0
102
RTVSPost2010PropOp40
 70
     1
102
RTVSPost2010Prop41ColorIndex
 90
       18
102
RTVSPost2010Prop41ColorRGB
 90
        0
102
RTVSPost2010PropOp41
 70
     1
102
RTVSPost2010Prop42
 90
       50
102
RTVSPost2010PropOp42
 70
     1
102
RTVSPost2010Prop43
 90
        3
102
RTVSPost2010PropOp43
 70
     1
102
RTVSPost2010Prop44ColorIndex
 90
        5
102
RTVSPost2010Prop44ColorRGB
 90
      255
102
RTVSPost2010PropOp44
 70
     1
102
RTVSPost2010Prop45
280
     0
102
RTVSPost2010PropOp45
 70
     1
102
RTVSPost2010Prop46
 90
       50
102
RTVSPost2010PropOp46
 70
     1
102
RTVSPost2010Prop47
 90
       50
102
RTVSPost2010PropOp47
 70
     1
102
RTVSPost2010Prop48
 90
       50
102
RTVSPost2010PropOp48
 70
     1
102
RTVSPost2010Prop49
280
     0
102
RTVSPost2010PropOp49
 70
     1
102
RTVSPost2010Prop50
 90
       50
102
RTVSPost2010PropOp50
 70
     1
102
RTVSPost2010Prop51ColorIndex
 90
      256
102
RTVSPost2010Prop51ColorRGB
 90
-16777216
102
RTVSPost2010PropOp51
 70
     0
102
RTVSPost2010Prop52
140
1.0
102
RTVSPost2010PropOp52
 70
     0
102
RTVSPost2010Prop53
 90
        2
102
RTVSPost2010PropOp53
 70
     1
102
RTVSPost2010Prop54
  1
strokes_ogs.tif
102
RTVSPost2010PropOp54
 70
     1
102
RTVSPost2010Prop55
280
     0
102
RTVSPost2010PropOp55
 70
     1
102
RTVSPost2010Prop56
140
1.0
102
RTVSPost2010PropOp56
 70
     1
102
RTVSPost2010Prop57
140
1.0
102
RTVSPost2010PropOp57
 70
     1
102
RTVSPropertyOp0
 70
     1
102
RTVSPropertyOp1
 70
     1
102
RTVSPropertyOp2
 70
     1
102
RTVSPropertyOp3
 70
     1
102
RTVSPropertyOp4
 70
     1
102
RTVSPropertyOp5
 70
     1
102
RTVSPropertyOp6
 70
     1
102
RTVSPropertyOp7
 70
     1
102
RTVSPropertyOp8
 70
     1
102
RTVSPropertyOp9
 70
     1
102
RTVSPropertyOp10
 70
     1
102
RTVSPropertyOp11
 70
     1
102
RTVSPropertyOp12
 70
     1
102
RTVSPropertyOp13
 70
     1
102
RTVSPropertyOp14
 70
     1
102
RTVSPropertyOp15
 70
     1
102
RTVSPropertyOp16
 70
     1
102
RTVSPropertyOp17
 70
     1
102
RTVSPropertyOp18
 70
     1
102
RTVSPropertyOp19
 70
     1
102
RTVSPropertyOp20
 70
     1
102
RTVSPropertyOp21
 70
     1
102
RTVSPropertyOp22
 70
     1
102
RTVSPropertyOp23
 70
     1
102
RTVSPropertyOp24
 70
     1
102
RTVSPropertyOp25
 70
     1
102
RTVSPropertyOp26
 70
     1
102
RTVSPropertyOp27
 70
     1
102
RTVSPropertyOp28
 70
     1
102
RTVSPropertyOp29
 70
     1
102
RTVSPropertyOp30
 70
     1
102
RTVSPropertyOp31
 70
     1
102
RTVSPropertyOp32
 70
     1
102
RTVSPropertyOp33
 70
     1
102
RTVSPropertyOp34
 70
     1
102
RTVSPropertyOp35
 70
     1
102
RTVSPropertyOp36
 70
     1
102
RTVSPropertyOp37
 70
     1
102
RTVSPropertyOp38
 70
     1
102
RTVSPropertyOp39
 70
     1
102
RTVSPropertyOp40
 70
     1
102
RTVSPropertyOp41
 70
     1
102
RTVSPropertyOp42
 70
     1
102
RTVSPropertyOp43
 70
     1
102
RTVSPropertyOp44
 70
     1
102
RTVSPropertyOp45
 70
     1
102
RTVSPropertyOp46
 70
     1
102
RTVSPropertyOp47
 70
     1
102
RTVSPropertyOp48
 70
     1
102
RTVSPropertyOp49
 70
     1
102
RTVSPropertyOp50
 70
     1
102
RTVSPropertyOp51
 70
     0
102
RTVSPropertyOp52
 70
     0
102
RTVSPropertyOp53
 70
     1
102
RTVSPropertyOp54
 70
     1
102
RTVSPropertyOp55
 70
     1
102
RTVSPropertyOp56
 70
     1
102
RTVSPropertyOp57
 70
     1
102
RTVSPropertyOp58
 70
     1
102
RTVSPropertyOp59
 70
     1
102
RTVSPropertyOp60
 70
     1
102
RTVSPropertyOp61
 70
     1
102
RTVSPropertyOp62
 70
     1
  0
XRECORD
  5
294
102
{ACAD_REACTORS
330
293
102
}
330
293
100
AcDbXrecord
280
     1
102
RTVSPost2010Prop28
280
     0
102
RTVSPost2010PropOp28
 70
     1
102
RTVSPost2010Prop29
280
     1
102
RTVSPost2010PropOp29
 70
     1
102
RTVSPost2010Prop30
280
     1
102
RTVSPost2010PropOp30
 70
     1
102
RTVSPost2010Prop31
280
     0
102
RTVSPost2010PropOp31
 70
     1
102
RTVSPost2010Prop32
280
     0
102
RTVSPost2010PropOp32
 70
     1
102
RTVSPost2010Prop33
280
     0
102
RTVSPost2010PropOp33
 70
     1
102
RTVSPost2010Prop34
280
     0
102
RTVSPost2010PropOp34
 70
     1
102
RTVSPost2010Prop35
280
     0
102
RTVSPost2010PropOp35
 70
     1
102
RTVSPost2010Prop36
280
     0
102
RTVSPost2010PropOp36
 70
     1
102
RTVSPost2010Prop37
 90
       50
102
RTVSPost2010PropOp37
 70
     1
102
RTVSPost2010Prop38
140
0.0
102
RTVSPost2010PropOp38
 70
     1
102
RTVSPost2010Prop39
140
1.0
102
RTVSPost2010PropOp39
 70
     1
102
RTVSPost2010Prop40
 90
        0
102
RTVSPost2010PropOp40
 70
     1
102
RTVSPost2010Prop41ColorIndex
 90
       18
102
RTVSPost2010Prop41ColorRGB
 90
        0
102
RTVSPost2010PropOp41
 70
     1
102
RTVSPost2010Prop42
 90
       50
102
RTVSPost2010PropOp42
 70
     1
102
RTVSPost2010Prop43
 90
        3
102
RTVSPost2010PropOp43
 70
     1
102
RTVSPost2010Prop44ColorIndex
 90
        5
102
RTVSPost2010Prop44ColorRGB
 90
      255
102
RTVSPost2010PropOp44
 70
     1
102
RTVSPost2010Prop45
280
     0
102
RTVSPost2010PropOp45
 70
     1
102
RTVSPost2010Prop46
 90
       50
102
RTVSPost2010PropOp46
 70
     1
102
RTVSPost2010Prop47
 90
       50
102
RTVSPost2010PropOp47
 70
     1
102
RTVSPost2010Prop48
 90
       50
102
RTVSPost2010PropOp48
 70
     1
102
RTVSPost2010Prop49
280
     0
102
RTVSPost2010PropOp49
 70
     1
102
RTVSPost2010Prop50
 90
       50
102
RTVSPost2010PropOp50
 70
     1
102
RTVSPost2010Prop51ColorIndex
 90
      256
102
RTVSPost2010Prop51ColorRGB
 90
-16777216
102
RTVSPost2010PropOp51
 70
     0
102
RTVSPost2010Prop52
140
1.0
102
RTVSPost2010PropOp52
 70
     0
102
RTVSPost2010Prop53
 90
        2
102
RTVSPost2010PropOp53
 70
     1
102
RTVSPost2010Prop54
  1
strokes_ogs.tif
102
RTVSPost2010PropOp54
 70
     1
102
RTVSPost2010Prop55
280
     0
102
RTVSPost2010PropOp55
 70
     1
102
RTVSPost2010Prop56
140
1.0
102
RTVSPost2010PropOp56
 70
     1
102
RTVSPost2010Prop57
140
1.0
102
RTVSPost2010PropOp57
 70
     1
102
RTVSPropertyOp0
 70
     1
102
RTVSPropertyOp1
 70
     1
102
RTVSPropertyOp2
 70
     1
102
RTVSPropertyOp3
 70
     1
102
RTVSPropertyOp4
 70
     1
102
RTVSPropertyOp5
 70
     1
102
RTVSPropertyOp6
 70
     1
102
RTVSPropertyOp7
 70
     1
102
RTVSPropertyOp8
 70
     1
102
RTVSPropertyOp9
 70
     1
102
RTVSPropertyOp10
 70
     1
102
RTVSPropertyOp11
 70
     1
102
RTVSPropertyOp12
 70
     1
102
RTVSPropertyOp13
 70
     1
102
RTVSPropertyOp14
 70
     1
102
RTVSPropertyOp15
 70
     1
102
RTVSPropertyOp16
 70
     1
102
RTVSPropertyOp17
 70
     1
102
RTVSPropertyOp18
 70
     1
102
RTVSPropertyOp19
 70
     1
102
RTVSPropertyOp20
 70
     1
102
RTVSPropertyOp21
 70
     1
102
RTVSPropertyOp22
 70
     1
102
RTVSPropertyOp23
 70
     1
102
RTVSPropertyOp24
 70
     1
102
RTVSPropertyOp25
 70
     1
102
RTVSPropertyOp26
 70
     1
102
RTVSPropertyOp27
 70
     1
102
RTVSPropertyOp28
 70
     1
102
RTVSPropertyOp29
 70
     1
102
RTVSPropertyOp30
 70
     1
102
RTVSPropertyOp31
 70
     1
102
RTVSPropertyOp32
 70
     1
102
RTVSPropertyOp33
 70
     1
102
RTVSPropertyOp34
 70
     1
102
RTVSPropertyOp35
 70
     1
102
RTVSPropertyOp36
 70
     1
102
RTVSPropertyOp37
 70
     1
102
RTVSPropertyOp38
 70
     1
102
RTVSPropertyOp39
 70
     1
102
RTVSPropertyOp40
 70
     1
102
RTVSPropertyOp41
 70
     1
102
RTVSPropertyOp42
 70
     1
102
RTVSPropertyOp43
 70
     1
102
RTVSPropertyOp44
 70
     1
102
RTVSPropertyOp45
 70
     1
102
RTVSPropertyOp46
 70
     1
102
RTVSPropertyOp47
 70
     1
102
RTVSPropertyOp48
 70
     1
102
RTVSPropertyOp49
 70
     1
102
RTVSPropertyOp50
 70
     1
102
RTVSPropertyOp51
 70
     0
102
RTVSPropertyOp52
 70
     0
102
RTVSPropertyOp53
 70
     1
102
RTVSPropertyOp54
 70
     1
102
RTVSPropertyOp55
 70
     1
102
RTVSPropertyOp56
 70
     1
102
RTVSPropertyOp57
 70
     1
102
RTVSPropertyOp58
 70
     1
102
RTVSPropertyOp59
 70
     1
102
RTVSPropertyOp60
 70
     1
102
RTVSPropertyOp61
 70
     1
102
RTVSPropertyOp62
 70
     1
  0
XRECORD
  5
2A4
102
{ACAD_REACTORS
330
2A3
102
}
330
2A3
100
AcDbXrecord
280
     1
102
RTVSPost2010Prop28
280
     0
102
RTVSPost2010PropOp28
 70
     1
102
RTVSPost2010Prop29
280
     1
102
RTVSPost2010PropOp29
 70
     1
102
RTVSPost2010Prop30
280
     1
102
RTVSPost2010PropOp30
 70
     1
102
RTVSPost2010Prop31
280
     0
102
RTVSPost2010PropOp31
 70
     1
102
RTVSPost2010Prop32
280
     0
102
RTVSPost2010PropOp32
 70
     1
102
RTVSPost2010Prop33
280
     0
102
RTVSPost2010PropOp33
 70
     1
102
RTVSPost2010Prop34
280
     0
102
RTVSPost2010PropOp34
 70
     1
102
RTVSPost2010Prop35
280
     0
102
RTVSPost2010PropOp35
 70
     1
102
RTVSPost2010Prop36
280
     0
102
RTVSPost2010PropOp36
 70
     1
102
RTVSPost2010Prop37
 90
       50
102
RTVSPost2010PropOp37
 70
     1
102
RTVSPost2010Prop38
140
0.0
102
RTVSPost2010PropOp38
 70
     1
102
RTVSPost2010Prop39
140
1.0
102
RTVSPost2010PropOp39
 70
     1
102
RTVSPost2010Prop40
 90
        0
102
RTVSPost2010PropOp40
 70
     1
102
RTVSPost2010Prop41ColorIndex
 90
       18
102
RTVSPost2010Prop41ColorRGB
 90
        0
102
RTVSPost2010PropOp41
 70
     1
102
RTVSPost2010Prop42
 90
       50
102
RTVSPost2010PropOp42
 70
     1
102
RTVSPost2010Prop43
 90
        3
102
RTVSPost2010PropOp43
 70
     1
102
RTVSPost2010Prop44ColorIndex
 90
        5
102
RTVSPost2010Prop44ColorRGB
 90
      255
102
RTVSPost2010PropOp44
 70
     1
102
RTVSPost2010Prop45
280
     0
102
RTVSPost2010PropOp45
 70
     1
102
RTVSPost2010Prop46
 90
       50
102
RTVSPost2010PropOp46
 70
     1
102
RTVSPost2010Prop47
 90
       50
102
RTVSPost2010PropOp47
 70
     1
102
RTVSPost2010Prop48
 90
       50
102
RTVSPost2010PropOp48
 70
     1
102
RTVSPost2010Prop49
280
     0
102
RTVSPost2010PropOp49
 70
     1
102
RTVSPost2010Prop50
 90
       50
102
RTVSPost2010PropOp50
 70
     1
102
RTVSPost2010Prop51ColorIndex
 90
      256
102
RTVSPost2010Prop51ColorRGB
 90
-16777216
102
RTVSPost2010PropOp51
 70
     0
102
RTVSPost2010Prop52
140
1.0
102
RTVSPost2010PropOp52
 70
     0
102
RTVSPost2010Prop53
 90
        2
102
RTVSPost2010PropOp53
 70
     1
102
RTVSPost2010Prop54
  1
strokes_ogs.tif
102
RTVSPost2010PropOp54
 70
     1
102
RTVSPost2010Prop55
280
     0
102
RTVSPost2010PropOp55
 70
     1
102
RTVSPost2010Prop56
140
1.0
102
RTVSPost2010PropOp56
 70
     1
102
RTVSPost2010Prop57
140
1.0
102
RTVSPost2010PropOp57
 70
     1
102
RTVSPropertyOp0
 70
     0
102
RTVSPropertyOp1
 70
     0
102
RTVSPropertyOp2
 70
     0
102
RTVSPropertyOp3
 70
     0
102
RTVSPropertyOp4
 70
     0
102
RTVSPropertyOp5
 70
     0
102
RTVSPropertyOp6
 70
     0
102
RTVSPropertyOp7
 70
     0
102
RTVSPropertyOp8
 70
     0
102
RTVSPropertyOp9
 70
     0
102
RTVSPropertyOp10
 70
     0
102
RTVSPropertyOp11
 70
     0
102
RTVSPropertyOp12
 70
     0
102
RTVSPropertyOp13
 70
     0
102
RTVSPropertyOp14
 70
     2
102
RTVSPropertyOp15
 70
     0
102
RTVSPropertyOp16
 70
     0
102
RTVSPropertyOp17
 70
     0
102
RTVSPropertyOp18
 70
     0
102
RTVSPropertyOp19
 70
     0
102
RTVSPropertyOp20
 70
     0
102
RTVSPropertyOp21
 70
     0
102
RTVSPropertyOp22
 70
     0
102
RTVSPropertyOp23
 70
     0
102
RTVSPropertyOp24
 70
     0
102
RTVSPropertyOp25
 70
     0
102
RTVSPropertyOp26
 70
     0
102
RTVSPropertyOp27
 70
     0
102
RTVSPropertyOp28
 70
     1
102
RTVSPropertyOp29
 70
     1
102
RTVSPropertyOp30
 70
     1
102
RTVSPropertyOp31
 70
     1
102
RTVSPropertyOp32
 70
     1
102
RTVSPropertyOp33
 70
     1
102
RTVSPropertyOp34
 70
     1
102
RTVSPropertyOp35
 70
     1
102
RTVSPropertyOp36
 70
     1
102
RTVSPropertyOp37
 70
     1
102
RTVSPropertyOp38
 70
     1
102
RTVSPropertyOp39
 70
     1
102
RTVSPropertyOp40
 70
     1
102
RTVSPropertyOp41
 70
     1
102
RTVSPropertyOp42
 70
     1
102
RTVSPropertyOp43
 70
     1
102
RTVSPropertyOp44
 70
     1
102
RTVSPropertyOp45
 70
     1
102
RTVSPropertyOp46
 70
     1
102
RTVSPropertyOp47
 70
     1
102
RTVSPropertyOp48
 70
     1
102
RTVSPropertyOp49
 70
     1
102
RTVSPropertyOp50
 70
     1
102
RTVSPropertyOp51
 70
     0
102
RTVSPropertyOp52
 70
     0
102
RTVSPropertyOp53
 70
     1
102
RTVSPropertyOp54
 70
     1
102
RTVSPropertyOp55
 70
     1
102
RTVSPropertyOp56
 70
     1
102
RTVSPropertyOp57
 70
     1
102
RTVSPropertyOp58
 70
     1
102
RTVSPropertyOp59
 70
     1
102
RTVSPropertyOp60
 70
     1
102
RTVSPropertyOp61
 70
     1
102
RTVSPropertyOp62
 70
     1
  0
XRECORD
  5
29C
102
{ACAD_REACTORS
330
29B
102
}
330
29B
100
AcDbXrecord
280
     1
102
RTVSPost2010Prop28
280
     0
102
RTVSPost2010PropOp28
 70
     1
102
RTVSPost2010Prop29
280
     1
102
RTVSPost2010PropOp29
 70
     1
102
RTVSPost2010Prop30
280
     1
102
RTVSPost2010PropOp30
 70
     1
102
RTVSPost2010Prop31
280
     0
102
RTVSPost2010PropOp31
 70
     1
102
RTVSPost2010Prop32
280
     0
102
RTVSPost2010PropOp32
 70
     1
102
RTVSPost2010Prop33
280
     0
102
RTVSPost2010PropOp33
 70
     1
102
RTVSPost2010Prop34
280
     0
102
RTVSPost2010PropOp34
 70
     1
102
RTVSPost2010Prop35
280
     0
102
RTVSPost2010PropOp35
 70
     1
102
RTVSPost2010Prop36
280
     0
102
RTVSPost2010PropOp36
 70
     1
102
RTVSPost2010Prop37
 90
       50
102
RTVSPost2010PropOp37
 70
     1
102
RTVSPost2010Prop38
140
0.0
102
RTVSPost2010PropOp38
 70
     1
102
RTVSPost2010Prop39
140
1.0
102
RTVSPost2010PropOp39
 70
     1
102
RTVSPost2010Prop40
 90
        0
102
RTVSPost2010PropOp40
 70
     1
102
RTVSPost2010Prop41ColorIndex
 90
       18
102
RTVSPost2010Prop41ColorRGB
 90
        0
102
RTVSPost2010PropOp41
 70
     1
102
RTVSPost2010Prop42
 90
       50
102
RTVSPost2010PropOp42
 70
     1
102
RTVSPost2010Prop43
 90
        3
102
RTVSPost2010PropOp43
 70
     1
102
RTVSPost2010Prop44ColorIndex
 90
        5
102
RTVSPost2010Prop44ColorRGB
 90
      255
102
RTVSPost2010PropOp44
 70
     1
102
RTVSPost2010Prop45
280
     0
102
RTVSPost2010PropOp45
 70
     1
102
RTVSPost2010Prop46
 90
       50
102
RTVSPost2010PropOp46
 70
     1
102
RTVSPost2010Prop47
 90
       50
102
RTVSPost2010PropOp47
 70
     1
102
RTVSPost2010Prop48
 90
       50
102
RTVSPost2010PropOp48
 70
     1
102
RTVSPost2010Prop49
280
     0
102
RTVSPost2010PropOp49
 70
     1
102
RTVSPost2010Prop50
 90
       50
102
RTVSPost2010PropOp50
 70
     1
102
RTVSPost2010Prop51ColorIndex
 90
      256
102
RTVSPost2010Prop51ColorRGB
 90
-16777216
102
RTVSPost2010PropOp51
 70
     0
102
RTVSPost2010Prop52
140
1.0
102
RTVSPost2010PropOp52
 70
     0
102
RTVSPost2010Prop53
 90
        2
102
RTVSPost2010PropOp53
 70
     1
102
RTVSPost2010Prop54
  1
strokes_ogs.tif
102
RTVSPost2010PropOp54
 70
     1
102
RTVSPost2010Prop55
280
     0
102
RTVSPost2010PropOp55
 70
     1
102
RTVSPost2010Prop56
140
1.0
102
RTVSPost2010PropOp56
 70
     1
102
RTVSPost2010Prop57
140
1.0
102
RTVSPost2010PropOp57
 70
     1
102
RTVSPropertyOp0
 70
     1
102
RTVSPropertyOp1
 70
     1
102
RTVSPropertyOp2
 70
     1
102
RTVSPropertyOp3
 70
     1
102
RTVSPropertyOp4
 70
     1
102
RTVSPropertyOp5
 70
     1
102
RTVSPropertyOp6
 70
     1
102
RTVSPropertyOp7
 70
     1
102
RTVSPropertyOp8
 70
     1
102
RTVSPropertyOp9
 70
     1
102
RTVSPropertyOp10
 70
     1
102
RTVSPropertyOp11
 70
     1
102
RTVSPropertyOp12
 70
     1
102
RTVSPropertyOp13
 70
     1
102
RTVSPropertyOp14
 70
     1
102
RTVSPropertyOp15
 70
     1
102
RTVSPropertyOp16
 70
     1
102
RTVSPropertyOp17
 70
     1
102
RTVSPropertyOp18
 70
     1
102
RTVSPropertyOp19
 70
     1
102
RTVSPropertyOp20
 70
     1
102
RTVSPropertyOp21
 70
     1
102
RTVSPropertyOp22
 70
     1
102
RTVSPropertyOp23
 70
     1
102
RTVSPropertyOp24
 70
     1
102
RTVSPropertyOp25
 70
     1
102
RTVSPropertyOp26
 70
     1
102
RTVSPropertyOp27
 70
     1
102
RTVSPropertyOp28
 70
     1
102
RTVSPropertyOp29
 70
     1
102
RTVSPropertyOp30
 70
     1
102
RTVSPropertyOp31
 70
     1
102
RTVSPropertyOp32
 70
     1
102
RTVSPropertyOp33
 70
     1
102
RTVSPropertyOp34
 70
     1
102
RTVSPropertyOp35
 70
     1
102
RTVSPropertyOp36
 70
     1
102
RTVSPropertyOp37
 70
     1
102
RTVSPropertyOp38
 70
     1
102
RTVSPropertyOp39
 70
     1
102
RTVSPropertyOp40
 70
     1
102
RTVSPropertyOp41
 70
     1
102
RTVSPropertyOp42
 70
     1
102
RTVSPropertyOp43
 70
     1
102
RTVSPropertyOp44
 70
     1
102
RTVSPropertyOp45
 70
     1
102
RTVSPropertyOp46
 70
     1
102
RTVSPropertyOp47
 70
     1
102
RTVSPropertyOp48
 70
     1
102
RTVSPropertyOp49
 70
     1
102
RTVSPropertyOp50
 70
     1
102
RTVSPropertyOp51
 70
     0
102
RTVSPropertyOp52
 70
     0
102
RTVSPropertyOp53
 70
     1
102
RTVSPropertyOp54
 70
     1
102
RTVSPropertyOp55
 70
     1
102
RTVSPropertyOp56
 70
     1
102
RTVSPropertyOp57
 70
     1
102
RTVSPropertyOp58
 70
     1
102
RTVSPropertyOp59
 70
     1
102
RTVSPropertyOp60
 70
     1
102
RTVSPropertyOp61
 70
     1
102
RTVSPropertyOp62
 70
     1
  0
XRECORD
  5
280
102
{ACAD_REACTORS
330
27F
102
}
330
27F
100
AcDbXrecord
280
     1
102
RTVSPost2010Prop28
280
     0
102
RTVSPost2010PropOp28
 70
     1
102
RTVSPost2010Prop29
280
     1
102
RTVSPost2010PropOp29
 70
     1
102
RTVSPost2010Prop30
280
     1
102
RTVSPost2010PropOp30
 70
     1
102
RTVSPost2010Prop31
280
     0
102
RTVSPost2010PropOp31
 70
     1
102
RTVSPost2010Prop32
280
     0
102
RTVSPost2010PropOp32
 70
     1
102
RTVSPost2010Prop33
280
     0
102
RTVSPost2010PropOp33
 70
     1
102
RTVSPost2010Prop34
280
     0
102
RTVSPost2010PropOp34
 70
     1
102
RTVSPost2010Prop35
280
     0
102
RTVSPost2010PropOp35
 70
     1
102
RTVSPost2010Prop36
280
     0
102
RTVSPost2010PropOp36
 70
     1
102
RTVSPost2010Prop37
 90
       50
102
RTVSPost2010PropOp37
 70
     1
102
RTVSPost2010Prop38
140
0.0
102
RTVSPost2010PropOp38
 70
     1
102
RTVSPost2010Prop39
140
1.0
102
RTVSPost2010PropOp39
 70
     1
102
RTVSPost2010Prop40
 90
        0
102
RTVSPost2010PropOp40
 70
     1
102
RTVSPost2010Prop41ColorIndex
 90
       18
102
RTVSPost2010Prop41ColorRGB
 90
        0
102
RTVSPost2010PropOp41
 70
     1
102
RTVSPost2010Prop42
 90
       50
102
RTVSPost2010PropOp42
 70
     1
102
RTVSPost2010Prop43
 90
        3
102
RTVSPost2010PropOp43
 70
     1
102
RTVSPost2010Prop44ColorIndex
 90
        5
102
RTVSPost2010Prop44ColorRGB
 90
      255
102
RTVSPost2010PropOp44
 70
     1
102
RTVSPost2010Prop45
280
     0
102
RTVSPost2010PropOp45
 70
     1
102
RTVSPost2010Prop46
 90
       50
102
RTVSPost2010PropOp46
 70
     1
102
RTVSPost2010Prop47
 90
       50
102
RTVSPost2010PropOp47
 70
     1
102
RTVSPost2010Prop48
 90
       50
102
RTVSPost2010PropOp48
 70
     1
102
RTVSPost2010Prop49
280
     0
102
RTVSPost2010PropOp49
 70
     1
102
RTVSPost2010Prop50
 90
       50
102
RTVSPost2010PropOp50
 70
     1
102
RTVSPost2010Prop51ColorIndex
 90
      256
102
RTVSPost2010Prop51ColorRGB
 90
-16777216
102
RTVSPost2010PropOp51
 70
     0
102
RTVSPost2010Prop52
140
1.0
102
RTVSPost2010PropOp52
 70
     0
102
RTVSPost2010Prop53
 90
        2
102
RTVSPost2010PropOp53
 70
     1
102
RTVSPost2010Prop54
  1
strokes_ogs.tif
102
RTVSPost2010PropOp54
 70
     1
102
RTVSPost2010Prop55
280
     0
102
RTVSPost2010PropOp55
 70
     1
102
RTVSPost2010Prop56
140
1.0
102
RTVSPost2010PropOp56
 70
     1
102
RTVSPost2010Prop57
140
1.0
102
RTVSPost2010PropOp57
 70
     1
102
RTVSPropertyOp0
 70
     1
102
RTVSPropertyOp1
 70
     1
102
RTVSPropertyOp2
 70
     1
102
RTVSPropertyOp3
 70
     1
102
RTVSPropertyOp4
 70
     1
102
RTVSPropertyOp5
 70
     1
102
RTVSPropertyOp6
 70
     1
102
RTVSPropertyOp7
 70
     1
102
RTVSPropertyOp8
 70
     1
102
RTVSPropertyOp9
 70
     1
102
RTVSPropertyOp10
 70
     1
102
RTVSPropertyOp11
 70
     1
102
RTVSPropertyOp12
 70
     1
102
RTVSPropertyOp13
 70
     1
102
RTVSPropertyOp14
 70
     1
102
RTVSPropertyOp15
 70
     1
102
RTVSPropertyOp16
 70
     1
102
RTVSPropertyOp17
 70
     1
102
RTVSPropertyOp18
 70
     1
102
RTVSPropertyOp19
 70
     1
102
RTVSPropertyOp20
 70
     1
102
RTVSPropertyOp21
 70
     1
102
RTVSPropertyOp22
 70
     1
102
RTVSPropertyOp23
 70
     1
102
RTVSPropertyOp24
 70
     1
102
RTVSPropertyOp25
 70
     1
102
RTVSPropertyOp26
 70
     1
102
RTVSPropertyOp27
 70
     1
102
RTVSPropertyOp28
 70
     1
102
RTVSPropertyOp29
 70
     1
102
RTVSPropertyOp30
 70
     1
102
RTVSPropertyOp31
 70
     1
102
RTVSPropertyOp32
 70
     1
102
RTVSPropertyOp33
 70
     1
102
RTVSPropertyOp34
 70
     1
102
RTVSPropertyOp35
 70
     1
102
RTVSPropertyOp36
 70
     1
102
RTVSPropertyOp37
 70
     1
102
RTVSPropertyOp38
 70
     1
102
RTVSPropertyOp39
 70
     1
102
RTVSPropertyOp40
 70
     1
102
RTVSPropertyOp41
 70
     1
102
RTVSPropertyOp42
 70
     1
102
RTVSPropertyOp43
 70
     1
102
RTVSPropertyOp44
 70
     1
102
RTVSPropertyOp45
 70
     1
102
RTVSPropertyOp46
 70
     1
102
RTVSPropertyOp47
 70
     1
102
RTVSPropertyOp48
 70
     1
102
RTVSPropertyOp49
 70
     1
102
RTVSPropertyOp50
 70
     1
102
RTVSPropertyOp51
 70
     0
102
RTVSPropertyOp52
 70
     0
102
RTVSPropertyOp53
 70
     1
102
RTVSPropertyOp54
 70
     1
102
RTVSPropertyOp55
 70
     1
102
RTVSPropertyOp56
 70
     1
102
RTVSPropertyOp57
 70
     1
102
RTVSPropertyOp58
 70
     1
102
RTVSPropertyOp59
 70
     1
102
RTVSPropertyOp60
 70
     1
102
RTVSPropertyOp61
 70
     1
102
RTVSPropertyOp62
 70
     1
  0
XRECORD
  5
282
102
{ACAD_REACTORS
330
281
102
}
330
281
100
AcDbXrecord
280
     1
102
RTVSPost2010Prop28
280
     0
102
RTVSPost2010PropOp28
 70
     1
102
RTVSPost2010Prop29
280
     1
102
RTVSPost2010PropOp29
 70
     1
102
RTVSPost2010Prop30
280
     1
102
RTVSPost2010PropOp30
 70
     1
102
RTVSPost2010Prop31
280
     0
102
RTVSPost2010PropOp31
 70
     1
102
RTVSPost2010Prop32
280
     0
102
RTVSPost2010PropOp32
 70
     1
102
RTVSPost2010Prop33
280
     0
102
RTVSPost2010PropOp33
 70
     1
102
RTVSPost2010Prop34
280
     0
102
RTVSPost2010PropOp34
 70
     1
102
RTVSPost2010Prop35
280
     0
102
RTVSPost2010PropOp35
 70
     1
102
RTVSPost2010Prop36
280
     0
102
RTVSPost2010PropOp36
 70
     1
102
RTVSPost2010Prop37
 90
       50
102
RTVSPost2010PropOp37
 70
     1
102
RTVSPost2010Prop38
140
0.0
102
RTVSPost2010PropOp38
 70
     1
102
RTVSPost2010Prop39
140
1.0
102
RTVSPost2010PropOp39
 70
     1
102
RTVSPost2010Prop40
 90
        0
102
RTVSPost2010PropOp40
 70
     1
102
RTVSPost2010Prop41ColorIndex
 90
       18
102
RTVSPost2010Prop41ColorRGB
 90
        0
102
RTVSPost2010PropOp41
 70
     1
102
RTVSPost2010Prop42
 90
       50
102
RTVSPost2010PropOp42
 70
     1
102
RTVSPost2010Prop43
 90
        3
102
RTVSPost2010PropOp43
 70
     1
102
RTVSPost2010Prop44ColorIndex
 90
        5
102
RTVSPost2010Prop44ColorRGB
 90
      255
102
RTVSPost2010PropOp44
 70
     1
102
RTVSPost2010Prop45
280
     0
102
RTVSPost2010PropOp45
 70
     1
102
RTVSPost2010Prop46
 90
       50
102
RTVSPost2010PropOp46
 70
     1
102
RTVSPost2010Prop47
 90
       50
102
RTVSPost2010PropOp47
 70
     1
102
RTVSPost2010Prop48
 90
       50
102
RTVSPost2010PropOp48
 70
     1
102
RTVSPost2010Prop49
280
     0
102
RTVSPost2010PropOp49
 70
     1
102
RTVSPost2010Prop50
 90
       50
102
RTVSPost2010PropOp50
 70
     1
102
RTVSPost2010Prop51ColorIndex
 90
      256
102
RTVSPost2010Prop51ColorRGB
 90
-16777216
102
RTVSPost2010PropOp51
 70
     0
102
RTVSPost2010Prop52
140
1.0
102
RTVSPost2010PropOp52
 70
     0
102
RTVSPost2010Prop53
 90
        2
102
RTVSPost2010PropOp53
 70
     1
102
RTVSPost2010Prop54
  1
strokes_ogs.tif
102
RTVSPost2010PropOp54
 70
     1
102
RTVSPost2010Prop55
280
     0
102
RTVSPost2010PropOp55
 70
     1
102
RTVSPost2010Prop56
140
1.0
102
RTVSPost2010PropOp56
 70
     1
102
RTVSPost2010Prop57
140
1.0
102
RTVSPost2010PropOp57
 70
     1
102
RTVSPropertyOp0
 70
     1
102
RTVSPropertyOp1
 70
     1
102
RTVSPropertyOp2
 70
     1
102
RTVSPropertyOp3
 70
     1
102
RTVSPropertyOp4
 70
     1
102
RTVSPropertyOp5
 70
     1
102
RTVSPropertyOp6
 70
     1
102
RTVSPropertyOp7
 70
     1
102
RTVSPropertyOp8
 70
     1
102
RTVSPropertyOp9
 70
     1
102
RTVSPropertyOp10
 70
     1
102
RTVSPropertyOp11
 70
     1
102
RTVSPropertyOp12
 70
     1
102
RTVSPropertyOp13
 70
     1
102
RTVSPropertyOp14
 70
     1
102
RTVSPropertyOp15
 70
     1
102
RTVSPropertyOp16
 70
     1
102
RTVSPropertyOp17
 70
     1
102
RTVSPropertyOp18
 70
     1
102
RTVSPropertyOp19
 70
     1
102
RTVSPropertyOp20
 70
     1
102
RTVSPropertyOp21
 70
     1
102
RTVSPropertyOp22
 70
     1
102
RTVSPropertyOp23
 70
     1
102
RTVSPropertyOp24
 70
     1
102
RTVSPropertyOp25
 70
     1
102
RTVSPropertyOp26
 70
     1
102
RTVSPropertyOp27
 70
     1
102
RTVSPropertyOp28
 70
     1
102
RTVSPropertyOp29
 70
     1
102
RTVSPropertyOp30
 70
     1
102
RTVSPropertyOp31
 70
     1
102
RTVSPropertyOp32
 70
     1
102
RTVSPropertyOp33
 70
     1
102
RTVSPropertyOp34
 70
     1
102
RTVSPropertyOp35
 70
     1
102
RTVSPropertyOp36
 70
     1
102
RTVSPropertyOp37
 70
     1
102
RTVSPropertyOp38
 70
     1
102
RTVSPropertyOp39
 70
     1
102
RTVSPropertyOp40
 70
     1
102
RTVSPropertyOp41
 70
     1
102
RTVSPropertyOp42
 70
     1
102
RTVSPropertyOp43
 70
     1
102
RTVSPropertyOp44
 70
     1
102
RTVSPropertyOp45
 70
     1
102
RTVSPropertyOp46
 70
     1
102
RTVSPropertyOp47
 70
     1
102
RTVSPropertyOp48
 70
     1
102
RTVSPropertyOp49
 70
     1
102
RTVSPropertyOp50
 70
     1
102
RTVSPropertyOp51
 70
     0
102
RTVSPropertyOp52
 70
     0
102
RTVSPropertyOp53
 70
     1
102
RTVSPropertyOp54
 70
     1
102
RTVSPropertyOp55
 70
     1
102
RTVSPropertyOp56
 70
     1
102
RTVSPropertyOp57
 70
     1
102
RTVSPropertyOp58
 70
     1
102
RTVSPropertyOp59
 70
     1
102
RTVSPropertyOp60
 70
     1
102
RTVSPropertyOp61
 70
     1
102
RTVSPropertyOp62
 70
     1
  0
XRECORD
  5
284
102
{ACAD_REACTORS
330
283
102
}
330
283
100
AcDbXrecord
280
     1
102
RTVSPost2010Prop28
280
     0
102
RTVSPost2010PropOp28
 70
     1
102
RTVSPost2010Prop29
280
     1
102
RTVSPost2010PropOp29
 70
     1
102
RTVSPost2010Prop30
280
     1
102
RTVSPost2010PropOp30
 70
     1
102
RTVSPost2010Prop31
280
     0
102
RTVSPost2010PropOp31
 70
     1
102
RTVSPost2010Prop32
280
     0
102
RTVSPost2010PropOp32
 70
     1
102
RTVSPost2010Prop33
280
     0
102
RTVSPost2010PropOp33
 70
     1
102
RTVSPost2010Prop34
280
     0
102
RTVSPost2010PropOp34
 70
     1
102
RTVSPost2010Prop35
280
     0
102
RTVSPost2010PropOp35
 70
     1
102
RTVSPost2010Prop36
280
     0
102
RTVSPost2010PropOp36
 70
     1
102
RTVSPost2010Prop37
 90
       50
102
RTVSPost2010PropOp37
 70
     1
102
RTVSPost2010Prop38
140
0.0
102
RTVSPost2010PropOp38
 70
     1
102
RTVSPost2010Prop39
140
1.0
102
RTVSPost2010PropOp39
 70
     1
102
RTVSPost2010Prop40
 90
        0
102
RTVSPost2010PropOp40
 70
     1
102
RTVSPost2010Prop41ColorIndex
 90
       18
102
RTVSPost2010Prop41ColorRGB
 90
        0
102
RTVSPost2010PropOp41
 70
     1
102
RTVSPost2010Prop42
 90
       50
102
RTVSPost2010PropOp42
 70
     1
102
RTVSPost2010Prop43
 90
        3
102
RTVSPost2010PropOp43
 70
     1
102
RTVSPost2010Prop44ColorIndex
 90
        5
102
RTVSPost2010Prop44ColorRGB
 90
      255
102
RTVSPost2010PropOp44
 70
     1
102
RTVSPost2010Prop45
280
     0
102
RTVSPost2010PropOp45
 70
     1
102
RTVSPost2010Prop46
 90
       50
102
RTVSPost2010PropOp46
 70
     1
102
RTVSPost2010Prop47
 90
       50
102
RTVSPost2010PropOp47
 70
     1
102
RTVSPost2010Prop48
 90
       50
102
RTVSPost2010PropOp48
 70
     1
102
RTVSPost2010Prop49
280
     0
102
RTVSPost2010PropOp49
 70
     1
102
RTVSPost2010Prop50
 90
       50
102
RTVSPost2010PropOp50
 70
     1
102
RTVSPost2010Prop51ColorIndex
 90
      256
102
RTVSPost2010Prop51ColorRGB
 90
-16777216
102
RTVSPost2010PropOp51
 70
     0
102
RTVSPost2010Prop52
140
1.0
102
RTVSPost2010PropOp52
 70
     0
102
RTVSPost2010Prop53
 90
        2
102
RTVSPost2010PropOp53
 70
     1
102
RTVSPost2010Prop54
  1
strokes_ogs.tif
102
RTVSPost2010PropOp54
 70
     1
102
RTVSPost2010Prop55
280
     0
102
RTVSPost2010PropOp55
 70
     1
102
RTVSPost2010Prop56
140
1.0
102
RTVSPost2010PropOp56
 70
     1
102
RTVSPost2010Prop57
140
1.0
102
RTVSPost2010PropOp57
 70
     1
102
RTVSPropertyOp0
 70
     1
102
RTVSPropertyOp1
 70
     1
102
RTVSPropertyOp2
 70
     1
102
RTVSPropertyOp3
 70
     1
102
RTVSPropertyOp4
 70
     1
102
RTVSPropertyOp5
 70
     1
102
RTVSPropertyOp6
 70
     1
102
RTVSPropertyOp7
 70
     1
102
RTVSPropertyOp8
 70
     1
102
RTVSPropertyOp9
 70
     1
102
RTVSPropertyOp10
 70
     1
102
RTVSPropertyOp11
 70
     1
102
RTVSPropertyOp12
 70
     1
102
RTVSPropertyOp13
 70
     1
102
RTVSPropertyOp14
 70
     1
102
RTVSPropertyOp15
 70
     1
102
RTVSPropertyOp16
 70
     1
102
RTVSPropertyOp17
 70
     1
102
RTVSPropertyOp18
 70
     1
102
RTVSPropertyOp19
 70
     1
102
RTVSPropertyOp20
 70
     1
102
RTVSPropertyOp21
 70
     1
102
RTVSPropertyOp22
 70
     1
102
RTVSPropertyOp23
 70
     1
102
RTVSPropertyOp24
 70
     1
102
RTVSPropertyOp25
 70
     1
102
RTVSPropertyOp26
 70
     1
102
RTVSPropertyOp27
 70
     1
102
RTVSPropertyOp28
 70
     1
102
RTVSPropertyOp29
 70
     1
102
RTVSPropertyOp30
 70
     1
102
RTVSPropertyOp31
 70
     1
102
RTVSPropertyOp32
 70
     1
102
RTVSPropertyOp33
 70
     1
102
RTVSPropertyOp34
 70
     1
102
RTVSPropertyOp35
 70
     1
102
RTVSPropertyOp36
 70
     1
102
RTVSPropertyOp37
 70
     1
102
RTVSPropertyOp38
 70
     1
102
RTVSPropertyOp39
 70
     1
102
RTVSPropertyOp40
 70
     1
102
RTVSPropertyOp41
 70
     1
102
RTVSPropertyOp42
 70
     1
102
RTVSPropertyOp43
 70
     1
102
RTVSPropertyOp44
 70
     1
102
RTVSPropertyOp45
 70
     1
102
RTVSPropertyOp46
 70
     1
102
RTVSPropertyOp47
 70
     1
102
RTVSPropertyOp48
 70
     1
102
RTVSPropertyOp49
 70
     1
102
RTVSPropertyOp50
 70
     1
102
RTVSPropertyOp51
 70
     0
102
RTVSPropertyOp52
 70
     0
102
RTVSPropertyOp53
 70
     1
102
RTVSPropertyOp54
 70
     1
102
RTVSPropertyOp55
 70
     1
102
RTVSPropertyOp56
 70
     1
102
RTVSPropertyOp57
 70
     1
102
RTVSPropertyOp58
 70
     1
102
RTVSPropertyOp59
 70
     1
102
RTVSPropertyOp60
 70
     1
102
RTVSPropertyOp61
 70
     1
102
RTVSPropertyOp62
 70
     1
  0
XRECORD
  5
286
102
{ACAD_REACTORS
330
285
102
}
330
285
100
AcDbXrecord
280
     1
102
RTVSPost2010Prop28
280
     0
102
RTVSPost2010PropOp28
 70
     1
102
RTVSPost2010Prop29
280
     1
102
RTVSPost2010PropOp29
 70
     1
102
RTVSPost2010Prop30
280
     1
102
RTVSPost2010PropOp30
 70
     1
102
RTVSPost2010Prop31
280
     0
102
RTVSPost2010PropOp31
 70
     1
102
RTVSPost2010Prop32
280
     0
102
RTVSPost2010PropOp32
 70
     1
102
RTVSPost2010Prop33
280
     0
102
RTVSPost2010PropOp33
 70
     1
102
RTVSPost2010Prop34
280
     0
102
RTVSPost2010PropOp34
 70
     1
102
RTVSPost2010Prop35
280
     0
102
RTVSPost2010PropOp35
 70
     1
102
RTVSPost2010Prop36
280
     0
102
RTVSPost2010PropOp36
 70
     1
102
RTVSPost2010Prop37
 90
       50
102
RTVSPost2010PropOp37
 70
     1
102
RTVSPost2010Prop38
140
0.0
102
RTVSPost2010PropOp38
 70
     1
102
RTVSPost2010Prop39
140
1.0
102
RTVSPost2010PropOp39
 70
     1
102
RTVSPost2010Prop40
 90
        0
102
RTVSPost2010PropOp40
 70
     1
102
RTVSPost2010Prop41ColorIndex
 90
       18
102
RTVSPost2010Prop41ColorRGB
 90
        0
102
RTVSPost2010PropOp41
 70
     1
102
RTVSPost2010Prop42
 90
       50
102
RTVSPost2010PropOp42
 70
     1
102
RTVSPost2010Prop43
 90
        3
102
RTVSPost2010PropOp43
 70
     1
102
RTVSPost2010Prop44ColorIndex
 90
        5
102
RTVSPost2010Prop44ColorRGB
 90
      255
102
RTVSPost2010PropOp44
 70
     1
102
RTVSPost2010Prop45
280
     0
102
RTVSPost2010PropOp45
 70
     1
102
RTVSPost2010Prop46
 90
       50
102
RTVSPost2010PropOp46
 70
     1
102
RTVSPost2010Prop47
 90
       50
102
RTVSPost2010PropOp47
 70
     1
102
RTVSPost2010Prop48
 90
       50
102
RTVSPost2010PropOp48
 70
     1
102
RTVSPost2010Prop49
280
     0
102
RTVSPost2010PropOp49
 70
     1
102
RTVSPost2010Prop50
 90
       50
102
RTVSPost2010PropOp50
 70
     1
102
RTVSPost2010Prop51ColorIndex
 90
      256
102
RTVSPost2010Prop51ColorRGB
 90
-16777216
102
RTVSPost2010PropOp51
 70
     0
102
RTVSPost2010Prop52
140
1.0
102
RTVSPost2010PropOp52
 70
     0
102
RTVSPost2010Prop53
 90
        2
102
RTVSPost2010PropOp53
 70
     1
102
RTVSPost2010Prop54
  1
strokes_ogs.tif
102
RTVSPost2010PropOp54
 70
     1
102
RTVSPost2010Prop55
280
     0
102
RTVSPost2010PropOp55
 70
     1
102
RTVSPost2010Prop56
140
1.0
102
RTVSPost2010PropOp56
 70
     1
102
RTVSPost2010Prop57
140
1.0
102
RTVSPost2010PropOp57
 70
     1
102
RTVSPropertyOp0
 70
     1
102
RTVSPropertyOp1
 70
     1
102
RTVSPropertyOp2
 70
     1
102
RTVSPropertyOp3
 70
     1
102
RTVSPropertyOp4
 70
     1
102
RTVSPropertyOp5
 70
     1
102
RTVSPropertyOp6
 70
     1
102
RTVSPropertyOp7
 70
     1
102
RTVSPropertyOp8
 70
     1
102
RTVSPropertyOp9
 70
     1
102
RTVSPropertyOp10
 70
     1
102
RTVSPropertyOp11
 70
     1
102
RTVSPropertyOp12
 70
     1
102
RTVSPropertyOp13
 70
     1
102
RTVSPropertyOp14
 70
     1
102
RTVSPropertyOp15
 70
     1
102
RTVSPropertyOp16
 70
     1
102
RTVSPropertyOp17
 70
     1
102
RTVSPropertyOp18
 70
     1
102
RTVSPropertyOp19
 70
     1
102
RTVSPropertyOp20
 70
     1
102
RTVSPropertyOp21
 70
     1
102
RTVSPropertyOp22
 70
     1
102
RTVSPropertyOp23
 70
     1
102
RTVSPropertyOp24
 70
     1
102
RTVSPropertyOp25
 70
     1
102
RTVSPropertyOp26
 70
     1
102
RTVSPropertyOp27
 70
     1
102
RTVSPropertyOp28
 70
     1
102
RTVSPropertyOp29
 70
     1
102
RTVSPropertyOp30
 70
     1
102
RTVSPropertyOp31
 70
     1
102
RTVSPropertyOp32
 70
     1
102
RTVSPropertyOp33
 70
     1
102
RTVSPropertyOp34
 70
     1
102
RTVSPropertyOp35
 70
     1
102
RTVSPropertyOp36
 70
     1
102
RTVSPropertyOp37
 70
     1
102
RTVSPropertyOp38
 70
     1
102
RTVSPropertyOp39
 70
     1
102
RTVSPropertyOp40
 70
     1
102
RTVSPropertyOp41
 70
     1
102
RTVSPropertyOp42
 70
     1
102
RTVSPropertyOp43
 70
     1
102
RTVSPropertyOp44
 70
     1
102
RTVSPropertyOp45
 70
     1
102
RTVSPropertyOp46
 70
     1
102
RTVSPropertyOp47
 70
     1
102
RTVSPropertyOp48
 70
     1
102
RTVSPropertyOp49
 70
     1
102
RTVSPropertyOp50
 70
     1
102
RTVSPropertyOp51
 70
     0
102
RTVSPropertyOp52
 70
     0
102
RTVSPropertyOp53
 70
     1
102
RTVSPropertyOp54
 70
     1
102
RTVSPropertyOp55
 70
     1
102
RTVSPropertyOp56
 70
     1
102
RTVSPropertyOp57
 70
     1
102
RTVSPropertyOp58
 70
     1
102
RTVSPropertyOp59
 70
     1
102
RTVSPropertyOp60
 70
     1
102
RTVSPropertyOp61
 70
     1
102
RTVSPropertyOp62
 70
     1
  0
XRECORD
  5
28E
102
{ACAD_REACTORS
330
28D
102
}
330
28D
100
AcDbXrecord
280
     1
102
RTVSPost2010Prop28
280
     0
102
RTVSPost2010PropOp28
 70
     1
102
RTVSPost2010Prop29
280
     1
102
RTVSPost2010PropOp29
 70
     1
102
RTVSPost2010Prop30
280
     1
102
RTVSPost2010PropOp30
 70
     1
102
RTVSPost2010Prop31
280
     0
102
RTVSPost2010PropOp31
 70
     1
102
RTVSPost2010Prop32
280
     0
102
RTVSPost2010PropOp32
 70
     1
102
RTVSPost2010Prop33
280
     0
102
RTVSPost2010PropOp33
 70
     1
102
RTVSPost2010Prop34
280
     0
102
RTVSPost2010PropOp34
 70
     1
102
RTVSPost2010Prop35
280
     0
102
RTVSPost2010PropOp35
 70
     1
102
RTVSPost2010Prop36
280
     0
102
RTVSPost2010PropOp36
 70
     1
102
RTVSPost2010Prop37
 90
       50
102
RTVSPost2010PropOp37
 70
     1
102
RTVSPost2010Prop38
140
0.0
102
RTVSPost2010PropOp38
 70
     1
102
RTVSPost2010Prop39
140
1.0
102
RTVSPost2010PropOp39
 70
     1
102
RTVSPost2010Prop40
 90
        0
102
RTVSPost2010PropOp40
 70
     1
102
RTVSPost2010Prop41ColorIndex
 90
       18
102
RTVSPost2010Prop41ColorRGB
 90
        0
102
RTVSPost2010PropOp41
 70
     1
102
RTVSPost2010Prop42
 90
       50
102
RTVSPost2010PropOp42
 70
     1
102
RTVSPost2010Prop43
 90
        3
102
RTVSPost2010PropOp43
 70
     1
102
RTVSPost2010Prop44ColorIndex
 90
        5
102
RTVSPost2010Prop44ColorRGB
 90
      255
102
RTVSPost2010PropOp44
 70
     1
102
RTVSPost2010Prop45
280
     0
102
RTVSPost2010PropOp45
 70
     1
102
RTVSPost2010Prop46
 90
       50
102
RTVSPost2010PropOp46
 70
     1
102
RTVSPost2010Prop47
 90
       50
102
RTVSPost2010PropOp47
 70
     1
102
RTVSPost2010Prop48
 90
       50
102
RTVSPost2010PropOp48
 70
     1
102
RTVSPost2010Prop49
280
     0
102
RTVSPost2010PropOp49
 70
     1
102
RTVSPost2010Prop50
 90
       50
102
RTVSPost2010PropOp50
 70
     1
102
RTVSPost2010Prop51ColorIndex
 90
      256
102
RTVSPost2010Prop51ColorRGB
 90
-16777216
102
RTVSPost2010PropOp51
 70
     0
102
RTVSPost2010Prop52
140
1.0
102
RTVSPost2010PropOp52
 70
     0
102
RTVSPost2010Prop53
 90
        2
102
RTVSPost2010PropOp53
 70
     1
102
RTVSPost2010Prop54
  1
strokes_ogs.tif
102
RTVSPost2010PropOp54
 70
     1
102
RTVSPost2010Prop55
280
     0
102
RTVSPost2010PropOp55
 70
     1
102
RTVSPost2010Prop56
140
1.0
102
RTVSPost2010PropOp56
 70
     1
102
RTVSPost2010Prop57
140
1.0
102
RTVSPost2010PropOp57
 70
     1
102
RTVSPropertyOp0
 70
     1
102
RTVSPropertyOp1
 70
     1
102
RTVSPropertyOp2
 70
     1
102
RTVSPropertyOp3
 70
     1
102
RTVSPropertyOp4
 70
     1
102
RTVSPropertyOp5
 70
     1
102
RTVSPropertyOp6
 70
     1
102
RTVSPropertyOp7
 70
     1
102
RTVSPropertyOp8
 70
     1
102
RTVSPropertyOp9
 70
     1
102
RTVSPropertyOp10
 70
     1
102
RTVSPropertyOp11
 70
     1
102
RTVSPropertyOp12
 70
     1
102
RTVSPropertyOp13
 70
     1
102
RTVSPropertyOp14
 70
     1
102
RTVSPropertyOp15
 70
     1
102
RTVSPropertyOp16
 70
     1
102
RTVSPropertyOp17
 70
     1
102
RTVSPropertyOp18
 70
     1
102
RTVSPropertyOp19
 70
     1
102
RTVSPropertyOp20
 70
     1
102
RTVSPropertyOp21
 70
     1
102
RTVSPropertyOp22
 70
     1
102
RTVSPropertyOp23
 70
     1
102
RTVSPropertyOp24
 70
     1
102
RTVSPropertyOp25
 70
     1
102
RTVSPropertyOp26
 70
     1
102
RTVSPropertyOp27
 70
     1
102
RTVSPropertyOp28
 70
     1
102
RTVSPropertyOp29
 70
     1
102
RTVSPropertyOp30
 70
     1
102
RTVSPropertyOp31
 70
     1
102
RTVSPropertyOp32
 70
     1
102
RTVSPropertyOp33
 70
     1
102
RTVSPropertyOp34
 70
     1
102
RTVSPropertyOp35
 70
     1
102
RTVSPropertyOp36
 70
     1
102
RTVSPropertyOp37
 70
     1
102
RTVSPropertyOp38
 70
     1
102
RTVSPropertyOp39
 70
     1
102
RTVSPropertyOp40
 70
     1
102
RTVSPropertyOp41
 70
     1
102
RTVSPropertyOp42
 70
     1
102
RTVSPropertyOp43
 70
     1
102
RTVSPropertyOp44
 70
     1
102
RTVSPropertyOp45
 70
     1
102
RTVSPropertyOp46
 70
     1
102
RTVSPropertyOp47
 70
     1
102
RTVSPropertyOp48
 70
     1
102
RTVSPropertyOp49
 70
     1
102
RTVSPropertyOp50
 70
     1
102
RTVSPropertyOp51
 70
     0
102
RTVSPropertyOp52
 70
     0
102
RTVSPropertyOp53
 70
     1
102
RTVSPropertyOp54
 70
     1
102
RTVSPropertyOp55
 70
     1
102
RTVSPropertyOp56
 70
     1
102
RTVSPropertyOp57
 70
     1
102
RTVSPropertyOp58
 70
     1
102
RTVSPropertyOp59
 70
     1
102
RTVSPropertyOp60
 70
     1
102
RTVSPropertyOp61
 70
     1
102
RTVSPropertyOp62
 70
     1
  0
XRECORD
  5
2A0
102
{ACAD_REACTORS
330
29F
102
}
330
29F
100
AcDbXrecord
280
     1
102
RTVSPost2010Prop28
280
     0
102
RTVSPost2010PropOp28
 70
     1
102
RTVSPost2010Prop29
280
     1
102
RTVSPost2010PropOp29
 70
     1
102
RTVSPost2010Prop30
280
     1
102
RTVSPost2010PropOp30
 70
     1
102
RTVSPost2010Prop31
280
     0
102
RTVSPost2010PropOp31
 70
     1
102
RTVSPost2010Prop32
280
     0
102
RTVSPost2010PropOp32
 70
     1
102
RTVSPost2010Prop33
280
     0
102
RTVSPost2010PropOp33
 70
     1
102
RTVSPost2010Prop34
280
     0
102
RTVSPost2010PropOp34
 70
     1
102
RTVSPost2010Prop35
280
     0
102
RTVSPost2010PropOp35
 70
     1
102
RTVSPost2010Prop36
280
     0
102
RTVSPost2010PropOp36
 70
     1
102
RTVSPost2010Prop37
 90
       50
102
RTVSPost2010PropOp37
 70
     1
102
RTVSPost2010Prop38
140
0.0
102
RTVSPost2010PropOp38
 70
     1
102
RTVSPost2010Prop39
140
1.0
102
RTVSPost2010PropOp39
 70
     1
102
RTVSPost2010Prop40
 90
        0
102
RTVSPost2010PropOp40
 70
     1
102
RTVSPost2010Prop41ColorIndex
 90
       18
102
RTVSPost2010Prop41ColorRGB
 90
        0
102
RTVSPost2010PropOp41
 70
     1
102
RTVSPost2010Prop42
 90
       50
102
RTVSPost2010PropOp42
 70
     1
102
RTVSPost2010Prop43
 90
        3
102
RTVSPost2010PropOp43
 70
     1
102
RTVSPost2010Prop44ColorIndex
 90
        5
102
RTVSPost2010Prop44ColorRGB
 90
      255
102
RTVSPost2010PropOp44
 70
     1
102
RTVSPost2010Prop45
280
     0
102
RTVSPost2010PropOp45
 70
     1
102
RTVSPost2010Prop46
 90
       50
102
RTVSPost2010PropOp46
 70
     1
102
RTVSPost2010Prop47
 90
       50
102
RTVSPost2010PropOp47
 70
     1
102
RTVSPost2010Prop48
 90
       50
102
RTVSPost2010PropOp48
 70
     1
102
RTVSPost2010Prop49
280
     0
102
RTVSPost2010PropOp49
 70
     1
102
RTVSPost2010Prop50
 90
       50
102
RTVSPost2010PropOp50
 70
     1
102
RTVSPost2010Prop51ColorIndex
 90
      256
102
RTVSPost2010Prop51ColorRGB
 90
-16777216
102
RTVSPost2010PropOp51
 70
     0
102
RTVSPost2010Prop52
140
1.0
102
RTVSPost2010PropOp52
 70
     0
102
RTVSPost2010Prop53
 90
        2
102
RTVSPost2010PropOp53
 70
     1
102
RTVSPost2010Prop54
  1
strokes_ogs.tif
102
RTVSPost2010PropOp54
 70
     1
102
RTVSPost2010Prop55
280
     0
102
RTVSPost2010PropOp55
 70
     1
102
RTVSPost2010Prop56
140
1.0
102
RTVSPost2010PropOp56
 70
     1
102
RTVSPost2010Prop57
140
1.0
102
RTVSPost2010PropOp57
 70
     1
102
RTVSPropertyOp0
 70
     0
102
RTVSPropertyOp1
 70
     0
102
RTVSPropertyOp2
 70
     0
102
RTVSPropertyOp3
 70
     0
102
RTVSPropertyOp4
 70
     0
102
RTVSPropertyOp5
 70
     0
102
RTVSPropertyOp6
 70
     0
102
RTVSPropertyOp7
 70
     0
102
RTVSPropertyOp8
 70
     0
102
RTVSPropertyOp9
 70
     0
102
RTVSPropertyOp10
 70
     0
102
RTVSPropertyOp11
 70
     0
102
RTVSPropertyOp12
 70
     0
102
RTVSPropertyOp13
 70
     0
102
RTVSPropertyOp14
 70
     2
102
RTVSPropertyOp15
 70
     0
102
RTVSPropertyOp16
 70
     0
102
RTVSPropertyOp17
 70
     0
102
RTVSPropertyOp18
 70
     0
102
RTVSPropertyOp19
 70
     0
102
RTVSPropertyOp20
 70
     0
102
RTVSPropertyOp21
 70
     0
102
RTVSPropertyOp22
 70
     0
102
RTVSPropertyOp23
 70
     0
102
RTVSPropertyOp24
 70
     0
102
RTVSPropertyOp25
 70
     0
102
RTVSPropertyOp26
 70
     0
102
RTVSPropertyOp27
 70
     0
102
RTVSPropertyOp28
 70
     1
102
RTVSPropertyOp29
 70
     1
102
RTVSPropertyOp30
 70
     1
102
RTVSPropertyOp31
 70
     1
102
RTVSPropertyOp32
 70
     1
102
RTVSPropertyOp33
 70
     1
102
RTVSPropertyOp34
 70
     1
102
RTVSPropertyOp35
 70
     1
102
RTVSPropertyOp36
 70
     1
102
RTVSPropertyOp37
 70
     1
102
RTVSPropertyOp38
 70
     1
102
RTVSPropertyOp39
 70
     1
102
RTVSPropertyOp40
 70
     1
102
RTVSPropertyOp41
 70
     1
102
RTVSPropertyOp42
 70
     1
102
RTVSPropertyOp43
 70
     1
102
RTVSPropertyOp44
 70
     1
102
RTVSPropertyOp45
 70
     1
102
RTVSPropertyOp46
 70
     1
102
RTVSPropertyOp47
 70
     1
102
RTVSPropertyOp48
 70
     1
102
RTVSPropertyOp49
 70
     1
102
RTVSPropertyOp50
 70
     1
102
RTVSPropertyOp51
 70
     0
102
RTVSPropertyOp52
 70
     0
102
RTVSPropertyOp53
 70
     1
102
RTVSPropertyOp54
 70
     1
102
RTVSPropertyOp55
 70
     1
102
RTVSPropertyOp56
 70
     1
102
RTVSPropertyOp57
 70
     1
102
RTVSPropertyOp58
 70
     1
102
RTVSPropertyOp59
 70
     1
102
RTVSPropertyOp60
 70
     1
102
RTVSPropertyOp61
 70
     1
102
RTVSPropertyOp62
 70
     1
  0
XRECORD
  5
29A
102
{ACAD_REACTORS
330
299
102
}
330
299
100
AcDbXrecord
280
     1
102
RTVSPost2010Prop28
280
     0
102
RTVSPost2010PropOp28
 70
     1
102
RTVSPost2010Prop29
280
     1
102
RTVSPost2010PropOp29
 70
     1
102
RTVSPost2010Prop30
280
     1
102
RTVSPost2010PropOp30
 70
     1
102
RTVSPost2010Prop31
280
     0
102
RTVSPost2010PropOp31
 70
     1
102
RTVSPost2010Prop32
280
     0
102
RTVSPost2010PropOp32
 70
     1
102
RTVSPost2010Prop33
280
     0
102
RTVSPost2010PropOp33
 70
     1
102
RTVSPost2010Prop34
280
     0
102
RTVSPost2010PropOp34
 70
     1
102
RTVSPost2010Prop35
280
     0
102
RTVSPost2010PropOp35
 70
     1
102
RTVSPost2010Prop36
280
     0
102
RTVSPost2010PropOp36
 70
     1
102
RTVSPost2010Prop37
 90
       50
102
RTVSPost2010PropOp37
 70
     1
102
RTVSPost2010Prop38
140
0.0
102
RTVSPost2010PropOp38
 70
     1
102
RTVSPost2010Prop39
140
1.0
102
RTVSPost2010PropOp39
 70
     1
102
RTVSPost2010Prop40
 90
        0
102
RTVSPost2010PropOp40
 70
     1
102
RTVSPost2010Prop41ColorIndex
 90
       18
102
RTVSPost2010Prop41ColorRGB
 90
        0
102
RTVSPost2010PropOp41
 70
     1
102
RTVSPost2010Prop42
 90
       50
102
RTVSPost2010PropOp42
 70
     1
102
RTVSPost2010Prop43
 90
        3
102
RTVSPost2010PropOp43
 70
     1
102
RTVSPost2010Prop44ColorIndex
 90
        5
102
RTVSPost2010Prop44ColorRGB
 90
      255
102
RTVSPost2010PropOp44
 70
     1
102
RTVSPost2010Prop45
280
     0
102
RTVSPost2010PropOp45
 70
     1
102
RTVSPost2010Prop46
 90
       50
102
RTVSPost2010PropOp46
 70
     1
102
RTVSPost2010Prop47
 90
       50
102
RTVSPost2010PropOp47
 70
     1
102
RTVSPost2010Prop48
 90
       50
102
RTVSPost2010PropOp48
 70
     1
102
RTVSPost2010Prop49
280
     0
102
RTVSPost2010PropOp49
 70
     1
102
RTVSPost2010Prop50
 90
       50
102
RTVSPost2010PropOp50
 70
     1
102
RTVSPost2010Prop51ColorIndex
 90
      256
102
RTVSPost2010Prop51ColorRGB
 90
-16777216
102
RTVSPost2010PropOp51
 70
     0
102
RTVSPost2010Prop52
140
1.0
102
RTVSPost2010PropOp52
 70
     0
102
RTVSPost2010Prop53
 90
        2
102
RTVSPost2010PropOp53
 70
     1
102
RTVSPost2010Prop54
  1
strokes_ogs.tif
102
RTVSPost2010PropOp54
 70
     1
102
RTVSPost2010Prop55
280
     0
102
RTVSPost2010PropOp55
 70
     1
102
RTVSPost2010Prop56
140
1.0
102
RTVSPost2010PropOp56
 70
     1
102
RTVSPost2010Prop57
140
1.0
102
RTVSPost2010PropOp57
 70
     1
102
RTVSPropertyOp0
 70
     1
102
RTVSPropertyOp1
 70
     1
102
RTVSPropertyOp2
 70
     1
102
RTVSPropertyOp3
 70
     1
102
RTVSPropertyOp4
 70
     1
102
RTVSPropertyOp5
 70
     1
102
RTVSPropertyOp6
 70
     1
102
RTVSPropertyOp7
 70
     1
102
RTVSPropertyOp8
 70
     1
102
RTVSPropertyOp9
 70
     1
102
RTVSPropertyOp10
 70
     1
102
RTVSPropertyOp11
 70
     1
102
RTVSPropertyOp12
 70
     1
102
RTVSPropertyOp13
 70
     1
102
RTVSPropertyOp14
 70
     1
102
RTVSPropertyOp15
 70
     1
102
RTVSPropertyOp16
 70
     1
102
RTVSPropertyOp17
 70
     1
102
RTVSPropertyOp18
 70
     1
102
RTVSPropertyOp19
 70
     1
102
RTVSPropertyOp20
 70
     1
102
RTVSPropertyOp21
 70
     1
102
RTVSPropertyOp22
 70
     1
102
RTVSPropertyOp23
 70
     1
102
RTVSPropertyOp24
 70
     1
102
RTVSPropertyOp25
 70
     1
102
RTVSPropertyOp26
 70
     1
102
RTVSPropertyOp27
 70
     1
102
RTVSPropertyOp28
 70
     1
102
RTVSPropertyOp29
 70
     1
102
RTVSPropertyOp30
 70
     1
102
RTVSPropertyOp31
 70
     1
102
RTVSPropertyOp32
 70
     1
102
RTVSPropertyOp33
 70
     1
102
RTVSPropertyOp34
 70
     1
102
RTVSPropertyOp35
 70
     1
102
RTVSPropertyOp36
 70
     1
102
RTVSPropertyOp37
 70
     1
102
RTVSPropertyOp38
 70
     1
102
RTVSPropertyOp39
 70
     1
102
RTVSPropertyOp40
 70
     1
102
RTVSPropertyOp41
 70
     1
102
RTVSPropertyOp42
 70
     1
102
RTVSPropertyOp43
 70
     1
102
RTVSPropertyOp44
 70
     1
102
RTVSPropertyOp45
 70
     1
102
RTVSPropertyOp46
 70
     1
102
RTVSPropertyOp47
 70
     1
102
RTVSPropertyOp48
 70
     1
102
RTVSPropertyOp49
 70
     1
102
RTVSPropertyOp50
 70
     1
102
RTVSPropertyOp51
 70
     0
102
RTVSPropertyOp52
 70
     0
102
RTVSPropertyOp53
 70
     1
102
RTVSPropertyOp54
 70
     1
102
RTVSPropertyOp55
 70
     1
102
RTVSPropertyOp56
 70
     1
102
RTVSPropertyOp57
 70
     1
102
RTVSPropertyOp58
 70
     1
102
RTVSPropertyOp59
 70
     1
102
RTVSPropertyOp60
 70
     1
102
RTVSPropertyOp61
 70
     1
102
RTVSPropertyOp62
 70
     1
  0
XRECORD
  5
2A2
102
{ACAD_REACTORS
330
2A1
102
}
330
2A1
100
AcDbXrecord
280
     1
102
RTVSPost2010Prop28
280
     0
102
RTVSPost2010PropOp28
 70
     1
102
RTVSPost2010Prop29
280
     1
102
RTVSPost2010PropOp29
 70
     1
102
RTVSPost2010Prop30
280
     1
102
RTVSPost2010PropOp30
 70
     1
102
RTVSPost2010Prop31
280
     0
102
RTVSPost2010PropOp31
 70
     1
102
RTVSPost2010Prop32
280
     0
102
RTVSPost2010PropOp32
 70
     1
102
RTVSPost2010Prop33
280
     0
102
RTVSPost2010PropOp33
 70
     1
102
RTVSPost2010Prop34
280
     0
102
RTVSPost2010PropOp34
 70
     1
102
RTVSPost2010Prop35
280
     0
102
RTVSPost2010PropOp35
 70
     1
102
RTVSPost2010Prop36
280
     0
102
RTVSPost2010PropOp36
 70
     1
102
RTVSPost2010Prop37
 90
       50
102
RTVSPost2010PropOp37
 70
     1
102
RTVSPost2010Prop38
140
0.0
102
RTVSPost2010PropOp38
 70
     1
102
RTVSPost2010Prop39
140
1.0
102
RTVSPost2010PropOp39
 70
     1
102
RTVSPost2010Prop40
 90
        0
102
RTVSPost2010PropOp40
 70
     1
102
RTVSPost2010Prop41ColorIndex
 90
       18
102
RTVSPost2010Prop41ColorRGB
 90
        0
102
RTVSPost2010PropOp41
 70
     1
102
RTVSPost2010Prop42
 90
       50
102
RTVSPost2010PropOp42
 70
     1
102
RTVSPost2010Prop43
 90
        3
102
RTVSPost2010PropOp43
 70
     1
102
RTVSPost2010Prop44ColorIndex
 90
        5
102
RTVSPost2010Prop44ColorRGB
 90
      255
102
RTVSPost2010PropOp44
 70
     1
102
RTVSPost2010Prop45
280
     0
102
RTVSPost2010PropOp45
 70
     1
102
RTVSPost2010Prop46
 90
       50
102
RTVSPost2010PropOp46
 70
     1
102
RTVSPost2010Prop47
 90
       50
102
RTVSPost2010PropOp47
 70
     1
102
RTVSPost2010Prop48
 90
       50
102
RTVSPost2010PropOp48
 70
     1
102
RTVSPost2010Prop49
280
     0
102
RTVSPost2010PropOp49
 70
     1
102
RTVSPost2010Prop50
 90
       50
102
RTVSPost2010PropOp50
 70
     1
102
RTVSPost2010Prop51ColorIndex
 90
      256
102
RTVSPost2010Prop51ColorRGB
 90
-16777216
102
RTVSPost2010PropOp51
 70
     0
102
RTVSPost2010Prop52
140
1.0
102
RTVSPost2010PropOp52
 70
     0
102
RTVSPost2010Prop53
 90
        2
102
RTVSPost2010PropOp53
 70
     1
102
RTVSPost2010Prop54
  1
strokes_ogs.tif
102
RTVSPost2010PropOp54
 70
     1
102
RTVSPost2010Prop55
280
     0
102
RTVSPost2010PropOp55
 70
     1
102
RTVSPost2010Prop56
140
1.0
102
RTVSPost2010PropOp56
 70
     1
102
RTVSPost2010Prop57
140
1.0
102
RTVSPost2010PropOp57
 70
     1
102
RTVSPropertyOp0
 70
     0
102
RTVSPropertyOp1
 70
     0
102
RTVSPropertyOp2
 70
     0
102
RTVSPropertyOp3
 70
     0
102
RTVSPropertyOp4
 70
     0
102
RTVSPropertyOp5
 70
     0
102
RTVSPropertyOp6
 70
     0
102
RTVSPropertyOp7
 70
     0
102
RTVSPropertyOp8
 70
     0
102
RTVSPropertyOp9
 70
     0
102
RTVSPropertyOp10
 70
     0
102
RTVSPropertyOp11
 70
     0
102
RTVSPropertyOp12
 70
     0
102
RTVSPropertyOp13
 70
     0
102
RTVSPropertyOp14
 70
     2
102
RTVSPropertyOp15
 70
     0
102
RTVSPropertyOp16
 70
     0
102
RTVSPropertyOp17
 70
     0
102
RTVSPropertyOp18
 70
     0
102
RTVSPropertyOp19
 70
     0
102
RTVSPropertyOp20
 70
     0
102
RTVSPropertyOp21
 70
     0
102
RTVSPropertyOp22
 70
     0
102
RTVSPropertyOp23
 70
     0
102
RTVSPropertyOp24
 70
     0
102
RTVSPropertyOp25
 70
     0
102
RTVSPropertyOp26
 70
     0
102
RTVSPropertyOp27
 70
     0
102
RTVSPropertyOp28
 70
     1
102
RTVSPropertyOp29
 70
     1
102
RTVSPropertyOp30
 70
     1
102
RTVSPropertyOp31
 70
     1
102
RTVSPropertyOp32
 70
     1
102
RTVSPropertyOp33
 70
     1
102
RTVSPropertyOp34
 70
     1
102
RTVSPropertyOp35
 70
     1
102
RTVSPropertyOp36
 70
     1
102
RTVSPropertyOp37
 70
     1
102
RTVSPropertyOp38
 70
     1
102
RTVSPropertyOp39
 70
     1
102
RTVSPropertyOp40
 70
     1
102
RTVSPropertyOp41
 70
     1
102
RTVSPropertyOp42
 70
     1
102
RTVSPropertyOp43
 70
     1
102
RTVSPropertyOp44
 70
     1
102
RTVSPropertyOp45
 70
     1
102
RTVSPropertyOp46
 70
     1
102
RTVSPropertyOp47
 70
     1
102
RTVSPropertyOp48
 70
     1
102
RTVSPropertyOp49
 70
     1
102
RTVSPropertyOp50
 70
     1
102
RTVSPropertyOp51
 70
     0
102
RTVSPropertyOp52
 70
     0
102
RTVSPropertyOp53
 70
     1
102
RTVSPropertyOp54
 70
     1
102
RTVSPropertyOp55
 70
     1
102
RTVSPropertyOp56
 70
     1
102
RTVSPropertyOp57
 70
     1
102
RTVSPropertyOp58
 70
     1
102
RTVSPropertyOp59
 70
     1
102
RTVSPropertyOp60
 70
     1
102
RTVSPropertyOp61
 70
     1
102
RTVSPropertyOp62
 70
     1
  0
XRECORD
  5
292
102
{ACAD_REACTORS
330
291
102
}
330
291
100
AcDbXrecord
280
     1
102
RTVSPost2010Prop28
280
     0
102
RTVSPost2010PropOp28
 70
     1
102
RTVSPost2010Prop29
280
     1
102
RTVSPost2010PropOp29
 70
     1
102
RTVSPost2010Prop30
280
     1
102
RTVSPost2010PropOp30
 70
     1
102
RTVSPost2010Prop31
280
     0
102
RTVSPost2010PropOp31
 70
     1
102
RTVSPost2010Prop32
280
     0
102
RTVSPost2010PropOp32
 70
     1
102
RTVSPost2010Prop33
280
     0
102
RTVSPost2010PropOp33
 70
     1
102
RTVSPost2010Prop34
280
     0
102
RTVSPost2010PropOp34
 70
     1
102
RTVSPost2010Prop35
280
     0
102
RTVSPost2010PropOp35
 70
     1
102
RTVSPost2010Prop36
280
     0
102
RTVSPost2010PropOp36
 70
     1
102
RTVSPost2010Prop37
 90
       50
102
RTVSPost2010PropOp37
 70
     1
102
RTVSPost2010Prop38
140
0.0
102
RTVSPost2010PropOp38
 70
     1
102
RTVSPost2010Prop39
140
1.0
102
RTVSPost2010PropOp39
 70
     1
102
RTVSPost2010Prop40
 90
        0
102
RTVSPost2010PropOp40
 70
     1
102
RTVSPost2010Prop41ColorIndex
 90
       18
102
RTVSPost2010Prop41ColorRGB
 90
        0
102
RTVSPost2010PropOp41
 70
     1
102
RTVSPost2010Prop42
 90
       50
102
RTVSPost2010PropOp42
 70
     1
102
RTVSPost2010Prop43
 90
        3
102
RTVSPost2010PropOp43
 70
     1
102
RTVSPost2010Prop44ColorIndex
 90
        5
102
RTVSPost2010Prop44ColorRGB
 90
      255
102
RTVSPost2010PropOp44
 70
     1
102
RTVSPost2010Prop45
280
     0
102
RTVSPost2010PropOp45
 70
     1
102
RTVSPost2010Prop46
 90
       50
102
RTVSPost2010PropOp46
 70
     1
102
RTVSPost2010Prop47
 90
       50
102
RTVSPost2010PropOp47
 70
     1
102
RTVSPost2010Prop48
 90
       50
102
RTVSPost2010PropOp48
 70
     1
102
RTVSPost2010Prop49
280
     0
102
RTVSPost2010PropOp49
 70
     1
102
RTVSPost2010Prop50
 90
       50
102
RTVSPost2010PropOp50
 70
     1
102
RTVSPost2010Prop51ColorIndex
 90
      256
102
RTVSPost2010Prop51ColorRGB
 90
-16777216
102
RTVSPost2010PropOp51
 70
     0
102
RTVSPost2010Prop52
140
1.0
102
RTVSPost2010PropOp52
 70
     0
102
RTVSPost2010Prop53
 90
        2
102
RTVSPost2010PropOp53
 70
     1
102
RTVSPost2010Prop54
  1
strokes_ogs.tif
102
RTVSPost2010PropOp54
 70
     1
102
RTVSPost2010Prop55
280
     0
102
RTVSPost2010PropOp55
 70
     1
102
RTVSPost2010Prop56
140
1.0
102
RTVSPost2010PropOp56
 70
     1
102
RTVSPost2010Prop57
140
1.0
102
RTVSPost2010PropOp57
 70
     1
102
RTVSPropertyOp0
 70
     1
102
RTVSPropertyOp1
 70
     1
102
RTVSPropertyOp2
 70
     1
102
RTVSPropertyOp3
 70
     1
102
RTVSPropertyOp4
 70
     1
102
RTVSPropertyOp5
 70
     1
102
RTVSPropertyOp6
 70
     1
102
RTVSPropertyOp7
 70
     1
102
RTVSPropertyOp8
 70
     1
102
RTVSPropertyOp9
 70
     1
102
RTVSPropertyOp10
 70
     1
102
RTVSPropertyOp11
 70
     1
102
RTVSPropertyOp12
 70
     1
102
RTVSPropertyOp13
 70
     1
102
RTVSPropertyOp14
 70
     1
102
RTVSPropertyOp15
 70
     1
102
RTVSPropertyOp16
 70
     1
102
RTVSPropertyOp17
 70
     1
102
RTVSPropertyOp18
 70
     1
102
RTVSPropertyOp19
 70
     1
102
RTVSPropertyOp20
 70
     1
102
RTVSPropertyOp21
 70
     1
102
RTVSPropertyOp22
 70
     1
102
RTVSPropertyOp23
 70
     1
102
RTVSPropertyOp24
 70
     1
102
RTVSPropertyOp25
 70
     1
102
RTVSPropertyOp26
 70
     1
102
RTVSPropertyOp27
 70
     1
102
RTVSPropertyOp28
 70
     1
102
RTVSPropertyOp29
 70
     1
102
RTVSPropertyOp30
 70
     1
102
RTVSPropertyOp31
 70
     1
102
RTVSPropertyOp32
 70
     1
102
RTVSPropertyOp33
 70
     1
102
RTVSPropertyOp34
 70
     1
102
RTVSPropertyOp35
 70
     1
102
RTVSPropertyOp36
 70
     1
102
RTVSPropertyOp37
 70
     1
102
RTVSPropertyOp38
 70
     1
102
RTVSPropertyOp39
 70
     1
102
RTVSPropertyOp40
 70
     1
102
RTVSPropertyOp41
 70
     1
102
RTVSPropertyOp42
 70
     1
102
RTVSPropertyOp43
 70
     1
102
RTVSPropertyOp44
 70
     1
102
RTVSPropertyOp45
 70
     1
102
RTVSPropertyOp46
 70
     1
102
RTVSPropertyOp47
 70
     1
102
RTVSPropertyOp48
 70
     1
102
RTVSPropertyOp49
 70
     1
102
RTVSPropertyOp50
 70
     1
102
RTVSPropertyOp51
 70
     0
102
RTVSPropertyOp52
 70
     0
102
RTVSPropertyOp53
 70
     1
102
RTVSPropertyOp54
 70
     1
102
RTVSPropertyOp55
 70
     1
102
RTVSPropertyOp56
 70
     1
102
RTVSPropertyOp57
 70
     1
102
RTVSPropertyOp58
 70
     1
102
RTVSPropertyOp59
 70
     1
102
RTVSPropertyOp60
 70
     1
102
RTVSPropertyOp61
 70
     1
102
RTVSPropertyOp62
 70
     1
  0
XRECORD
  5
2AE
102
{ACAD_REACTORS
330
2AD
102
}
330
2AD
100
AcDbXrecord
280
     1
102
RTVSPost2010Prop28
280
     0
102
RTVSPost2010PropOp28
 70
     1
102
RTVSPost2010Prop29
280
     1
102
RTVSPost2010PropOp29
 70
     1
102
RTVSPost2010Prop30
280
     1
102
RTVSPost2010PropOp30
 70
     1
102
RTVSPost2010Prop31
280
     0
102
RTVSPost2010PropOp31
 70
     1
102
RTVSPost2010Prop32
280
     0
102
RTVSPost2010PropOp32
 70
     1
102
RTVSPost2010Prop33
280
     0
102
RTVSPost2010PropOp33
 70
     1
102
RTVSPost2010Prop34
280
     0
102
RTVSPost2010PropOp34
 70
     1
102
RTVSPost2010Prop35
280
     0
102
RTVSPost2010PropOp35
 70
     1
102
RTVSPost2010Prop36
280
     0
102
RTVSPost2010PropOp36
 70
     1
102
RTVSPost2010Prop37
 90
       50
102
RTVSPost2010PropOp37
 70
     1
102
RTVSPost2010Prop38
140
0.0
102
RTVSPost2010PropOp38
 70
     1
102
RTVSPost2010Prop39
140
1.0
102
RTVSPost2010PropOp39
 70
     1
102
RTVSPost2010Prop40
 90
        0
102
RTVSPost2010PropOp40
 70
     1
102
RTVSPost2010Prop41ColorIndex
 90
       18
102
RTVSPost2010Prop41ColorRGB
 90
        0
102
RTVSPost2010PropOp41
 70
     1
102
RTVSPost2010Prop42
 90
       50
102
RTVSPost2010PropOp42
 70
     1
102
RTVSPost2010Prop43
 90
        3
102
RTVSPost2010PropOp43
 70
     1
102
RTVSPost2010Prop44ColorIndex
 90
        5
102
RTVSPost2010Prop44ColorRGB
 90
      255
102
RTVSPost2010PropOp44
 70
     1
102
RTVSPost2010Prop45
280
     0
102
RTVSPost2010PropOp45
 70
     1
102
RTVSPost2010Prop46
 90
       50
102
RTVSPost2010PropOp46
 70
     1
102
RTVSPost2010Prop47
 90
       50
102
RTVSPost2010PropOp47
 70
     1
102
RTVSPost2010Prop48
 90
       50
102
RTVSPost2010PropOp48
 70
     1
102
RTVSPost2010Prop49
280
     0
102
RTVSPost2010PropOp49
 70
     1
102
RTVSPost2010Prop50
 90
       50
102
RTVSPost2010PropOp50
 70
     1
102
RTVSPost2010Prop51ColorIndex
 90
      256
102
RTVSPost2010Prop51ColorRGB
 90
-16777216
102
RTVSPost2010PropOp51
 70
     0
102
RTVSPost2010Prop52
140
1.0
102
RTVSPost2010PropOp52
 70
     0
102
RTVSPost2010Prop53
 90
        2
102
RTVSPost2010PropOp53
 70
     1
102
RTVSPost2010Prop54
  1
strokes_ogs.tif
102
RTVSPost2010PropOp54
 70
     1
102
RTVSPost2010Prop55
280
     0
102
RTVSPost2010PropOp55
 70
     1
102
RTVSPost2010Prop56
140
1.0
102
RTVSPost2010PropOp56
 70
     1
102
RTVSPost2010Prop57
140
1.0
102
RTVSPost2010PropOp57
 70
     1
102
RTVSPropertyOp0
 70
     1
102
RTVSPropertyOp1
 70
     1
102
RTVSPropertyOp2
 70
     1
102
RTVSPropertyOp3
 70
     1
102
RTVSPropertyOp4
 70
     1
102
RTVSPropertyOp5
 70
     1
102
RTVSPropertyOp6
 70
     1
102
RTVSPropertyOp7
 70
     1
102
RTVSPropertyOp8
 70
     1
102
RTVSPropertyOp9
 70
     1
102
RTVSPropertyOp10
 70
     1
102
RTVSPropertyOp11
 70
     1
102
RTVSPropertyOp12
 70
     1
102
RTVSPropertyOp13
 70
     1
102
RTVSPropertyOp14
 70
     1
102
RTVSPropertyOp15
 70
     1
102
RTVSPropertyOp16
 70
     1
102
RTVSPropertyOp17
 70
     1
102
RTVSPropertyOp18
 70
     1
102
RTVSPropertyOp19
 70
     1
102
RTVSPropertyOp20
 70
     1
102
RTVSPropertyOp21
 70
     1
102
RTVSPropertyOp22
 70
     1
102
RTVSPropertyOp23
 70
     1
102
RTVSPropertyOp24
 70
     1
102
RTVSPropertyOp25
 70
     1
102
RTVSPropertyOp26
 70
     1
102
RTVSPropertyOp27
 70
     1
102
RTVSPropertyOp28
 70
     1
102
RTVSPropertyOp29
 70
     1
102
RTVSPropertyOp30
 70
     1
102
RTVSPropertyOp31
 70
     1
102
RTVSPropertyOp32
 70
     1
102
RTVSPropertyOp33
 70
     1
102
RTVSPropertyOp34
 70
     1
102
RTVSPropertyOp35
 70
     1
102
RTVSPropertyOp36
 70
     1
102
RTVSPropertyOp37
 70
     1
102
RTVSPropertyOp38
 70
     1
102
RTVSPropertyOp39
 70
     1
102
RTVSPropertyOp40
 70
     1
102
RTVSPropertyOp41
 70
     1
102
RTVSPropertyOp42
 70
     1
102
RTVSPropertyOp43
 70
     1
102
RTVSPropertyOp44
 70
     1
102
RTVSPropertyOp45
 70
     1
102
RTVSPropertyOp46
 70
     1
102
RTVSPropertyOp47
 70
     1
102
RTVSPropertyOp48
 70
     1
102
RTVSPropertyOp49
 70
     1
102
RTVSPropertyOp50
 70
     1
102
RTVSPropertyOp51
 70
     0
102
RTVSPropertyOp52
 70
     0
102
RTVSPropertyOp53
 70
     1
102
RTVSPropertyOp54
 70
     1
102
RTVSPropertyOp55
 70
     1
102
RTVSPropertyOp56
 70
     1
102
RTVSPropertyOp57
 70
     1
102
RTVSPropertyOp58
 70
     1
102
RTVSPropertyOp59
 70
     1
102
RTVSPropertyOp60
 70
     1
102
RTVSPropertyOp61
 70
     1
102
RTVSPropertyOp62
 70
     1
  0
XRECORD
  5
2AC
102
{ACAD_REACTORS
330
2AB
102
}
330
2AB
100
AcDbXrecord
280
     1
102
RTVSPost2010Prop28
280
     0
102
RTVSPost2010PropOp28
 70
     1
102
RTVSPost2010Prop29
280
     1
102
RTVSPost2010PropOp29
 70
     1
102
RTVSPost2010Prop30
280
     1
102
RTVSPost2010PropOp30
 70
     1
102
RTVSPost2010Prop31
280
     0
102
RTVSPost2010PropOp31
 70
     1
102
RTVSPost2010Prop32
280
     0
102
RTVSPost2010PropOp32
 70
     1
102
RTVSPost2010Prop33
280
     0
102
RTVSPost2010PropOp33
 70
     1
102
RTVSPost2010Prop34
280
     0
102
RTVSPost2010PropOp34
 70
     1
102
RTVSPost2010Prop35
280
     0
102
RTVSPost2010PropOp35
 70
     1
102
RTVSPost2010Prop36
280
     0
102
RTVSPost2010PropOp36
 70
     1
102
RTVSPost2010Prop37
 90
       50
102
RTVSPost2010PropOp37
 70
     1
102
RTVSPost2010Prop38
140
0.0
102
RTVSPost2010PropOp38
 70
     1
102
RTVSPost2010Prop39
140
1.0
102
RTVSPost2010PropOp39
 70
     1
102
RTVSPost2010Prop40
 90
        0
102
RTVSPost2010PropOp40
 70
     1
102
RTVSPost2010Prop41ColorIndex
 90
       18
102
RTVSPost2010Prop41ColorRGB
 90
        0
102
RTVSPost2010PropOp41
 70
     1
102
RTVSPost2010Prop42
 90
       50
102
RTVSPost2010PropOp42
 70
     1
102
RTVSPost2010Prop43
 90
        3
102
RTVSPost2010PropOp43
 70
     1
102
RTVSPost2010Prop44ColorIndex
 90
        5
102
RTVSPost2010Prop44ColorRGB
 90
      255
102
RTVSPost2010PropOp44
 70
     1
102
RTVSPost2010Prop45
280
     0
102
RTVSPost2010PropOp45
 70
     1
102
RTVSPost2010Prop46
 90
       50
102
RTVSPost2010PropOp46
 70
     1
102
RTVSPost2010Prop47
 90
       50
102
RTVSPost2010PropOp47
 70
     1
102
RTVSPost2010Prop48
 90
       50
102
RTVSPost2010PropOp48
 70
     1
102
RTVSPost2010Prop49
280
     0
102
RTVSPost2010PropOp49
 70
     1
102
RTVSPost2010Prop50
 90
       50
102
RTVSPost2010PropOp50
 70
     1
102
RTVSPost2010Prop51ColorIndex
 90
      256
102
RTVSPost2010Prop51ColorRGB
 90
-16777216
102
RTVSPost2010PropOp51
 70
     0
102
RTVSPost2010Prop52
140
1.0
102
RTVSPost2010PropOp52
 70
     0
102
RTVSPost2010Prop53
 90
        2
102
RTVSPost2010PropOp53
 70
     1
102
RTVSPost2010Prop54
  1
strokes_ogs.tif
102
RTVSPost2010PropOp54
 70
     1
102
RTVSPost2010Prop55
280
     0
102
RTVSPost2010PropOp55
 70
     1
102
RTVSPost2010Prop56
140
1.0
102
RTVSPost2010PropOp56
 70
     1
102
RTVSPost2010Prop57
140
1.0
102
RTVSPost2010PropOp57
 70
     1
102
RTVSPropertyOp0
 70
     1
102
RTVSPropertyOp1
 70
     1
102
RTVSPropertyOp2
 70
     1
102
RTVSPropertyOp3
 70
     1
102
RTVSPropertyOp4
 70
     1
102
RTVSPropertyOp5
 70
     1
102
RTVSPropertyOp6
 70
     1
102
RTVSPropertyOp7
 70
     1
102
RTVSPropertyOp8
 70
     1
102
RTVSPropertyOp9
 70
     1
102
RTVSPropertyOp10
 70
     1
102
RTVSPropertyOp11
 70
     1
102
RTVSPropertyOp12
 70
     1
102
RTVSPropertyOp13
 70
     1
102
RTVSPropertyOp14
 70
     1
102
RTVSPropertyOp15
 70
     1
102
RTVSPropertyOp16
 70
     1
102
RTVSPropertyOp17
 70
     1
102
RTVSPropertyOp18
 70
     1
102
RTVSPropertyOp19
 70
     1
102
RTVSPropertyOp20
 70
     1
102
RTVSPropertyOp21
 70
     1
102
RTVSPropertyOp22
 70
     1
102
RTVSPropertyOp23
 70
     1
102
RTVSPropertyOp24
 70
     1
102
RTVSPropertyOp25
 70
     1
102
RTVSPropertyOp26
 70
     1
102
RTVSPropertyOp27
 70
     1
102
RTVSPropertyOp28
 70
     1
102
RTVSPropertyOp29
 70
     1
102
RTVSPropertyOp30
 70
     1
102
RTVSPropertyOp31
 70
     1
102
RTVSPropertyOp32
 70
     1
102
RTVSPropertyOp33
 70
     1
102
RTVSPropertyOp34
 70
     1
102
RTVSPropertyOp35
 70
     1
102
RTVSPropertyOp36
 70
     1
102
RTVSPropertyOp37
 70
     1
102
RTVSPropertyOp38
 70
     1
102
RTVSPropertyOp39
 70
     1
102
RTVSPropertyOp40
 70
     1
102
RTVSPropertyOp41
 70
     1
102
RTVSPropertyOp42
 70
     1
102
RTVSPropertyOp43
 70
     1
102
RTVSPropertyOp44
 70
     1
102
RTVSPropertyOp45
 70
     1
102
RTVSPropertyOp46
 70
     1
102
RTVSPropertyOp47
 70
     1
102
RTVSPropertyOp48
 70
     1
102
RTVSPropertyOp49
 70
     1
102
RTVSPropertyOp50
 70
     1
102
RTVSPropertyOp51
 70
     0
102
RTVSPropertyOp52
 70
     0
102
RTVSPropertyOp53
 70
     1
102
RTVSPropertyOp54
 70
     1
102
RTVSPropertyOp55
 70
     1
102
RTVSPropertyOp56
 70
     1
102
RTVSPropertyOp57
 70
     1
102
RTVSPropertyOp58
 70
     1
102
RTVSPropertyOp59
 70
     1
102
RTVSPropertyOp60
 70
     1
102
RTVSPropertyOp61
 70
     1
102
RTVSPropertyOp62
 70
     1
  0
XRECORD
  5
2A6
102
{ACAD_REACTORS
330
2A5
102
}
330
2A5
100
AcDbXrecord
280
     1
102
RTVSPost2010Prop28
280
     0
102
RTVSPost2010PropOp28
 70
     1
102
RTVSPost2010Prop29
280
     1
102
RTVSPost2010PropOp29
 70
     1
102
RTVSPost2010Prop30
280
     1
102
RTVSPost2010PropOp30
 70
     1
102
RTVSPost2010Prop31
280
     0
102
RTVSPost2010PropOp31
 70
     1
102
RTVSPost2010Prop32
280
     0
102
RTVSPost2010PropOp32
 70
     1
102
RTVSPost2010Prop33
280
     0
102
RTVSPost2010PropOp33
 70
     1
102
RTVSPost2010Prop34
280
     0
102
RTVSPost2010PropOp34
 70
     1
102
RTVSPost2010Prop35
280
     0
102
RTVSPost2010PropOp35
 70
     1
102
RTVSPost2010Prop36
280
     0
102
RTVSPost2010PropOp36
 70
     1
102
RTVSPost2010Prop37
 90
       50
102
RTVSPost2010PropOp37
 70
     1
102
RTVSPost2010Prop38
140
0.0
102
RTVSPost2010PropOp38
 70
     1
102
RTVSPost2010Prop39
140
1.0
102
RTVSPost2010PropOp39
 70
     1
102
RTVSPost2010Prop40
 90
        0
102
RTVSPost2010PropOp40
 70
     1
102
RTVSPost2010Prop41ColorIndex
 90
       18
102
RTVSPost2010Prop41ColorRGB
 90
        0
102
RTVSPost2010PropOp41
 70
     1
102
RTVSPost2010Prop42
 90
       50
102
RTVSPost2010PropOp42
 70
     1
102
RTVSPost2010Prop43
 90
        3
102
RTVSPost2010PropOp43
 70
     1
102
RTVSPost2010Prop44ColorIndex
 90
        5
102
RTVSPost2010Prop44ColorRGB
 90
      255
102
RTVSPost2010PropOp44
 70
     1
102
RTVSPost2010Prop45
280
     0
102
RTVSPost2010PropOp45
 70
     1
102
RTVSPost2010Prop46
 90
       50
102
RTVSPost2010PropOp46
 70
     1
102
RTVSPost2010Prop47
 90
       50
102
RTVSPost2010PropOp47
 70
     1
102
RTVSPost2010Prop48
 90
       50
102
RTVSPost2010PropOp48
 70
     1
102
RTVSPost2010Prop49
280
     0
102
RTVSPost2010PropOp49
 70
     1
102
RTVSPost2010Prop50
 90
       50
102
RTVSPost2010PropOp50
 70
     1
102
RTVSPost2010Prop51ColorIndex
 90
      256
102
RTVSPost2010Prop51ColorRGB
 90
-16777216
102
RTVSPost2010PropOp51
 70
     0
102
RTVSPost2010Prop52
140
1.0
102
RTVSPost2010PropOp52
 70
     0
102
RTVSPost2010Prop53
 90
        2
102
RTVSPost2010PropOp53
 70
     1
102
RTVSPost2010Prop54
  1
strokes_ogs.tif
102
RTVSPost2010PropOp54
 70
     1
102
RTVSPost2010Prop55
280
     0
102
RTVSPost2010PropOp55
 70
     1
102
RTVSPost2010Prop56
140
1.0
102
RTVSPost2010PropOp56
 70
     1
102
RTVSPost2010Prop57
140
1.0
102
RTVSPost2010PropOp57
 70
     1
102
RTVSPropertyOp0
 70
     1
102
RTVSPropertyOp1
 70
     1
102
RTVSPropertyOp2
 70
     1
102
RTVSPropertyOp3
 70
     1
102
RTVSPropertyOp4
 70
     1
102
RTVSPropertyOp5
 70
     1
102
RTVSPropertyOp6
 70
     1
102
RTVSPropertyOp7
 70
     1
102
RTVSPropertyOp8
 70
     1
102
RTVSPropertyOp9
 70
     1
102
RTVSPropertyOp10
 70
     1
102
RTVSPropertyOp11
 70
     1
102
RTVSPropertyOp12
 70
     1
102
RTVSPropertyOp13
 70
     1
102
RTVSPropertyOp14
 70
     1
102
RTVSPropertyOp15
 70
     1
102
RTVSPropertyOp16
 70
     1
102
RTVSPropertyOp17
 70
     1
102
RTVSPropertyOp18
 70
     1
102
RTVSPropertyOp19
 70
     1
102
RTVSPropertyOp20
 70
     1
102
RTVSPropertyOp21
 70
     1
102
RTVSPropertyOp22
 70
     1
102
RTVSPropertyOp23
 70
     1
102
RTVSPropertyOp24
 70
     1
102
RTVSPropertyOp25
 70
     1
102
RTVSPropertyOp26
 70
     1
102
RTVSPropertyOp27
 70
     1
102
RTVSPropertyOp28
 70
     1
102
RTVSPropertyOp29
 70
     1
102
RTVSPropertyOp30
 70
     1
102
RTVSPropertyOp31
 70
     1
102
RTVSPropertyOp32
 70
     1
102
RTVSPropertyOp33
 70
     1
102
RTVSPropertyOp34
 70
     1
102
RTVSPropertyOp35
 70
     1
102
RTVSPropertyOp36
 70
     1
102
RTVSPropertyOp37
 70
     1
102
RTVSPropertyOp38
 70
     1
102
RTVSPropertyOp39
 70
     1
102
RTVSPropertyOp40
 70
     1
102
RTVSPropertyOp41
 70
     1
102
RTVSPropertyOp42
 70
     1
102
RTVSPropertyOp43
 70
     1
102
RTVSPropertyOp44
 70
     1
102
RTVSPropertyOp45
 70
     1
102
RTVSPropertyOp46
 70
     1
102
RTVSPropertyOp47
 70
     1
102
RTVSPropertyOp48
 70
     1
102
RTVSPropertyOp49
 70
     1
102
RTVSPropertyOp50
 70
     1
102
RTVSPropertyOp51
 70
     0
102
RTVSPropertyOp52
 70
     0
102
RTVSPropertyOp53
 70
     1
102
RTVSPropertyOp54
 70
     1
102
RTVSPropertyOp55
 70
     1
102
RTVSPropertyOp56
 70
     1
102
RTVSPropertyOp57
 70
     1
102
RTVSPropertyOp58
 70
     1
102
RTVSPropertyOp59
 70
     1
102
RTVSPropertyOp60
 70
     1
102
RTVSPropertyOp61
 70
     1
102
RTVSPropertyOp62
 70
     1
  0
XRECORD
  5
2A8
102
{ACAD_REACTORS
330
2A7
102
}
330
2A7
100
AcDbXrecord
280
     1
102
RTVSPost2010Prop28
280
     0
102
RTVSPost2010PropOp28
 70
     1
102
RTVSPost2010Prop29
280
     1
102
RTVSPost2010PropOp29
 70
     1
102
RTVSPost2010Prop30
280
     1
102
RTVSPost2010PropOp30
 70
     1
102
RTVSPost2010Prop31
280
     0
102
RTVSPost2010PropOp31
 70
     1
102
RTVSPost2010Prop32
280
     0
102
RTVSPost2010PropOp32
 70
     1
102
RTVSPost2010Prop33
280
     0
102
RTVSPost2010PropOp33
 70
     1
102
RTVSPost2010Prop34
280
     0
102
RTVSPost2010PropOp34
 70
     1
102
RTVSPost2010Prop35
280
     0
102
RTVSPost2010PropOp35
 70
     1
102
RTVSPost2010Prop36
280
     0
102
RTVSPost2010PropOp36
 70
     1
102
RTVSPost2010Prop37
 90
       50
102
RTVSPost2010PropOp37
 70
     1
102
RTVSPost2010Prop38
140
0.0
102
RTVSPost2010PropOp38
 70
     1
102
RTVSPost2010Prop39
140
1.0
102
RTVSPost2010PropOp39
 70
     1
102
RTVSPost2010Prop40
 90
        0
102
RTVSPost2010PropOp40
 70
     1
102
RTVSPost2010Prop41ColorIndex
 90
       18
102
RTVSPost2010Prop41ColorRGB
 90
        0
102
RTVSPost2010PropOp41
 70
     1
102
RTVSPost2010Prop42
 90
       50
102
RTVSPost2010PropOp42
 70
     1
102
RTVSPost2010Prop43
 90
        3
102
RTVSPost2010PropOp43
 70
     1
102
RTVSPost2010Prop44ColorIndex
 90
        5
102
RTVSPost2010Prop44ColorRGB
 90
      255
102
RTVSPost2010PropOp44
 70
     1
102
RTVSPost2010Prop45
280
     0
102
RTVSPost2010PropOp45
 70
     1
102
RTVSPost2010Prop46
 90
       50
102
RTVSPost2010PropOp46
 70
     1
102
RTVSPost2010Prop47
 90
       50
102
RTVSPost2010PropOp47
 70
     1
102
RTVSPost2010Prop48
 90
       50
102
RTVSPost2010PropOp48
 70
     1
102
RTVSPost2010Prop49
280
     0
102
RTVSPost2010PropOp49
 70
     1
102
RTVSPost2010Prop50
 90
       50
102
RTVSPost2010PropOp50
 70
     1
102
RTVSPost2010Prop51ColorIndex
 90
      256
102
RTVSPost2010Prop51ColorRGB
 90
-16777216
102
RTVSPost2010PropOp51
 70
     0
102
RTVSPost2010Prop52
140
1.0
102
RTVSPost2010PropOp52
 70
     0
102
RTVSPost2010Prop53
 90
        2
102
RTVSPost2010PropOp53
 70
     1
102
RTVSPost2010Prop54
  1
strokes_ogs.tif
102
RTVSPost2010PropOp54
 70
     1
102
RTVSPost2010Prop55
280
     0
102
RTVSPost2010PropOp55
 70
     1
102
RTVSPost2010Prop56
140
1.0
102
RTVSPost2010PropOp56
 70
     1
102
RTVSPost2010Prop57
140
1.0
102
RTVSPost2010PropOp57
 70
     1
102
RTVSPropertyOp0
 70
     1
102
RTVSPropertyOp1
 70
     1
102
RTVSPropertyOp2
 70
     1
102
RTVSPropertyOp3
 70
     1
102
RTVSPropertyOp4
 70
     1
102
RTVSPropertyOp5
 70
     1
102
RTVSPropertyOp6
 70
     1
102
RTVSPropertyOp7
 70
     1
102
RTVSPropertyOp8
 70
     1
102
RTVSPropertyOp9
 70
     1
102
RTVSPropertyOp10
 70
     1
102
RTVSPropertyOp11
 70
     1
102
RTVSPropertyOp12
 70
     1
102
RTVSPropertyOp13
 70
     1
102
RTVSPropertyOp14
 70
     1
102
RTVSPropertyOp15
 70
     1
102
RTVSPropertyOp16
 70
     1
102
RTVSPropertyOp17
 70
     1
102
RTVSPropertyOp18
 70
     1
102
RTVSPropertyOp19
 70
     1
102
RTVSPropertyOp20
 70
     1
102
RTVSPropertyOp21
 70
     1
102
RTVSPropertyOp22
 70
     1
102
RTVSPropertyOp23
 70
     1
102
RTVSPropertyOp24
 70
     1
102
RTVSPropertyOp25
 70
     1
102
RTVSPropertyOp26
 70
     1
102
RTVSPropertyOp27
 70
     1
102
RTVSPropertyOp28
 70
     1
102
RTVSPropertyOp29
 70
     1
102
RTVSPropertyOp30
 70
     1
102
RTVSPropertyOp31
 70
     1
102
RTVSPropertyOp32
 70
     1
102
RTVSPropertyOp33
 70
     1
102
RTVSPropertyOp34
 70
     1
102
RTVSPropertyOp35
 70
     1
102
RTVSPropertyOp36
 70
     1
102
RTVSPropertyOp37
 70
     1
102
RTVSPropertyOp38
 70
     1
102
RTVSPropertyOp39
 70
     1
102
RTVSPropertyOp40
 70
     1
102
RTVSPropertyOp41
 70
     1
102
RTVSPropertyOp42
 70
     1
102
RTVSPropertyOp43
 70
     1
102
RTVSPropertyOp44
 70
     1
102
RTVSPropertyOp45
 70
     1
102
RTVSPropertyOp46
 70
     1
102
RTVSPropertyOp47
 70
     1
102
RTVSPropertyOp48
 70
     1
102
RTVSPropertyOp49
 70
     1
102
RTVSPropertyOp50
 70
     1
102
RTVSPropertyOp51
 70
     0
102
RTVSPropertyOp52
 70
     0
102
RTVSPropertyOp53
 70
     1
102
RTVSPropertyOp54
 70
     1
102
RTVSPropertyOp55
 70
     1
102
RTVSPropertyOp56
 70
     1
102
RTVSPropertyOp57
 70
     1
102
RTVSPropertyOp58
 70
     1
102
RTVSPropertyOp59
 70
     1
102
RTVSPropertyOp60
 70
     1
102
RTVSPropertyOp61
 70
     1
102
RTVSPropertyOp62
 70
     1
  0
XRECORD
  5
298
102
{ACAD_REACTORS
330
297
102
}
330
297
100
AcDbXrecord
280
     1
102
RTVSPost2010Prop28
280
     0
102
RTVSPost2010PropOp28
 70
     1
102
RTVSPost2010Prop29
280
     1
102
RTVSPost2010PropOp29
 70
     1
102
RTVSPost2010Prop30
280
     1
102
RTVSPost2010PropOp30
 70
     1
102
RTVSPost2010Prop31
280
     0
102
RTVSPost2010PropOp31
 70
     1
102
RTVSPost2010Prop32
280
     0
102
RTVSPost2010PropOp32
 70
     1
102
RTVSPost2010Prop33
280
     0
102
RTVSPost2010PropOp33
 70
     1
102
RTVSPost2010Prop34
280
     0
102
RTVSPost2010PropOp34
 70
     1
102
RTVSPost2010Prop35
280
     0
102
RTVSPost2010PropOp35
 70
     1
102
RTVSPost2010Prop36
280
     0
102
RTVSPost2010PropOp36
 70
     1
102
RTVSPost2010Prop37
 90
       50
102
RTVSPost2010PropOp37
 70
     1
102
RTVSPost2010Prop38
140
0.0
102
RTVSPost2010PropOp38
 70
     1
102
RTVSPost2010Prop39
140
1.0
102
RTVSPost2010PropOp39
 70
     1
102
RTVSPost2010Prop40
 90
        0
102
RTVSPost2010PropOp40
 70
     1
102
RTVSPost2010Prop41ColorIndex
 90
       18
102
RTVSPost2010Prop41ColorRGB
 90
        0
102
RTVSPost2010PropOp41
 70
     1
102
RTVSPost2010Prop42
 90
       50
102
RTVSPost2010PropOp42
 70
     1
102
RTVSPost2010Prop43
 90
        3
102
RTVSPost2010PropOp43
 70
     1
102
RTVSPost2010Prop44ColorIndex
 90
        5
102
RTVSPost2010Prop44ColorRGB
 90
      255
102
RTVSPost2010PropOp44
 70
     1
102
RTVSPost2010Prop45
280
     0
102
RTVSPost2010PropOp45
 70
     1
102
RTVSPost2010Prop46
 90
       50
102
RTVSPost2010PropOp46
 70
     1
102
RTVSPost2010Prop47
 90
       50
102
RTVSPost2010PropOp47
 70
     1
102
RTVSPost2010Prop48
 90
       50
102
RTVSPost2010PropOp48
 70
     1
102
RTVSPost2010Prop49
280
     0
102
RTVSPost2010PropOp49
 70
     1
102
RTVSPost2010Prop50
 90
       50
102
RTVSPost2010PropOp50
 70
     1
102
RTVSPost2010Prop51ColorIndex
 90
      256
102
RTVSPost2010Prop51ColorRGB
 90
-16777216
102
RTVSPost2010PropOp51
 70
     0
102
RTVSPost2010Prop52
140
1.0
102
RTVSPost2010PropOp52
 70
     0
102
RTVSPost2010Prop53
 90
        2
102
RTVSPost2010PropOp53
 70
     1
102
RTVSPost2010Prop54
  1
strokes_ogs.tif
102
RTVSPost2010PropOp54
 70
     1
102
RTVSPost2010Prop55
280
     0
102
RTVSPost2010PropOp55
 70
     1
102
RTVSPost2010Prop56
140
1.0
102
RTVSPost2010PropOp56
 70
     1
102
RTVSPost2010Prop57
140
1.0
102
RTVSPost2010PropOp57
 70
     1
102
RTVSPropertyOp0
 70
     1
102
RTVSPropertyOp1
 70
     1
102
RTVSPropertyOp2
 70
     1
102
RTVSPropertyOp3
 70
     1
102
RTVSPropertyOp4
 70
     1
102
RTVSPropertyOp5
 70
     1
102
RTVSPropertyOp6
 70
     1
102
RTVSPropertyOp7
 70
     1
102
RTVSPropertyOp8
 70
     1
102
RTVSPropertyOp9
 70
     1
102
RTVSPropertyOp10
 70
     1
102
RTVSPropertyOp11
 70
     1
102
RTVSPropertyOp12
 70
     1
102
RTVSPropertyOp13
 70
     1
102
RTVSPropertyOp14
 70
     1
102
RTVSPropertyOp15
 70
     1
102
RTVSPropertyOp16
 70
     1
102
RTVSPropertyOp17
 70
     1
102
RTVSPropertyOp18
 70
     1
102
RTVSPropertyOp19
 70
     1
102
RTVSPropertyOp20
 70
     1
102
RTVSPropertyOp21
 70
     1
102
RTVSPropertyOp22
 70
     1
102
RTVSPropertyOp23
 70
     1
102
RTVSPropertyOp24
 70
     1
102
RTVSPropertyOp25
 70
     1
102
RTVSPropertyOp26
 70
     1
102
RTVSPropertyOp27
 70
     1
102
RTVSPropertyOp28
 70
     1
102
RTVSPropertyOp29
 70
     1
102
RTVSPropertyOp30
 70
     1
102
RTVSPropertyOp31
 70
     1
102
RTVSPropertyOp32
 70
     1
102
RTVSPropertyOp33
 70
     1
102
RTVSPropertyOp34
 70
     1
102
RTVSPropertyOp35
 70
     1
102
RTVSPropertyOp36
 70
     1
102
RTVSPropertyOp37
 70
     1
102
RTVSPropertyOp38
 70
     1
102
RTVSPropertyOp39
 70
     1
102
RTVSPropertyOp40
 70
     1
102
RTVSPropertyOp41
 70
     1
102
RTVSPropertyOp42
 70
     1
102
RTVSPropertyOp43
 70
     1
102
RTVSPropertyOp44
 70
     1
102
RTVSPropertyOp45
 70
     1
102
RTVSPropertyOp46
 70
     1
102
RTVSPropertyOp47
 70
     1
102
RTVSPropertyOp48
 70
     1
102
RTVSPropertyOp49
 70
     1
102
RTVSPropertyOp50
 70
     1
102
RTVSPropertyOp51
 70
     0
102
RTVSPropertyOp52
 70
     0
102
RTVSPropertyOp53
 70
     1
102
RTVSPropertyOp54
 70
     1
102
RTVSPropertyOp55
 70
     1
102
RTVSPropertyOp56
 70
     1
102
RTVSPropertyOp57
 70
     1
102
RTVSPropertyOp58
 70
     1
102
RTVSPropertyOp59
 70
     1
102
RTVSPropertyOp60
 70
     1
102
RTVSPropertyOp61
 70
     1
102
RTVSPropertyOp62
 70
     1
  0
XRECORD
  5
28C
102
{ACAD_REACTORS
330
28B
102
}
330
28B
100
AcDbXrecord
280
     1
102
RTVSPost2010Prop28
280
     0
102
RTVSPost2010PropOp28
 70
     1
102
RTVSPost2010Prop29
280
     1
102
RTVSPost2010PropOp29
 70
     1
102
RTVSPost2010Prop30
280
     1
102
RTVSPost2010PropOp30
 70
     1
102
RTVSPost2010Prop31
280
     0
102
RTVSPost2010PropOp31
 70
     1
102
RTVSPost2010Prop32
280
     0
102
RTVSPost2010PropOp32
 70
     1
102
RTVSPost2010Prop33
280
     0
102
RTVSPost2010PropOp33
 70
     1
102
RTVSPost2010Prop34
280
     0
102
RTVSPost2010PropOp34
 70
     1
102
RTVSPost2010Prop35
280
     0
102
RTVSPost2010PropOp35
 70
     1
102
RTVSPost2010Prop36
280
     0
102
RTVSPost2010PropOp36
 70
     1
102
RTVSPost2010Prop37
 90
       50
102
RTVSPost2010PropOp37
 70
     1
102
RTVSPost2010Prop38
140
0.0
102
RTVSPost2010PropOp38
 70
     1
102
RTVSPost2010Prop39
140
1.0
102
RTVSPost2010PropOp39
 70
     1
102
RTVSPost2010Prop40
 90
        0
102
RTVSPost2010PropOp40
 70
     1
102
RTVSPost2010Prop41ColorIndex
 90
       18
102
RTVSPost2010Prop41ColorRGB
 90
        0
102
RTVSPost2010PropOp41
 70
     1
102
RTVSPost2010Prop42
 90
       50
102
RTVSPost2010PropOp42
 70
     1
102
RTVSPost2010Prop43
 90
        3
102
RTVSPost2010PropOp43
 70
     1
102
RTVSPost2010Prop44ColorIndex
 90
        5
102
RTVSPost2010Prop44ColorRGB
 90
      255
102
RTVSPost2010PropOp44
 70
     1
102
RTVSPost2010Prop45
280
     0
102
RTVSPost2010PropOp45
 70
     1
102
RTVSPost2010Prop46
 90
       50
102
RTVSPost2010PropOp46
 70
     1
102
RTVSPost2010Prop47
 90
       50
102
RTVSPost2010PropOp47
 70
     1
102
RTVSPost2010Prop48
 90
       50
102
RTVSPost2010PropOp48
 70
     1
102
RTVSPost2010Prop49
280
     0
102
RTVSPost2010PropOp49
 70
     1
102
RTVSPost2010Prop50
 90
       50
102
RTVSPost2010PropOp50
 70
     1
102
RTVSPost2010Prop51ColorIndex
 90
      256
102
RTVSPost2010Prop51ColorRGB
 90
-16777216
102
RTVSPost2010PropOp51
 70
     0
102
RTVSPost2010Prop52
140
1.0
102
RTVSPost2010PropOp52
 70
     0
102
RTVSPost2010Prop53
 90
        2
102
RTVSPost2010PropOp53
 70
     1
102
RTVSPost2010Prop54
  1
strokes_ogs.tif
102
RTVSPost2010PropOp54
 70
     1
102
RTVSPost2010Prop55
280
     0
102
RTVSPost2010PropOp55
 70
     1
102
RTVSPost2010Prop56
140
1.0
102
RTVSPost2010PropOp56
 70
     1
102
RTVSPost2010Prop57
140
1.0
102
RTVSPost2010PropOp57
 70
     1
102
RTVSPropertyOp0
 70
     1
102
RTVSPropertyOp1
 70
     1
102
RTVSPropertyOp2
 70
     1
102
RTVSPropertyOp3
 70
     1
102
RTVSPropertyOp4
 70
     1
102
RTVSPropertyOp5
 70
     1
102
RTVSPropertyOp6
 70
     1
102
RTVSPropertyOp7
 70
     1
102
RTVSPropertyOp8
 70
     1
102
RTVSPropertyOp9
 70
     1
102
RTVSPropertyOp10
 70
     1
102
RTVSPropertyOp11
 70
     1
102
RTVSPropertyOp12
 70
     1
102
RTVSPropertyOp13
 70
     1
102
RTVSPropertyOp14
 70
     1
102
RTVSPropertyOp15
 70
     1
102
RTVSPropertyOp16
 70
     1
102
RTVSPropertyOp17
 70
     1
102
RTVSPropertyOp18
 70
     1
102
RTVSPropertyOp19
 70
     1
102
RTVSPropertyOp20
 70
     1
102
RTVSPropertyOp21
 70
     1
102
RTVSPropertyOp22
 70
     1
102
RTVSPropertyOp23
 70
     1
102
RTVSPropertyOp24
 70
     1
102
RTVSPropertyOp25
 70
     1
102
RTVSPropertyOp26
 70
     1
102
RTVSPropertyOp27
 70
     1
102
RTVSPropertyOp28
 70
     1
102
RTVSPropertyOp29
 70
     1
102
RTVSPropertyOp30
 70
     1
102
RTVSPropertyOp31
 70
     1
102
RTVSPropertyOp32
 70
     1
102
RTVSPropertyOp33
 70
     1
102
RTVSPropertyOp34
 70
     1
102
RTVSPropertyOp35
 70
     1
102
RTVSPropertyOp36
 70
     1
102
RTVSPropertyOp37
 70
     1
102
RTVSPropertyOp38
 70
     1
102
RTVSPropertyOp39
 70
     1
102
RTVSPropertyOp40
 70
     1
102
RTVSPropertyOp41
 70
     1
102
RTVSPropertyOp42
 70
     1
102
RTVSPropertyOp43
 70
     1
102
RTVSPropertyOp44
 70
     1
102
RTVSPropertyOp45
 70
     1
102
RTVSPropertyOp46
 70
     1
102
RTVSPropertyOp47
 70
     1
102
RTVSPropertyOp48
 70
     1
102
RTVSPropertyOp49
 70
     1
102
RTVSPropertyOp50
 70
     1
102
RTVSPropertyOp51
 70
     0
102
RTVSPropertyOp52
 70
     0
102
RTVSPropertyOp53
 70
     1
102
RTVSPropertyOp54
 70
     1
102
RTVSPropertyOp55
 70
     1
102
RTVSPropertyOp56
 70
     1
102
RTVSPropertyOp57
 70
     1
102
RTVSPropertyOp58
 70
     1
102
RTVSPropertyOp59
 70
     1
102
RTVSPropertyOp60
 70
     1
102
RTVSPropertyOp61
 70
     1
102
RTVSPropertyOp62
 70
     1
  0
XRECORD
  5
2AA
102
{ACAD_REACTORS
330
2A9
102
}
330
2A9
100
AcDbXrecord
280
     1
102
RTVSPost2010Prop28
280
     0
102
RTVSPost2010PropOp28
 70
     1
102
RTVSPost2010Prop29
280
     1
102
RTVSPost2010PropOp29
 70
     1
102
RTVSPost2010Prop30
280
     1
102
RTVSPost2010PropOp30
 70
     1
102
RTVSPost2010Prop31
280
     0
102
RTVSPost2010PropOp31
 70
     1
102
RTVSPost2010Prop32
280
     0
102
RTVSPost2010PropOp32
 70
     1
102
RTVSPost2010Prop33
280
     0
102
RTVSPost2010PropOp33
 70
     1
102
RTVSPost2010Prop34
280
     0
102
RTVSPost2010PropOp34
 70
     1
102
RTVSPost2010Prop35
280
     0
102
RTVSPost2010PropOp35
 70
     1
102
RTVSPost2010Prop36
280
     0
102
RTVSPost2010PropOp36
 70
     1
102
RTVSPost2010Prop37
 90
       50
102
RTVSPost2010PropOp37
 70
     1
102
RTVSPost2010Prop38
140
0.0
102
RTVSPost2010PropOp38
 70
     1
102
RTVSPost2010Prop39
140
1.0
102
RTVSPost2010PropOp39
 70
     1
102
RTVSPost2010Prop40
 90
        0
102
RTVSPost2010PropOp40
 70
     1
102
RTVSPost2010Prop41ColorIndex
 90
       18
102
RTVSPost2010Prop41ColorRGB
 90
        0
102
RTVSPost2010PropOp41
 70
     1
102
RTVSPost2010Prop42
 90
       50
102
RTVSPost2010PropOp42
 70
     1
102
RTVSPost2010Prop43
 90
        3
102
RTVSPost2010PropOp43
 70
     1
102
RTVSPost2010Prop44ColorIndex
 90
        5
102
RTVSPost2010Prop44ColorRGB
 90
      255
102
RTVSPost2010PropOp44
 70
     1
102
RTVSPost2010Prop45
280
     0
102
RTVSPost2010PropOp45
 70
     1
102
RTVSPost2010Prop46
 90
       50
102
RTVSPost2010PropOp46
 70
     1
102
RTVSPost2010Prop47
 90
       50
102
RTVSPost2010PropOp47
 70
     1
102
RTVSPost2010Prop48
 90
       50
102
RTVSPost2010PropOp48
 70
     1
102
RTVSPost2010Prop49
280
     0
102
RTVSPost2010PropOp49
 70
     1
102
RTVSPost2010Prop50
 90
       50
102
RTVSPost2010PropOp50
 70
     1
102
RTVSPost2010Prop51ColorIndex
 90
      256
102
RTVSPost2010Prop51ColorRGB
 90
-16777216
102
RTVSPost2010PropOp51
 70
     0
102
RTVSPost2010Prop52
140
1.0
102
RTVSPost2010PropOp52
 70
     0
102
RTVSPost2010Prop53
 90
        2
102
RTVSPost2010PropOp53
 70
     1
102
RTVSPost2010Prop54
  1
strokes_ogs.tif
102
RTVSPost2010PropOp54
 70
     1
102
RTVSPost2010Prop55
280
     0
102
RTVSPost2010PropOp55
 70
     1
102
RTVSPost2010Prop56
140
1.0
102
RTVSPost2010PropOp56
 70
     1
102
RTVSPost2010Prop57
140
1.0
102
RTVSPost2010PropOp57
 70
     1
102
RTVSPropertyOp0
 70
     1
102
RTVSPropertyOp1
 70
     1
102
RTVSPropertyOp2
 70
     1
102
RTVSPropertyOp3
 70
     1
102
RTVSPropertyOp4
 70
     1
102
RTVSPropertyOp5
 70
     1
102
RTVSPropertyOp6
 70
     1
102
RTVSPropertyOp7
 70
     1
102
RTVSPropertyOp8
 70
     1
102
RTVSPropertyOp9
 70
     1
102
RTVSPropertyOp10
 70
     1
102
RTVSPropertyOp11
 70
     1
102
RTVSPropertyOp12
 70
     1
102
RTVSPropertyOp13
 70
     1
102
RTVSPropertyOp14
 70
     1
102
RTVSPropertyOp15
 70
     1
102
RTVSPropertyOp16
 70
     1
102
RTVSPropertyOp17
 70
     1
102
RTVSPropertyOp18
 70
     1
102
RTVSPropertyOp19
 70
     1
102
RTVSPropertyOp20
 70
     1
102
RTVSPropertyOp21
 70
     1
102
RTVSPropertyOp22
 70
     1
102
RTVSPropertyOp23
 70
     1
102
RTVSPropertyOp24
 70
     1
102
RTVSPropertyOp25
 70
     1
102
RTVSPropertyOp26
 70
     1
102
RTVSPropertyOp27
 70
     1
102
RTVSPropertyOp28
 70
     1
102
RTVSPropertyOp29
 70
     1
102
RTVSPropertyOp30
 70
     1
102
RTVSPropertyOp31
 70
     1
102
RTVSPropertyOp32
 70
     1
102
RTVSPropertyOp33
 70
     1
102
RTVSPropertyOp34
 70
     1
102
RTVSPropertyOp35
 70
     1
102
RTVSPropertyOp36
 70
     1
102
RTVSPropertyOp37
 70
     1
102
RTVSPropertyOp38
 70
     1
102
RTVSPropertyOp39
 70
     1
102
RTVSPropertyOp40
 70
     1
102
RTVSPropertyOp41
 70
     1
102
RTVSPropertyOp42
 70
     1
102
RTVSPropertyOp43
 70
     1
102
RTVSPropertyOp44
 70
     1
102
RTVSPropertyOp45
 70
     1
102
RTVSPropertyOp46
 70
     1
102
RTVSPropertyOp47
 70
     1
102
RTVSPropertyOp48
 70
     1
102
RTVSPropertyOp49
 70
     1
102
RTVSPropertyOp50
 70
     1
102
RTVSPropertyOp51
 70
     0
102
RTVSPropertyOp52
 70
     0
102
RTVSPropertyOp53
 70
     1
102
RTVSPropertyOp54
 70
     1
102
RTVSPropertyOp55
 70
     1
102
RTVSPropertyOp56
 70
     1
102
RTVSPropertyOp57
 70
     1
102
RTVSPropertyOp58
 70
     1
102
RTVSPropertyOp59
 70
     1
102
RTVSPropertyOp60
 70
     1
102
RTVSPropertyOp61
 70
     1
102
RTVSPropertyOp62
 70
     1
  0
ENDSEC
  0
EOF
