  0
SECTION
  2
HEADER
  9
$ACADVER
  1
AC1021
  9
$ACADMAINTVER
 70
    50
  9
$DWGCODEPAGE
  3
ANSI_1252
  9
$LASTSAVEDBY
  1
Autodesk
  9
$INSBASE
 10
0.0
 20
0.0
 30
0.0
  9
$EXTMIN
 10
1.000000000000000E+20
 20
1.000000000000000E+20
 30
1.000000000000000E+20
  9
$EXTMAX
 10
-1.000000000000000E+20
 20
-1.000000000000000E+20
 30
-1.000000000000000E+20
  9
$LIMMIN
 10
0.0
 20
0.0
  9
$LIMMAX
 10
420.0
 20
297.0
  9
$ORTHOMODE
 70
     0
  9
$REGENMODE
 70
     1
  9
$FILLMODE
 70
     1
  9
$QTEXTMODE
 70
     0
  9
$MIRRTEXT
 70
     0
  9
$LTSCALE
 40
1.0
  9
$ATTMODE
 70
     1
  9
$TEXTSIZE
 40
2.5
  9
$TRACEWID
 40
1.0
  9
$TEXTSTYLE
  7
Standard
  9
$CLAYER
  8
0
  9
$CELTYPE
  6
ByLayer
  9
$CECOLOR
 62
   256
  9
$CELTSCALE
 40
1.0
  9
$DISPSILH
 70
     0
  9
$DIMSCALE
 40
1.0
  9
$DIMASZ
 40
2.5
  9
$DIMEXO
 40
0.625
  9
$DIMDLI
 40
3.75
  9
$DIMRND
 40
0.0
  9
$DIMDLE
 40
0.0
  9
$DIMEXE
 40
1.25
  9
$DIMTP
 40
0.0
  9
$DIMTM
 40
0.0
  9
$DIMTXT
 40
2.5
  9
$DIMCEN
 40
2.5
  9
$DIMTSZ
 40
0.0
  9
$DIMTOL
 70
     0
  9
$DIMLIM
 70
     0
  9
$DIMTIH
 70
     0
  9
$DIMTOH
 70
     0
  9
$DIMSE1
 70
     0
  9
$DIMSE2
 70
     0
  9
$DIMTAD
 70
     1
  9
$DIMZIN
 70
     8
  9
$DIMBLK
  1

  9
$DIMASO
 70
     1
  9
$DIMSHO
 70
     1
  9
$DIMPOST
  1

  9
$DIMAPOST
  1

  9
$DIMALT
 70
     0
  9
$DIMALTD
 70
     3
  9
$DIMALTF
 40
0.03937007874016
  9
$DIMLFAC
 40
1.0
  9
$DIMTOFL
 70
     1
  9
$DIMTVP
 40
0.0
  9
$DIMTIX
 70
     0
  9
$DIMSOXD
 70
     0
  9
$DIMSAH
 70
     0
  9
$DIMBLK1
  1

  9
$DIMBLK2
  1

  9
$DIMSTYLE
  2
ISO-25
  9
$DIMCLRD
 70
     0
  9
$DIMCLRE
 70
     0
  9
$DIMCLRT
 70
     0
  9
$DIMTFAC
 40
1.0
  9
$DIMGAP
 40
0.625
  9
$DIMJUST
 70
     0
  9
$DIMSD1
 70
     0
  9
$DIMSD2
 70
     0
  9
$DIMTOLJ
 70
     0
  9
$DIMTZIN
 70
     8
  9
$DIMALTZ
 70
     0
  9
$DIMALTTZ
 70
     0
  9
$DIMUPT
 70
     0
  9
$DIMDEC
 70
     2
  9
$DIMTDEC
 70
     2
  9
$DIMALTU
 70
     2
  9
$DIMALTTD
 70
     3
  9
$DIMTXSTY
  7
Standard
  9
$DIMAUNIT
 70
     0
  9
$DIMADEC
 70
     0
  9
$DIMALTRND
 40
0.0
  9
$DIMAZIN
 70
     0
  9
$DIMDSEP
 70
    44
  9
$DIMATFIT
 70
     3
  9
$DIMFRAC
 70
     0
  9
$DIMLDRBLK
  1

  9
$DIMLUNIT
 70
     2
  9
$DIMLWD
 70
    -2
  9
$DIMLWE
 70
    -2
  9
$DIMTMOVE
 70
     0
  9
$DIMFXL
 40
1.0
  9
$DIMFXLON
 70
     0
  9
$DIMJOGANG
 40
0.7853981633974483
  9
$DIMTFILL
 70
     0
  9
$DIMTFILLCLR
 70
     0
  9
$DIMARCSYM
 70
     0
  9
$DIMLTYPE
  6

  9
$DIMLTEX1
  6

  9
$DIMLTEX2
  6

  9
$LUNITS
 70
     2
  9
$LUPREC
 70
     4
  9
$SKETCHINC
 40
1.0
  9
$FILLETRAD
 40
0.0
  9
$AUNITS
 70
     0
  9
$AUPREC
 70
     0
  9
$MENU
  1
.
  9
$ELEVATION
 40
0.0
  9
$PELEVATION
 40
0.0
  9
$THICKNESS
 40
0.0
  9
$LIMCHECK
 70
     0
  9
$CHAMFERA
 40
0.0
  9
$CHAMFERB
 40
0.0
  9
$CHAMFERC
 40
0.0
  9
$CHAMFERD
 40
0.0
  9
$SKPOLY
 70
     0
  9
$TDCREATE
 40
2456309.191413843
  9
$TDUCREATE
 40
2456309.483080509
  9
$TDUPDATE
 40
2456667.120181551
  9
$TDUUPDATE
 40
2456667.411848218
  9
$TDINDWG
 40
0.0000184259
  9
$TDUSRTIMER
 40
0.0000182407
  9
$USRTIMER
 70
     1
  9
$ANGBASE
 50
0.0
  9
$ANGDIR
 70
     0
  9
$PDMODE
 70
     0
  9
$PDSIZE
 40
0.0
  9
$PLINEWID
 40
0.0
  9
$SPLFRAME
 70
     0
  9
$SPLINETYPE
 70
     6
  9
$SPLINESEGS
 70
     8
  9
$HANDSEED
  5
292
  9
$SURFTAB1
 70
     6
  9
$SURFTAB2
 70
     6
  9
$SURFTYPE
 70
     6
  9
$SURFU
 70
     6
  9
$SURFV
 70
     6
  9
$UCSBASE
  2

  9
$UCSNAME
  2

  9
$UCSORG
 10
0.0
 20
0.0
 30
0.0
  9
$UCSXDIR
 10
1.0
 20
0.0
 30
0.0
  9
$UCSYDIR
 10
0.0
 20
1.0
 30
0.0
  9
$UCSORTHOREF
  2

  9
$UCSORTHOVIEW
 70
     0
  9
$UCSORGTOP
 10
0.0
 20
0.0
 30
0.0
  9
$UCSORGBOTTOM
 10
0.0
 20
0.0
 30
0.0
  9
$UCSORGLEFT
 10
0.0
 20
0.0
 30
0.0
  9
$UCSORGRIGHT
 10
0.0
 20
0.0
 30
0.0
  9
$UCSORGFRONT
 10
0.0
 20
0.0
 30
0.0
  9
$UCSORGBACK
 10
0.0
 20
0.0
 30
0.0
  9
$PUCSBASE
  2

  9
$PUCSNAME
  2

  9
$PUCSORG
 10
0.0
 20
0.0
 30
0.0
  9
$PUCSXDIR
 10
1.0
 20
0.0
 30
0.0
  9
$PUCSYDIR
 10
0.0
 20
1.0
 30
0.0
  9
$PUCSORTHOREF
  2

  9
$PUCSORTHOVIEW
 70
     0
  9
$PUCSORGTOP
 10
0.0
 20
0.0
 30
0.0
  9
$PUCSORGBOTTOM
 10
0.0
 20
0.0
 30
0.0
  9
$PUCSORGLEFT
 10
0.0
 20
0.0
 30
0.0
  9
$PUCSORGRIGHT
 10
0.0
 20
0.0
 30
0.0
  9
$PUCSORGFRONT
 10
0.0
 20
0.0
 30
0.0
  9
$PUCSORGBACK
 10
0.0
 20
0.0
 30
0.0
  9
$USERI1
 70
     0
  9
$USERI2
 70
     0
  9
$USERI3
 70
     0
  9
$USERI4
 70
     0
  9
$USERI5
 70
     0
  9
$USERR1
 40
0.0
  9
$USERR2
 40
0.0
  9
$USERR3
 40
0.0
  9
$USERR4
 40
0.0
  9
$USERR5
 40
0.0
  9
$WORLDVIEW
 70
     1
  9
$SHADEDGE
 70
     3
  9
$SHADEDIF
 70
    70
  9
$TILEMODE
 70
     1
  9
$MAXACTVP
 70
    64
  9
$PINSBASE
 10
0.0
 20
0.0
 30
0.0
  9
$PLIMCHECK
 70
     0
  9
$PEXTMIN
 10
0.0
 20
0.0
 30
0.0
  9
$PEXTMAX
 10
0.0
 20
0.0
 30
0.0
  9
$PLIMMIN
 10
0.0
 20
0.0
  9
$PLIMMAX
 10
12.0
 20
9.0
  9
$UNITMODE
 70
     0
  9
$VISRETAIN
 70
     1
  9
$PLINEGEN
 70
     0
  9
$PSLTSCALE
 70
     1
  9
$TREEDEPTH
 70
  3020
  9
$CMLSTYLE
  2
Standard
  9
$CMLJUST
 70
     0
  9
$CMLSCALE
 40
20.0
  9
$PROXYGRAPHICS
 70
     1
  9
$MEASUREMENT
 70
     1
  9
$CELWEIGHT
370
    -1
  9
$ENDCAPS
280
     0
  9
$JOINSTYLE
280
     0
  9
$LWDISPLAY
290
     0
  9
$INSUNITS
 70
     4
  9
$HYPERLINKBASE
  1

  9
$STYLESHEET
  1

  9
$XEDIT
290
     1
  9
$CEPSNTYPE
380
     0
  9
$PSTYLEMODE
290
     1
  9
$FINGERPRINTGUID
  2
{D36A17C0-B4E2-4527-8874-81943F1C34AC}
  9
$VERSIONGUID
  2
{265A5473-D45D-4B1C-ABB7-7FF2E3BD06BB}
  9
$EXTNAMES
290
     1
  9
$PSVPSCALE
 40
0.0
  9
$OLESTARTUP
290
     0
  9
$SORTENTS
280
   127
  9
$INDEXCTL
280
     0
  9
$HIDETEXT
280
     1
  9
$XCLIPFRAME
290
     0
  9
$HALOGAP
280
     0
  9
$OBSCOLOR
 70
   257
  9
$OBSLTYPE
280
     0
  9
$INTERSECTIONDISPLAY
280
     0
  9
$INTERSECTIONCOLOR
 70
   257
  9
$DIMASSOC
280
     2
  9
$PROJECTNAME
  1

  9
$CAMERADISPLAY
290
     0
  9
$LENSLENGTH
 40
50.0
  9
$CAMERAHEIGHT
 40
0.0
  9
$STEPSPERSEC
 40
2.0
  9
$STEPSIZE
 40
6.0
  9
$3DDWFPREC
 40
2.0
  9
$PSOLWIDTH
 40
5.0
  9
$PSOLHEIGHT
 40
80.0
  9
$LOFTANG1
 40
1.570796326794896
  9
$LOFTANG2
 40
1.570796326794896
  9
$LOFTMAG1
 40
0.0
  9
$LOFTMAG2
 40
0.0
  9
$LOFTPARAM
 70
     7
  9
$LOFTNORMALS
280
     1
  9
$LATITUDE
 40
37.795
  9
$LONGITUDE
 40
-122.394
  9
$NORTHDIRECTION
 40
0.0
  9
$TIMEZONE
 70
 -8000
  9
$LIGHTGLYPHDISPLAY
280
     1
  9
$TILEMODELIGHTSYNCH
280
     1
  9
$CMATERIAL
347
EC
  9
$SOLIDHIST
280
     0
  9
$SHOWHIST
280
     1
  9
$DWFFRAME
280
     2
  9
$DGNFRAME
280
     0
  9
$REALWORLDSCALE
290
     1
  9
$INTERFERECOLOR
 62
     1
  9
$INTERFEREOBJVS
345
F9
  9
$INTERFEREVPVS
346
F6
  9
$CSHADOW
280
     0
  9
$SHADOWPLANELOCATION
 40
0.0
  0
ENDSEC
  0
SECTION
  2
CLASSES
  0
CLASS
  1
ACDBDICTIONARYWDFLT
  2
AcDbDictionaryWithDefault
  3
ObjectDBX Classes
 90
        0
 91
        1
280
     0
281
     0
  0
CLASS
  1
ACDBPLACEHOLDER
  2
AcDbPlaceHolder
  3
ObjectDBX Classes
 90
        0
 91
        1
280
     0
281
     0
  0
CLASS
  1
LAYOUT
  2
AcDbLayout
  3
ObjectDBX Classes
 90
        0
 91
        3
280
     0
281
     0
  0
CLASS
  1
DICTIONARYVAR
  2
AcDbDictionaryVar
  3
ObjectDBX Classes
 90
        0
 91
       10
280
     0
281
     0
  0
CLASS
  1
TABLESTYLE
  2
AcDbTableStyle
  3
ObjectDBX Classes
 90
     4095
 91
        1
280
     0
281
     0
  0
CLASS
  1
MATERIAL
  2
AcDbMaterial
  3
ObjectDBX Classes
 90
     1153
 91
        3
280
     0
281
     0
  0
CLASS
  1
VISUALSTYLE
  2
AcDbVisualStyle
  3
ObjectDBX Classes
 90
     4095
 91
       24
280
     0
281
     0
  0
CLASS
  1
SCALE
  2
AcDbScale
  3
ObjectDBX Classes
 90
     1153
 91
       17
280
     0
281
     0
  0
CLASS
  1
MLEADERSTYLE
  2
AcDbMLeaderStyle
  3
ACDB_MLEADERSTYLE_CLASS
 90
     4095
 91
        2
280
     0
281
     0
  0
CLASS
  1
CELLSTYLEMAP
  2
AcDbCellStyleMap
  3
ObjectDBX Classes
 90
     1152
 91
        1
280
     0
281
     0
  0
CLASS
  1
EXACXREFPANELOBJECT
  2
ExAcXREFPanelObject
  3
EXAC_ESW
 90
     1025
 91
        0
280
     0
281
     0
  0
CLASS
  1
NPOCOLLECTION
  2
AcDbImpNonPersistentObjectsCollection
  3
ObjectDBX Classes
 90
     1153
 91
        0
280
     0
281
     0
  0
CLASS
  1
LAYER_INDEX
  2
AcDbLayerIndex
  3
ObjectDBX Classes
 90
        0
 91
        0
280
     0
281
     0
  0
CLASS
  1
SPATIAL_INDEX
  2
AcDbSpatialIndex
  3
ObjectDBX Classes
 90
        0
 91
        0
280
     0
281
     0
  0
CLASS
  1
IDBUFFER
  2
AcDbIdBuffer
  3
ObjectDBX Classes
 90
        0
 91
        0
280
     0
281
     0
  0
CLASS
  1
ACDBSECTIONVIEWSTYLE
  2
AcDbSectionViewStyle
  3
ObjectDBX Classes
 90
     1025
 91
        1
280
     0
281
     0
  0
CLASS
  1
ACDBDETAILVIEWSTYLE
  2
AcDbDetailViewStyle
  3
ObjectDBX Classes
 90
     1025
 91
        1
280
     0
281
     0
  0
ENDSEC
  0
SECTION
  2
TABLES
  0
TABLE
  2
VPORT
  5
8
330
0
100
AcDbSymbolTable
 70
     1
  0
VPORT
  5
EA
330
8
100
AcDbSymbolTableRecord
100
AcDbViewportTableRecord
  2
*Active
 70
     0
 10
0.0
 20
0.0
 11
1.0
 21
1.0
 12
2630.048781668382
 22
1440.684066268786
 13
0.0
 23
0.0
 14
10.0
 24
10.0
 15
10.0
 25
10.0
 16
0.0
 26
0.0
 36
1.0
 17
0.0
 27
0.0
 37
0.0
 40
2653.730076586097
 41
1.765478424015009
 42
50.0
 43
0.0
 44
0.0
 50
0.0
 51
0.0
 71
     0
 72
  1000
 73
     1
 74
     3
 75
     0
 76
     1
 77
     0
 78
     0
281
     0
 65
     1
110
0.0
120
0.0
130
0.0
111
1.0
121
0.0
131
0.0
112
0.0
122
1.0
132
0.0
 79
     0
146
0.0
348
F5
 60
     3
 61
     5
292
     1
282
     1
141
0.0
142
0.0
 63
   250
421
  3355443
1001
ACAD_NAV_VCDISPLAY
1070
     3
  0
ENDTAB
  0
TABLE
  2
LTYPE
  5
5
330
0
100
AcDbSymbolTable
 70
     1
  0
LTYPE
  5
14
330
5
100
AcDbSymbolTableRecord
100
AcDbLinetypeTableRecord
  2
ByBlock
 70
     0
  3

 72
    65
 73
     0
 40
0.0
  0
LTYPE
  5
15
330
5
100
AcDbSymbolTableRecord
100
AcDbLinetypeTableRecord
  2
ByLayer
 70
     0
  3

 72
    65
 73
     0
 40
0.0
  0
LTYPE
  5
16
330
5
100
AcDbSymbolTableRecord
100
AcDbLinetypeTableRecord
  2
Continuous
 70
     0
  3
Solid line
 72
    65
 73
     0
 40
0.0
  0
ENDTAB
  0
TABLE
  2
LAYER
  5
2
102
{ACAD_XDICTIONARY
360
1FF
102
}
330
0
100
AcDbSymbolTable
 70
     2
  0
LAYER
  5
10
102
{ACAD_XDICTIONARY
360
13C
102
}
330
2
100
AcDbSymbolTableRecord
100
AcDbLayerTableRecord
  2
0
 70
     0
 62
     7
  6
Continuous
370
    -3
390
F
347
EE
  0
LAYER
  5
249
330
2
100
AcDbSymbolTableRecord
100
AcDbLayerTableRecord
  2
Vector Layer 1
 70
     0
 62
     7
  6
Continuous
370
    30
390
F
347
EE
  0
ENDTAB
  0
TABLE
  2
STYLE
  5
3
330
0
100
AcDbSymbolTable
 70
     2
  0
STYLE
  5
11
330
3
100
AcDbSymbolTableRecord
100
AcDbTextStyleTableRecord
  2
Standard
 70
     0
 40
0.0
 41
1.0
 50
0.0
 71
     0
 42
2.5
  3
arial.ttf
  4

1001
ACAD
1000
Arial
1071
       34
  0
STYLE
  5
132
330
3
100
AcDbSymbolTableRecord
100
AcDbTextStyleTableRecord
  2
Annotative
 70
     0
 40
0.0
 41
1.0
 50
0.0
 71
     0
 42
2.5
  3
arial.ttf
  4

1001
AcadAnnotative
1000
AnnotativeData
1002
{
1070
     1
1070
     1
1002
}
1001
ACAD
1000
Arial
1071
       34
  0
ENDTAB
  0
TABLE
  2
VIEW
  5
6
330
0
100
AcDbSymbolTable
 70
     0
  0
ENDTAB
  0
TABLE
  2
UCS
  5
7
330
0
100
AcDbSymbolTable
 70
     0
  0
ENDTAB
  0
TABLE
  2
APPID
  5
9
330
0
100
AcDbSymbolTable
 70
     8
  0
APPID
  5
12
330
9
100
AcDbSymbolTableRecord
100
AcDbRegAppTableRecord
  2
ACAD
 70
     0
  0
APPID
  5
9E
330
9
100
AcDbSymbolTableRecord
100
AcDbRegAppTableRecord
  2
ACAD_PSEXT
 70
     0
  0
APPID
  5
133
330
9
100
AcDbSymbolTableRecord
100
AcDbRegAppTableRecord
  2
AcadAnnoPO
 70
     0
  0
APPID
  5
134
330
9
100
AcDbSymbolTableRecord
100
AcDbRegAppTableRecord
  2
AcadAnnotative
 70
     0
  0
APPID
  5
135
330
9
100
AcDbSymbolTableRecord
100
AcDbRegAppTableRecord
  2
ACAD_DSTYLE_DIMJAG
 70
     0
  0
APPID
  5
136
330
9
100
AcDbSymbolTableRecord
100
AcDbRegAppTableRecord
  2
ACAD_DSTYLE_DIMTALN
 70
     0
  0
APPID
  5
165
330
9
100
AcDbSymbolTableRecord
100
AcDbRegAppTableRecord
  2
ACAD_MLEADERVER
 70
     0
  0
APPID
  5
217
330
9
100
AcDbSymbolTableRecord
100
AcDbRegAppTableRecord
  2
ACAD_NAV_VCDISPLAY
 70
     0
  0
ENDTAB
  0
TABLE
  2
DIMSTYLE
  5
A
330
0
100
AcDbSymbolTable
 70
     3
100
AcDbDimStyleTable
 71
     2
340
27
340
137
  0
DIMSTYLE
105
1B0
330
A
100
AcDbSymbolTableRecord
100
AcDbDimStyleTableRecord
  2
Standard
 70
     0
340
11
  0
DIMSTYLE
105
137
330
A
100
AcDbSymbolTableRecord
100
AcDbDimStyleTableRecord
  2
Annotative
 70
     0
 40
0.0
 41
2.5
 42
0.625
 43
3.75
 44
1.25
 73
     0
 74
     0
 77
     1
 78
     8
140
2.5
141
2.5
143
0.03937007874016
147
0.625
171
     3
172
     1
271
     2
272
     2
274
     3
278
    44
283
     0
284
     8
340
11
1001
AcadAnnotative
1000
AnnotativeData
1002
{
1070
     1
1070
     1
1002
}
1001
ACAD_DSTYLE_DIMJAG
1070
   388
1040
1.5
1001
ACAD_DSTYLE_DIMTALN
1070
   392
1070
     0
  0
DIMSTYLE
105
27
330
A
100
AcDbSymbolTableRecord
100
AcDbDimStyleTableRecord
  2
ISO-25
 70
     0
 41
2.5
 42
0.625
 43
3.75
 44
1.25
 73
     0
 74
     0
 77
     1
 78
     8
140
2.5
141
2.5
143
0.03937007874016
147
0.625
171
     3
172
     1
271
     2
272
     2
274
     3
278
    44
283
     0
284
     8
340
11
  0
ENDTAB
  0
TABLE
  2
BLOCK_RECORD
  5
1
330
0
100
AcDbSymbolTable
 70
     1
  0
BLOCK_RECORD
  5
1F
102
{ACAD_XDICTIONARY
360
1CE
102
}
330
1
100
AcDbSymbolTableRecord
100
AcDbBlockTableRecord
  2
*Model_Space
340
22
 70
     0
280
     1
281
     0
  0
BLOCK_RECORD
  5
D2
330
1
100
AcDbSymbolTableRecord
100
AcDbBlockTableRecord
  2
*Paper_Space
340
D3
 70
     0
280
     1
281
     0
  0
BLOCK_RECORD
  5
D6
330
1
100
AcDbSymbolTableRecord
100
AcDbBlockTableRecord
  2
*Paper_Space0
340
D7
 70
     0
280
     1
281
     0
  0
ENDTAB
  0
ENDSEC
  0
SECTION
  2
BLOCKS
  0
BLOCK
  5
20
330
1F
100
AcDbEntity
  8
0
100
AcDbBlockBegin
  2
*Model_Space
 70
     0
 10
0.0
 20
0.0
 30
0.0
  3
*Model_Space
  1

  0
ENDBLK
  5
21
330
1F
100
AcDbEntity
  8
0
100
AcDbBlockEnd
  0
BLOCK
  5
D4
330
D2
100
AcDbEntity
 67
     1
  8
0
100
AcDbBlockBegin
  2
*Paper_Space
 70
     0
 10
0.0
 20
0.0
 30
0.0
  3
*Paper_Space
  1

  0
ENDBLK
  5
D5
330
D2
100
AcDbEntity
 67
     1
  8
0
100
AcDbBlockEnd
  0
BLOCK
  5
D8
330
D6
100
AcDbEntity
 67
     1
  8
0
100
AcDbBlockBegin
  2
*Paper_Space0
 70
     0
 10
0.0
 20
0.0
 30
0.0
  3
*Paper_Space0
  1

  0
ENDBLK
  5
D9
330
D6
100
AcDbEntity
 67
     1
  8
0
100
AcDbBlockEnd
  0
ENDSEC
  0
SECTION
  2
ENTITIES
  0
LWPOLYLINE
  5
24A
330
1F
100
AcDbEntity
  8
Vector Layer 1
 62
    18
420
        0
370
    30
100
AcDbPolyline
 90
     1936
 70
     0
 43
0.0
 10
-5.280220546572012
 20
-3.073825722700772
 10
-5.11181716812355
 20
-3.116189098252238
 10
-4.943547310139153
 20
-3.159079754051389
 10
-4.943547310139153
 20
-3.159079754051389
 10
-4.821907035600082
 20
-3.189408197009608
 10
-4.700099041081055
 20
-3.219042962921177
 10
-4.578126297050815
 20
-3.247983373723301
 10
-4.455991773978103
 20
-3.276228751353184
 10
-4.333698442331665
 20
-3.303778417748032
 10
-4.211249272580242
 20
-3.330631694845051
 10
-4.088647235192576
 20
-3.356787904581445
 10
-3.965895300637411
 20
-3.382246368894421
 10
-3.965895300637412
 20
-3.382246368894421
 10
-3.931648286866427
 20
-3.395181820028856
 10
-3.897181147882955
 20
-3.407476869843069
 10
-3.86250292732232
 20
-3.419129028051339
 10
-3.827622668819848
 20
-3.430135804367942
 10
-3.792549416010861
 20
-3.440494708507157
 10
-3.757292212530684
 20
-3.450203250183259
 10
-3.721860102014642
 20
-3.459258939110527
 10
-3.686262128098057
 20
-3.467659285003238
 10
-3.650507334416254
 20
-3.475401797575669
 10
-3.614604764604557
 20
-3.482483986542098
 10
-3.578563462298291
 20
-3.488903361616802
 10
-3.578563462298291
 20
-3.488903361616801
 10
-3.546151588156042
 20
-3.494045490504156
 10
-3.513653343804182
 20
-3.498396862076909
 10
-3.481083115458917
 20
-3.501957475372437
 10
-3.448455289336457
 20
-3.504727329428113
 10
-3.41578425165301
 20
-3.506706423281312
 10
-3.383084388624784
 20
-3.507894755969408
 10
-3.350370086467987
 20
-3.508292326529776
 10
-3.317655731398827
 20
-3.507899133999791
 10
-3.284955709633514
 20
-3.506715177416827
 10
-3.252284407388254
 20
-3.504740455818259
 10
-3.219656210879256
 20
-3.50197496824146
 10
-3.187085506322728
 20
-3.498418713723807
 10
-3.154586679934879
 20
-3.494071691302673
 10
-3.122174117931917
 20
-3.488933900015432
 10
-3.122174117931917
 20
-3.488933900015432
 10
-3.091536260695079
 20
-3.482829193982205
 10
-3.061110626172926
 20
-3.475958468066494
 10
-3.030910664181347
 20
-3.468328214687914
 10
-3.000949824536232
 20
-3.459944926266077
 10
-2.971241557053471
 20
-3.450815095220597
 10
-2.941799311548953
 20
-3.440945213971087
 10
-2.912636537838567
 20
-3.430341774937159
 10
-2.883766685738205
 20
-3.419011270538427
 10
-2.855203205063753
 20
-3.406960193194505
 10
-2.826959545631103
 20
-3.394195035325005
 10
-2.799049157256144
 20
-3.380722289349541
 10
-2.771485489754765
 20
-3.366548447687725
 10
-2.744281992942857
 20
-3.351680002759171
 10
-2.717452116636308
 20
-3.336123446983492
 10
-2.691009310651008
 20
-3.319885272780302
 10
-2.664967024802847
 20
-3.302971972569213
 10
-2.639338708907715
 20
-3.285390038769838
 10
-2.6141378127815
 20
-3.267145963801791
 10
-2.589377786240092
 20
-3.248246240084685
 10
-2.565072079099382
 20
-3.228697360038133
 10
-2.541234141175258
 20
-3.208505816081749
 10
-2.541234141175259
 20
-3.20850581608175
 10
-2.513650025671667
 20
-3.184120681958579
 10
-2.486579779463657
 20
-3.15919952027133
 10
-2.460030748138566
 20
-3.133750775037886
 10
-2.434010277283729
 20
-3.107782890276133
 10
-2.408525712486479
 20
-3.081304310003953
 10
-2.383584399334154
 20
-3.054323478239232
 10
-2.359193683414087
 20
-3.026848838999853
 10
-2.335360910313615
 20
-2.998888836303702
 10
-2.312093425620072
 20
-2.970451914168663
 10
-2.289398574920794
 20
-2.941546516612619
 10
-2.267283703803116
 20
-2.912181087653455
 10
-2.245756157854373
 20
-2.882364071309056
 10
-2.224823282661901
 20
-2.852103911597306
 10
-2.204492423813034
 20
-2.821409052536088
 10
-2.204492423813034
 20
-2.821409052536088
 10
-2.179463176192134
 20
-2.782189207164352
 10
-2.155062723005405
 20
-2.742595384687176
 10
-2.131294931666631
 20
-2.702635276816598
 10
-2.108163669589597
 20
-2.662316575264652
 10
-2.085672804188087
 20
-2.621646971743373
 10
-2.063826202875886
 20
-2.580634157964796
 10
-2.042627733066779
 20
-2.539285825640958
 10
-2.02208126217455
 20
-2.497609666483894
 10
-2.002190657612984
 20
-2.455613372205638
 10
-1.982959786795865
 20
-2.413304634518227
 10
-1.964392517136977
 20
-2.370691145133696
 10
-1.946492716050106
 20
-2.327780595764081
 10
-1.929264250949036
 20
-2.284580678121416
 10
-1.912710989247551
 20
-2.241099083917737
 10
-1.912710989247551
 20
-2.241099083917737
 10
-1.892788841274965
 20
-2.187278377822432
 10
-1.873574641802657
 20
-2.133212566259622
 10
-1.855070481502962
 20
-2.078908674060774
 10
-1.837278451048215
 20
-2.024373726057352
 10
-1.820200641110753
 20
-1.969614747080822
 10
-1.803839142362912
 20
-1.914638761962649
 10
-1.788196045477027
 20
-1.859452795534299
 10
-1.773273441125434
 20
-1.804063872627238
 10
-1.759073419980469
 20
-1.74847901807293
 10
-1.745598072714469
 20
-1.692705256702842
 10
-1.732849489999768
 20
-1.636749613348438
 10
-1.732849489999768
 20
-1.636749613348438
 10
-1.718353587208064
 20
-1.56922047622748
 10
-1.704642344652532
 20
-1.501547657583198
 10
-1.691716502508154
 20
-1.433738009822459
 10
-1.679576800949914
 20
-1.365798385352129
 10
-1.668223980152793
 20
-1.297735636579074
 10
-1.657658780291774
 20
-1.22955661591016
 10
-1.64788194154184
 20
-1.161268175752254
 10
-1.638894204077973
 20
-1.09287716851222
 10
-1.630696308075156
 20
-1.024390446596926
 10
-1.623288993708372
 20
-0.9558148624132384
 10
-1.616673001152602
 20
-0.8871572683680215
 10
-1.61084907058283
 20
-0.8184245168681421
 10
-1.605817942174038
 20
-0.7496234603204666
 10
-1.601580356101208
 20
-0.6807609511318609
 10
-1.598137052539323
 20
-0.6118438417091911
 10
-1.595488771663367
 20
-0.5428789844593233
 10
-1.59363625364832
 20
-0.4738732317891236
 10
-1.592580238669166
 20
-0.4048334361054582
 10
-1.592321466900887
 20
-0.335766449815193
 10
-1.592321466900887
 20
-0.3357664498151931
 10
-1.592587074992809
 20
-0.2823056388169388
 10
-1.593614179081232
 20
-0.2288785397438244
 10
-1.595401645111166
 20
-0.1754931880290824
 10
-1.597948339027621
 20
-0.1221576191059456
 10
-1.601253126775604
 20
-0.0688798684076467
 10
-1.605314874300127
 20
-0.0156679713674183
 10
-1.610132447546197
 20
0.037470036581507
 10
-1.615704712458824
 20
0.0905261200058964
 10
-1.622030534983019
 20
0.1434922434725173
 10
-1.629108781063789
 20
0.196360371548137
 10
-1.636938316646144
 20
0.2491224687995229
 10
-1.645518007675094
 20
0.3017704997934422
 10
-1.654846720095647
 20
0.3542964290966624
 10
-1.664923319852814
 20
0.4066922212759507
 10
-1.675746672891603
 20
0.4589498408980745
 10
-1.687315645157023
 20
0.5110612525298011
 10
-1.699629102594085
 20
0.5630184207378978
 10
-1.712685911147796
 20
0.6148133100891319
 10
-1.726484936763168
 20
0.6664378851502708
 10
-1.741025045385208
 20
0.7178841104880819
 10
-1.741025045385207
 20
0.7178841104880819
 10
-1.755019674673006
 20
0.7653826416438278
 10
-1.769728700226708
 20
0.8126313883927252
 10
-1.785148286616095
 20
0.8596226443631799
 10
-1.801274598410947
 20
0.9063487031835975
 10
-1.818103800181046
 20
0.9528018584823836
 10
-1.83563205649617
 20
0.998974403887944
 10
-1.853855531926101
 20
1.044858633028684
 10
-1.872770391040619
 20
1.090446839533009
 10
-1.892372798409505
 20
1.135731317029326
 10
-1.91265891860254
 20
1.18070435914604
 10
-1.933624916189503
 20
1.225358259511556
 10
-1.955266955740175
 20
1.26968531175428
 10
-1.977581201824337
 20
1.313677809502618
 10
-2.000563819011769
 20
1.357328046384976
 10
-2.024210971872252
 20
1.400628316029759
 10
-2.048518824975566
 20
1.443570912065372
 10
-2.073483542891491
 20
1.486148128120223
 10
-2.099101290189809
 20
1.528352257822715
 10
-2.1253682314403
 20
1.570175594801255
 10
-2.152280531212743
 20
1.611610432684248
 10
-2.17983435407692
 20
1.652649065100101
 10
-2.208025864602611
 20
1.693283785677218
 10
-2.236851227359597
 20
1.733506888044006
 10
-2.266306606917658
 20
1.77331066582887
 10
-2.266306606917658
 20
1.773310665828869
 10
-2.292670344490685
 20
1.807841025682706
 10
-2.319602860330509
 20
1.841888641821147
 10
-2.347097108674624
 20
1.875447094783774
 10
-2.375146043760521
 20
1.908509965110167
 10
-2.403742619825693
 20
1.941070833339907
 10
-2.432879791107632
 20
1.973123280012575
 10
-2.46255051184383
 20
2.004660885667751
 10
-2.492747736271779
 20
2.035677230845018
 10
-2.523464418628972
 20
2.066165896083955
 10
-2.5546935131529
 20
2.096120461924143
 10
-2.586427974081055
 20
2.125534508905163
 10
-2.618660755650931
 20
2.154401617566596
 10
-2.651384812100018
 20
2.182715368448024
 10
-2.684593097665811
 20
2.210469342089025
 10
-2.718278566585799
 20
2.237657119029183
 10
-2.752434173097476
 20
2.264272279808077
 10
-2.787052871438334
 20
2.290308404965288
 10
-2.822127615845864
 20
2.315759075040397
 10
-2.85765136055756
 20
2.340617870572986
 10
-2.893617059810913
 20
2.364878372102634
 10
-2.930017667843415
 20
2.388534160168922
 10
-2.966846138892559
 20
2.411578815311433
 10
-2.966846138892559
 20
2.411578815311432
 10
-3.000387847568737
 20
2.431693037432159
 10
-3.034274195173733
 20
2.451122119442188
 10
-3.068494525335482
 20
2.469863030010304
 10
-3.103038181681922
 20
2.487912737805291
 10
-3.137894507840986
 20
2.505268211495933
 10
-3.173052847440611
 20
2.521926419751015
 10
-3.208502544108734
 20
2.537884331239322
 10
-3.244232941473289
 20
2.553138914629637
 10
-3.280233383162213
 20
2.567687138590744
 10
-3.316493212803442
 20
2.581525971791429
 10
-3.353001774024911
 20
2.594652382900475
 10
-3.389748410454556
 20
2.607063340586666
 10
-3.426722465720312
 20
2.618755813518788
 10
-3.463913283450117
 20
2.629726770365625
 10
-3.501310207271905
 20
2.63997317979596
 10
-3.538902580813613
 20
2.649492010478579
 10
-3.576679747703176
 20
2.658280231082265
 10
-3.61463105156853
 20
2.666334810275802
 10
-3.652745836037611
 20
2.673652716727976
 10
-3.691013444738355
 20
2.68023091910757
 10
-3.729423221298698
 20
2.68606638608337
 10
-3.767964509346575
 20
2.691156086324158
 10
-3.806626652509923
 20
2.69549698849872
 10
-3.845398994416676
 20
2.699086061275839
 10
-3.884270878694771
 20
2.7019202733243
 10
-3.923231648972145
 20
2.703996593312889
 10
-3.962270648876732
 20
2.705311989910387
 10
-4.001377222036468
 20
2.705863431785581
 10
-4.001377222036468
 20
2.70586343178558
 10
-5.372088990433226
 20
2.70586343178558
 10
-5.372088990433226
 20
2.70586343178558
 10
-5.38424188567811
 20
2.80183028127917
 10
-5.396722608109256
 20
2.897233895736826
 10
-5.409507264720164
 20
2.992081983488165
 10
-5.42257196250433
 20
3.086382252862801
 10
-5.435892808455255
 20
3.180142412190352
 10
-5.435892808455255
 20
3.180142412190351
 10
-5.447826168743445
 20
3.260494395221527
 10
-5.460484872519284
 20
3.340754533951841
 10
-5.47383261012706
 20
3.420926927424886
 10
-5.48783307191106
 20
3.501015674684257
 10
-5.502449948215571
 20
3.581024874773549
 10
-5.517646929384879
 20
3.660958626736356
 10
-5.533387705763272
 20
3.740821029616273
 10
-5.549635967695036
 20
3.820616182456894
 10
-5.566355405524459
 20
3.900348184301813
 10
-5.583509709595826
 20
3.980021134194627
 10
-5.601062570253427
 20
4.059639131178927
 10
-5.618977677841546
 20
4.13920627429831
 10
-5.637218722704472
 20
4.21872666259637
 10
-5.65574939518649
 20
4.298204395116702
 10
-5.674533385631889
 20
4.377643570902899
 10
-5.693534384384954
 20
4.457048288998556
 10
-5.712716081789974
 20
4.536422648447269
 10
-5.732042168191234
 20
4.61577074829263
 10
-5.751476333933021
 20
4.695096687578236
 10
-5.770982269359624
 20
4.774404565347681
 10
-5.790523664815328
 20
4.853698480644558
 10
-5.81006421064442
 20
4.932982532512463
 10
-5.829567597191187
 20
5.01226081999499
 10
-5.848997514799917
 20
5.091537442135734
 10
-5.868317653814895
 20
5.170816497978288
 10
-5.88749170458041
 20
5.250102086566248
 10
-5.906483357440748
 20
5.329398306943208
 10
-5.925256302740196
 20
5.408709258152762
 10
-5.943774230823041
 20
5.488039039238505
 10
-5.962000832033569
 20
5.567391749244032
 10
-5.979899796716068
 20
5.646771487212937
 10
-5.979899796716066
 20
5.646771487212937
 10
-6.005749113799505
 20
5.760764736510092
 10
-6.03236070055975
 20
5.8745898732522
 10
-6.059725160405077
 20
5.988245359385048
 10
-6.087833096743762
 20
6.101729656854423
 10
-6.116675112984082
 20
6.215041227606107
 10
-6.146241812534314
 20
6.328178533585887
 10
-6.176523798802735
 20
6.441140036739549
 10
-6.207511675197621
 20
6.553924199012878
 10
-6.23919604512725
 20
6.666529482351659
 10
-6.271567511999897
 20
6.778954348701677
 10
-6.30461667922384
 20
6.891197260008719
 10
-6.338334150207356
 20
7.003256678218569
 10
-6.37271052835872
 20
7.115131065277013
 10
-6.40773641708621
 20
7.226818883129835
 10
-6.443402419798102
 20
7.338318593722823
 10
-6.479699139902674
 20
7.449628659001759
 10
-6.516617180808202
 20
7.560747540912431
 10
-6.554147145922962
 20
7.671673701400623
 10
-6.592279638655231
 20
7.782405602412122
 10
-6.631005262413286
 20
7.892941705892712
 10
-6.670314620605404
 20
8.003280473788178
 10
-6.710198316639861
 20
8.113420368044307
 10
-6.750646953924936
 20
8.223359850606883
 10
-6.791651135868902
 20
8.333097383421691
 10
-6.833201465880039
 20
8.442631428434518
 10
-6.875288547366622
 20
8.551960447591149
 10
-6.917902983736929
 20
8.661082902837367
 10
-6.961035378399235
 20
8.76999725611896
 10
-7.004676334761818
 20
8.878701969381713
 10
-7.048816456232954
 20
8.987195504571412
 10
-7.093446346220919
 20
9.095476323633841
 10
-7.138556608133992
 20
9.203542888514785
 10
-7.184137845380448
 20
9.311393661160032
 10
-7.230180661368564
 20
9.419027103515364
 10
-7.276675659506617
 20
9.52644167752657
 10
-7.323613443202884
 20
9.633635845139432
 10
-7.370984615865641
 20
9.740608068299737
 10
-7.418779780903165
 20
9.84735680895327
 10
-7.466989541723733
 20
9.953880529045816
 10
-7.515604501735621
 20
10.06017769052316
 10
-7.51560450173562
 20
10.06017769052316
 10
-7.562602318410143
 20
10.16149497684194
 10
-7.610277001495457
 20
10.26247179799289
 10
-7.658618765829667
 20
10.3631111709015
 10
-7.707617826250879
 20
10.46341611249324
 10
-7.757264397597196
 20
10.5633896396936
 10
-7.807548694706724
 20
10.66303476942807
 10
-7.858460932417568
 20
10.76235451862214
 10
-7.909991325567834
 20
10.86135190420128
 10
-7.962130088995626
 20
10.96002994309099
 10
-8.014867437539047
 20
11.05839165221675
 10
-8.068193586036205
 20
11.15644004850405
 10
-8.122098749325203
 20
11.25417814887837
 10
-8.176573142244148
 20
11.35160897026521
 10
-8.231606979631143
 20
11.44873552959003
 10
-8.287190476324294
 20
11.54556084377833
 10
-8.343313847161706
 20
11.6420879297556
 10
-8.399967306981482
 20
11.73831980444732
 10
-8.457141070621728
 20
11.83425948477897
 10
-8.514825352920551
 20
11.92990998767605
 10
-8.573010368716053
 20
12.02527433006403
 10
-8.63168633284634
 20
12.12035552886841
 10
-8.690843460149519
 20
12.21515660101466
 10
-8.750471965463692
 20
12.30968056342828
 10
-8.810562063626965
 20
12.40393043303475
 10
-8.871103969477443
 20
12.49790922675956
 10
-8.932087897853232
 20
12.59161996152819
 10
-8.993504063592435
 20
12.68506565426612
 10
-9.055342681533158
 20
12.77824932189885
 10
-9.117593966513506
 20
12.87117398135186
 10
-9.180248133371584
 20
12.96384264955063
 10
-9.243295396945496
 20
13.05625834342065
 10
-9.306725972073348
 20
13.1484240798874
 10
-9.370530073593245
 20
13.24034287587638
 10
-9.434697916343292
 20
13.33201774831306
 10
-9.43469791634329
 20
13.33201774831306
 10
-9.501513012571761
 20
13.42639685012512
 10
-9.568949778643421
 20
13.52029213073802
 10
-9.637002437815167
 20
13.61370465684261
 10
-9.705665213343898
 20
13.70663549512973
 10
-9.774932328486512
 20
13.79908571229024
 10
-9.844798006499905
 20
13.89105637501498
 10
-9.915256470640974
 20
13.98254854999481
 10
-9.986301944166619
 20
14.07356330392056
 10
-10.05792865033373
 20
14.16410170348309
 10
-10.13013081239922
 20
14.25416481537324
 10
-10.20290265361997
 20
14.34375370628187
 10
-10.27623839725289
 20
14.43286944289982
 10
-10.35013226655487
 20
14.52151309191795
 10
-10.42457848478282
 20
14.60968572002709
 10
-10.49957127519361
 20
14.6973883939181
 10
-10.57510486104417
 20
14.78462218028182
 10
-10.65117346559137
 20
14.87138814580911
 10
-10.72777131209213
 20
14.95768735719081
 10
-10.80489262380334
 20
15.04352088111777
 10
-10.88253162398189
 20
15.12888978428084
 10
-10.96068253588468
 20
15.21379513337086
 10
-11.03933958276861
 20
15.29823799507869
 10
-11.11849698789059
 20
15.38221943609518
 10
-11.1981489745075
 20
15.46574052311116
 10
-11.27828976587624
 20
15.5488023228175
 10
-11.35891358525371
 20
15.63140590190503
 10
-11.44001465589681
 20
15.71355232706461
 10
-11.52158720106243
 20
15.79524266498708
 10
-11.60362544400748
 20
15.8764779823633
 10
-11.68612360798886
 20
15.95725934588411
 10
-11.76907591626345
 20
16.03758782224035
 10
-11.85247659208815
 20
16.11746447812289
 10
-11.93631985871987
 20
16.19689038022256
 10
-12.0205999394155
 20
16.27586659523022
 10
-12.10531105743194
 20
16.35439418983671
 10
-12.19044743602609
 20
16.43247423073288
 10
-12.27600329845484
 20
16.51010778460958
 10
-12.36197286797509
 20
16.58729591815765
 10
-12.44835036784374
 20
16.66403969806795
 10
-12.53513002131769
 20
16.74034019103132
 10
-12.62230605165383
 20
16.81619846373862
 10
-12.70987268210906
 20
16.89161558288069
 10
-12.79782413594029
 20
16.96659261514837
 10
-12.8861546364044
 20
17.04113062723252
 10
-12.97485840675829
 20
17.11523068582399
 10
-13.06392967025887
 20
17.18889385761362
 10
-13.15336265016302
 20
17.26212120929227
 10
-13.24315156972766
 20
17.33491380755077
 10
-13.33329065220967
 20
17.40727271907998
 10
-13.42377412086595
 20
17.47919901057075
 10
-13.5145961989534
 20
17.55069374871392
 10
-13.60575110972891
 20
17.62175800020035
 10
-13.69723307644939
 20
17.69239283172087
 10
-13.78903632237174
 20
17.76259930996635
 10
-13.88115507075285
 20
17.83237850162763
 10
-13.97358354484961
 20
17.90173147339555
 10
-14.06631596791893
 20
17.97065929196096
 10
-14.1593465632177
 20
18.03916302401471
 10
-14.25266955400282
 20
18.10724373624766
 10
-14.34627916353118
 20
18.17490249535065
 10
-14.4401696150597
 20
18.24214036801452
 10
-14.53433513184525
 20
18.30895842093013
 10
-14.62876993714475
 20
18.37535772078833
 10
-14.72346825421509
 20
18.44133933427995
 10
-14.81842430631316
 20
18.50690432809586
 10
-14.91363231669586
 20
18.5720537689269
 10
-15.0090865086201
 20
18.63678872346391
 10
-15.10478110534276
 20
18.70111025839775
 10
-15.20071033012075
 20
18.76501944041926
 10
-15.29686840621097
 20
18.82851733621929
 10
-15.3932495568703
 20
18.8916050124887
 10
-15.48984800535565
 20
18.95428353591832
 10
-15.58665797492392
 20
19.01655397319901
 10
-15.68367368883201
 20
19.07841739102161
 10
-15.7808893703368
 20
19.13987485607698
 10
-15.87829924269521
 20
19.20092743505595
 10
-15.97589752916412
 20
19.26157619464939
 10
-16.07367845300043
 20
19.32182220154814
 10
-16.17163623746105
 20
19.38166652244304
 10
-16.26976510580286
 20
19.44111022402495
 10
-16.36805928128277
 20
19.50015437298471
 10
-16.46651298715768
 20
19.55880003601317
 10
-16.56512044668447
 20
19.61704827980118
 10
-16.66387588312006
 20
19.67490017103959
 10
-16.76277351972133
 20
19.73235677641924
 10
-16.86180757974519
 20
19.78941916263099
 10
-16.96097228644853
 20
19.84608839636568
 10
-16.96097228644853
 20
19.84608839636569
 10
-16.98977104894184
 20
19.86241913120899
 10
-17.0187233855102
 20
19.87871610823591
 10
-17.04782604558164
 20
19.89497366111167
 10
-17.07707577858414
 20
19.91118612350149
 10
-17.10646933394571
 20
19.92734782907058
 10
-17.13600346109435
 20
19.94345311148416
 10
-17.16567490945808
 20
19.95949630440745
 10
-17.19548042846488
 20
19.97547174150567
 10
-17.22541676754276
 20
19.99137375644403
 10
-17.25548067611972
 20
20.00719668288777
 10
-17.28566890362378
 20
20.02293485450207
 10
-17.31597819948292
 20
20.03858260495219
 10
-17.34640531312515
 20
20.05413426790331
 10
-17.37694699397848
 20
20.06958417702067
 10
-17.4075999914709
 20
20.08492666596948
 10
-17.43836105503042
 20
20.10015606841497
 10
-17.46922693408504
 20
20.11526671802233
 10
-17.50019437806277
 20
20.13025294845681
 10
-17.5312601363916
 20
20.14510909338361
 10
-17.56242095849954
 20
20.15982948646795
 10
-17.5936735938146
 20
20.17440846137505
 10
-17.62501479176477
 20
20.18884035177013
 10
-17.65644130177805
 20
20.2031194913184
 10
-17.68794987328246
 20
20.21724021368508
 10
-17.71953725570599
 20
20.2311968525354
 10
-17.75120019847664
 20
20.24498374153456
 10
-17.78293545102242
 20
20.25859521434778
 10
-17.81473976277133
 20
20.27202560464029
 10
-17.84660988315137
 20
20.2852692460773
 10
-17.87854256159055
 20
20.29832047232403
 10
-17.91053454751686
 20
20.3111736170457
 10
-17.94258259035832
 20
20.32382301390752
 10
-17.97468343954292
 20
20.33626299657472
 10
-18.00683384449866
 20
20.3484878987125
 10
-18.03903055465355
 20
20.36049205398609
 10
-18.07127031943559
 20
20.37226979606071
 10
-18.10354988827279
 20
20.38381545860157
 10
-18.13586601059314
 20
20.39512337527389
 10
-18.16821543582464
 20
20.40618787974289
 10
-18.20059491339531
 20
20.41700330567379
 10
-18.23300119273314
 20
20.4275639867318
 10
-18.26543102326614
 20
20.43786425658215
 10
-18.2978811544223
 20
20.44789844889004
 10
-18.33034833562964
 20
20.45766089732071
 10
-18.36282931631615
 20
20.46714593553935
 10
-18.39532084590983
 20
20.4763478972112
 10
-18.42781967383869
 20
20.48526111600148
 10
-18.46032254953074
 20
20.49387992557539
 10
-18.49282622241396
 20
20.50219865959816
 10
-18.52532744191638
 20
20.51021165173501
 10
-18.55782295746598
 20
20.51791323565114
 10
-18.59030951849078
 20
20.52529774501179
 10
-18.62278387441876
 20
20.53235951348217
 10
-18.65524277467795
 20
20.53909287472749
 10
-18.68768296869633
 20
20.54549216241298
 10
-18.72010120590192
 20
20.55155171020385
 10
-18.75249423572271
 20
20.55726585176531
 10
-18.78485880758671
 20
20.5626289207626
 10
-18.81719167092191
 20
20.56763525086092
 10
-18.84948957515633
 20
20.57227917572548
 10
-18.88174926971796
 20
20.57655502902153
 10
-18.91396750403481
 20
20.58045714441426
 10
-18.94614102753488
 20
20.5839798555689
 10
-18.97826658964617
 20
20.58711749615065
 10
-19.01034093979668
 20
20.58986439982476
 10
-19.04236082741443
 20
20.59221490025642
 10
-19.0743230019274
 20
20.59416333111085
 10
-19.1062242127636
 20
20.59570402605329
 10
-19.13806120935104
 20
20.59683131874893
 10
-19.16983074111772
 20
20.59753954286301
 10
-19.20152955749164
 20
20.59782303206073
 10
-19.2331544079008
 20
20.59767612000733
 10
-19.2647020417732
 20
20.597093140368
 10
-19.29616920853685
 20
20.59606842680798
 10
-19.32755265761975
 20
20.59459631299247
 10
-19.35884913844991
 20
20.59267113258671
 10
-19.39005540045532
 20
20.5902872192559
 10
-19.42116819306399
 20
20.58743890666526
 10
-19.45218426570392
 20
20.58412052848001
 10
-19.48310036780312
 20
20.58032641836537
 10
-19.51391324878958
 20
20.57605090998655
 10
-19.5446196580913
 20
20.57128833700879
 10
-19.5752163451363
 20
20.56603303309728
 10
-19.60570005935257
 20
20.56027933191725
 10
-19.63606755016812
 20
20.55402156713392
 10
-19.66631556701094
 20
20.5472540724125
 10
-19.69644085930905
 20
20.53997118141822
 10
-19.72644017649044
 20
20.53216722781629
 10
-19.75631026798311
 20
20.52383654527192
 10
-19.78604788321508
 20
20.51497346745035
 10
-19.81564977161433
 20
20.50557232801677
 10
-19.84511268260888
 20
20.49562746063642
 10
-19.87443336562673
 20
20.48513319897451
 10
-19.90360857009587
 20
20.47408387669626
 10
-19.93263504544432
 20
20.46247382746688
 10
-19.96150954110007
 20
20.45029738495159
 10
-19.99022880649113
 20
20.43754888281561
 10
-20.0187895910455
 20
20.42422265472417
 10
-20.04718864419118
 20
20.41031303434247
 10
-20.07542271535617
 20
20.39581435533573
 10
-20.10348855396848
 20
20.38072095136918
 10
-20.13138290945611
 20
20.36502715610803
 10
-20.15910253124706
 20
20.34872730321749
 10
-20.18664416876934
 20
20.33181572636279
 10
-20.21400457145094
 20
20.31428675920914
 10
-20.24118048871988
 20
20.29613473542177
 10
-20.26816867000414
 20
20.27735398866588
 10
-20.29496586473174
 20
20.2579388526067
 10
-20.32156882233068
 20
20.23788366090944
 10
-20.34797429222896
 20
20.21718274723933
 10
-20.37417902385458
 20
20.19583044526157
 10
-20.40017976663555
 20
20.1738210886414
 10
-20.42597326999986
 20
20.15114901104402
 10
-20.45155628337552
 20
20.12780854613465
 10
-20.47692555619054
 20
20.10379402757851
 10
-20.50207783787291
 20
20.07909978904082
 10
-20.52700987785065
 20
20.05372016418681
 10
-20.55171842555174
 20
20.02764948668167
 10
-20.57620023040419
 20
20.00088209019063
 10
-20.60045204183601
 20
19.97341230837891
 10
-20.6244706092752
 20
19.94523447491173
 10
-20.64825268214976
 20
19.91634292345431
 10
-20.67179500988769
 20
19.88673198767186
 10
-20.69509434191699
 20
19.85639600122961
 10
-20.71814742766568
 20
19.82532929779276
 10
-20.74095101656175
 20
19.79352621102654
 10
-20.7635018580332
 20
19.76098107459616
 10
-20.76350185803319
 20
19.76098107459616
 10
-20.78548030446806
 20
19.72874796245245
 10
-20.80736800595506
 20
19.69672305063849
 10
-20.82917274938868
 20
19.66491210821664
 10
-20.8509023216634
 20
19.63332090424925
 10
-20.87256450967369
 20
19.60195520779868
 10
-20.89416710031405
 20
19.57082078792729
 10
-20.91571788047895
 20
19.53992341369742
 10
-20.93722463706289
 20
19.50926885417143
 10
-20.95869515696033
 20
19.47886287841168
 10
-20.98013722706577
 20
19.44871125548052
 10
-21.00155863427369
 20
19.41881975444031
 10
-21.02296716547856
 20
19.38919414435339
 10
-21.04437060757488
 20
19.35984019428214
 10
-21.06577674745713
 20
19.33076367328889
 10
-21.08719337201979
 20
19.301970350436
 10
-21.10862826815733
 20
19.27346599478584
 10
-21.13008922276425
 20
19.24525637540074
 10
-21.15158402273502
 20
19.21734726134308
 10
-21.17312045496414
 20
19.1897444216752
 10
-21.19470630634607
 20
19.16245362545945
 10
-21.21634936377532
 20
19.1354806417582
 10
-21.23805741414634
 20
19.10883123963379
 10
-21.25983824435364
 20
19.08251118814858
 10
-21.2816996412917
 20
19.05652625636493
 10
-21.30364939185498
 20
19.03088221334519
 10
-21.32569528293799
 20
19.00558482815171
 10
-21.3478451014352
 20
18.98063986984684
 10
-21.37010663424109
 20
18.95605310749296
 10
-21.39248766825015
 20
18.9318303101524
 10
-21.41499599035685
 20
18.90797724688752
 10
-21.4376393874557
 20
18.88449968676068
 10
-21.46042564644115
 20
18.86140339883423
 10
-21.4833625542077
 20
18.83869415217053
 10
-21.50645789764983
 20
18.81637771583193
 10
-21.52971946366203
 20
18.79445985888078
 10
-21.55315503913877
 20
18.77294635037945
 10
-21.57677241097454
 20
18.75184295939028
 10
-21.60057936606382
 20
18.73115545497562
 10
-21.6245836913011
 20
18.71088960619784
 10
-21.64879317358085
 20
18.69105118211929
 10
-21.67321559979757
 20
18.67164595180233
 10
-21.69785875684572
 20
18.6526796843093
 10
-21.7227304316198
 20
18.63415814870256
 10
-21.74783841101429
 20
18.61608711404447
 10
-21.77319048192367
 20
18.59847234939737
 10
-21.79879443124242
 20
18.58131962382364
 10
-21.82465804586503
 20
18.56463470638561
 10
-21.85078911268598
 20
18.54842336614565
 10
-21.87719541859975
 20
18.5326913721661
 10
-21.90388475050082
 20
18.51744449350934
 10
-21.93086489528369
 20
18.5026884992377
 10
-21.95814363984281
 20
18.48842915841354
 10
-21.9857287710727
 20
18.47467224009922
 10
-22.01362807586782
 20
18.46142351335709
 10
-22.04184934112266
 20
18.44868874724951
 10
-22.0704003537317
 20
18.43647371083883
 10
-22.09928890058942
 20
18.42478417318741
 10
-22.12852276859031
 20
18.41362590335759
 10
-22.15810974462884
 20
18.40300467041174
 10
-22.18805761559951
 20
18.39292624341221
 10
-22.21837416839679
 20
18.38339639142136
 10
-22.24906718991518
 20
18.37442088350153
 10
-22.28014446704914
 20
18.36600548871509
 10
-22.31161378669316
 20
18.35815597612438
 10
-22.34348293574173
 20
18.35087811479177
 10
-22.37575970108933
 20
18.3441776737796
 10
-22.40845186963044
 20
18.33806042215023
 10
-22.44156722825955
 20
18.33253212896602
 10
-22.47511356387112
 20
18.32759856328933
 10
-22.50909866335967
 20
18.32326549418249
 10
-22.54353031361965
 20
18.31953869070788
 10
-22.57841630154556
 20
18.31642392192784
 10
-22.61376441403187
 20
18.31392695690473
 10
-22.61376441403185
 20
18.31392695690473
 10
-22.62906998907857
 20
18.31321795236164
 10
-22.64502807614045
 20
18.31292576230464
 10
-22.6616299670815
 20
18.31304217389536
 10
-22.67886695376575
 20
18.31355897429543
 10
-22.6967303280572
 20
18.31446795066647
 10
-22.71521138181987
 20
18.31576089017011
 10
-22.73430140691778
 20
18.31742957996797
 10
-22.75399169521493
 20
18.31946580722169
 10
-22.77427353857536
 20
18.32186135909288
 10
-22.79513822886306
 20
18.32460802274319
 10
-22.81657705794205
 20
18.32769758533422
 10
-22.83858131767635
 20
18.33112183402762
 10
-22.86114229992998
 20
18.334872555985
 10
-22.88425129656694
 20
18.338941538368
 10
-22.90789959945126
 20
18.34332056833824
 10
-22.93207850044695
 20
18.34800143305734
 10
-22.95677929141802
 20
18.35297591968694
 10
-22.98199326422848
 20
18.35823581538867
 10
-23.00771171074235
 20
18.36377290732414
 10
-23.03392592282365
 20
18.36957898265498
 10
-23.0606271923364
 20
18.37564582854283
 10
-23.08780681114459
 20
18.3819652321493
 10
-23.11545607111226
 20
18.38852898063604
 10
-23.14356626410342
 20
18.39532886116465
 10
-23.17212868198207
 20
18.40235666089678
 10
-23.20113461661224
 20
18.40960416699404
 10
-23.23057535985793
 20
18.41706316661806
 10
-23.26044220358317
 20
18.42472544693048
 10
-23.29072643965197
 20
18.43258279509291
 10
-23.32141935992835
 20
18.44062699826698
 10
-23.35251225627631
 20
18.44884984361433
 10
-23.38399642055987
 20
18.45724311829657
 10
-23.41586314464305
 20
18.46579860947534
 10
-23.44810372038987
 20
18.47450810431227
 10
-23.48070943966432
 20
18.48336338996896
 10
-23.51367159433045
 20
18.49235625360707
 10
-23.54698147625224
 20
18.5014784823882
 10
-23.58063037729373
 20
18.510721863474
 10
-23.61460958931893
 20
18.52007818402607
 10
-23.64891040419184
 20
18.52953923120607
 10
-23.68352411377649
 20
18.5390967921756
 10
-23.71844200993689
 20
18.5487426540963
 10
-23.75365538453706
 20
18.55846860412979
 10
-23.789155529441
 20
18.5682664294377
 10
-23.82493373651274
 20
18.57812791718166
 10
-23.86098129761628
 20
18.5880448545233
 10
-23.89728950461565
 20
18.59800902862423
 10
-23.93384964937486
 20
18.60801222664609
 10
-23.97065302375791
 20
18.61804623575051
 10
-24.00769091962884
 20
18.62810284309911
 10
-24.04495462885166
 20
18.63817383585351
 10
-24.08243544329036
 20
18.64825100117535
 10
-24.12012465480898
 20
18.65832612622625
 10
-24.15801355527152
 20
18.66839099816784
 10
-24.196093436542
 20
18.67843740416175
 10
-24.23435559048444
 20
18.6884571313696
 10
-24.27279130896286
 20
18.69844196695302
 10
-24.31139188384125
 20
18.70838369807364
 10
-24.35014860698365
 20
18.71827411189308
 10
-24.38905277025405
 20
18.72810499557296
 10
-24.4280956655165
 20
18.73786813627493
 10
-24.46726858463498
 20
18.7475553211606
 10
-24.50656281947352
 20
18.7571583373916
 10
-24.54596966189613
 20
18.76666897212956
 10
-24.58548040376684
 20
18.7760790125361
 10
-24.62508633694964
 20
18.78538024577285
 10
-24.66477875330856
 20
18.79456445900144
 10
-24.70454894470762
 20
18.8036234393835
 10
-24.74438820301081
 20
18.81254897408065
 10
-24.78428782008218
 20
18.82133285025452
 10
-24.82423908778572
 20
18.82996685506673
 10
-24.86423329798545
 20
18.83844277567892
 10
-24.90426174254539
 20
18.8467523992527
 10
-24.94431571332954
 20
18.85488751294971
 10
-24.98438650220193
 20
18.86283990393157
 10
-25.02446540102657
 20
18.87060135935992
 10
-25.06454370166748
 20
18.87816366639637
 10
-25.10461269598866
 20
18.88551861220255
 10
-25.14466367585414
 20
18.8926579839401
 10
-25.18468793312792
 20
18.89957356877063
 10
-25.22467675967404
 20
18.90625715385578
 10
-25.26462144735648
 20
18.91270052635716
 10
-25.30451328803928
 20
18.91889547343642
 10
-25.34434357358645
 20
18.92483378225517
 10
-25.384103595862
 20
18.93050723997505
 10
-25.42378464672994
 20
18.93590763375767
 10
-25.4633780180543
 20
18.94102675076467
 10
-25.50287500169909
 20
18.94585637815767
 10
-25.54226688952831
 20
18.9503883030983
 10
-25.58154497340599
 20
18.95461431274818
 10
-25.62070054519614
 20
18.95852619426895
 10
-25.65972489676278
 20
18.96211573482222
 10
-25.69860931996991
 20
18.96537472156964
 10
-25.73734510668156
 20
18.96829494167282
 10
-25.77592354876174
 20
18.97086818229339
 10
-25.81433593807446
 20
18.97308623059297
 10
-25.85257356648374
 20
18.97494087373321
 10
-25.89062772585359
 20
18.97642389887571
 10
-25.92848970804804
 20
18.97752709318211
 10
-25.92848970804803
 20
18.97752709318211
 10
-26.05652556677098
 20
18.98033665214389
 10
-26.18442732900682
 20
18.98258557367437
 10
-26.31219705715454
 20
18.98427072674617
 10
-26.4398368136131
 20
18.98538898033185
 10
-26.56734866078151
 20
18.98593720340401
 10
-26.69473466105872
 20
18.98591226493524
 10
-26.82199687684375
 20
18.98531103389813
 10
-26.94913737053555
 20
18.98413037926527
 10
-27.07615820453312
 20
18.98236717000925
 10
-27.20306144123543
 20
18.98001827510265
 10
-27.32984914304147
 20
18.97708056351807
 10
-27.45652337235022
 20
18.97355090422809
 10
-27.58308619156067
 20
18.96942616620531
 10
-27.70953966307179
 20
18.96470321842231
 10
-27.83588584928257
 20
18.95937892985168
 10
-27.96212681259198
 20
18.95345016946601
 10
-28.08826461539902
 20
18.9469138062379
 10
-28.21430132010266
 20
18.93976670913992
 10
-28.34023898910188
 20
18.93200574714467
 10
-28.46607968479567
 20
18.92362778922474
 10
-28.59182546958301
 20
18.91462970435272
 10
-28.71747840586288
 20
18.90500836150119
 10
-28.84304055603426
 20
18.89476062964275
 10
-28.96851398249614
 20
18.88388337774999
 10
-29.0939007476475
 20
18.87237347479549
 10
-29.21920291388732
 20
18.86022778975184
 10
-29.34442254361458
 20
18.84744319159164
 10
-29.46956169922826
 20
18.83401654928746
 10
-29.59462244312735
 20
18.81994473181191
 10
-29.71960683771082
 20
18.80522460813757
 10
-29.84451694537766
 20
18.78985304723703
 10
-29.96935482852686
 20
18.77382691808287
 10
-30.09412254955739
 20
18.75714308964769
 10
-30.21882217086823
 20
18.73979843090408
 10
-30.34345575485838
 20
18.72178981082463
 10
-30.4680253639268
 20
18.70311409838192
 10
-30.59253306047248
 20
18.68376816254855
 10
-30.71698090689441
 20
18.6637488722971
 10
-30.84137096559157
 20
18.64305309660016
 10
-30.96570529896293
 20
18.62167770443032
 10
-31.08998596940748
 20
18.59961956476018
 10
-31.21421503932421
 20
18.57687554656231
 10
-31.33839457111209
 20
18.55344251880932
 10
-31.46252662717011
 20
18.52931735047378
 10
-31.58661326989725
 20
18.50449691052829
 10
-31.71065656169248
 20
18.47897806794544
 10
-31.8346585649548
 20
18.45275769169781
 10
-31.95862134208318
 20
18.425832650758
 10
-32.08254695547661
 20
18.3981998140986
 10
-32.20643746753407
 20
18.36985605069219
 10
-32.33029494065454
 20
18.34079822951136
 10
-32.45412143723701
 20
18.31102321952871
 10
-32.57791901968044
 20
18.28052788971681
 10
-32.70168975038384
 20
18.24930910904826
 10
-32.82543569174618
 20
18.21736374649566
 10
-32.94915890616644
 20
18.18468867103158
 10
-33.0728614560436
 20
18.15128075162862
 10
-33.19654540377664
 20
18.11713685725937
 10
-33.32021281176455
 20
18.08225385689642
 10
-33.44386574240631
 20
18.04662861951235
 10
-33.56750625810091
 20
18.01025801407976
 10
-33.69113642124732
 20
17.97313890957123
 10
-33.81475829424452
 20
17.93526817495935
 10
-33.9383739394915
 20
17.89664267921672
 10
-34.06198541938724
 20
17.85725929131592
 10
-34.18559479633073
 20
17.81711488022954
 10
-34.30920413272094
 20
17.77620631493016
 10
-34.43281549095685
 20
17.73453046439039
 10
-34.55643093343745
 20
17.69208419758281
 10
-34.68005252256172
 20
17.64886438348001
 10
-34.80368232072864
 20
17.60486789105456
 10
-34.9273223903372
 20
17.56009158927908
 10
-35.05097479378637
 20
17.51453234712614
 10
-35.05097479378636
 20
17.51453234712615
 10
-35.14591901819951
 20
17.48362069247113
 10
-35.24062622806422
 20
17.45272326676314
 10
-35.3350968334984
 20
17.42182431529415
 10
-35.42933124461994
 20
17.39090808335614
 10
-35.52332987154674
 20
17.35995881624105
 10
-35.6170931243967
 20
17.32896075924086
 10
-35.71062141328771
 20
17.29789815764752
 10
-35.80391514833768
 20
17.266755256753
 10
-35.8969747396645
 20
17.23551630184927
 10
-35.98980059738607
 20
17.20416553822829
 10
-36.08239313162029
 20
17.17268721118201
 10
-36.17475275248506
 20
17.14106556600241
 10
-36.26687987009827
 20
17.10928484798144
 10
-36.35877489457783
 20
17.07732930241108
 10
-36.45043823604163
 20
17.04518317458328
 10
-36.54187030460756
 20
17.01283070979001
 10
-36.63307151039354
 20
16.98025615332323
 10
-36.72404226351745
 20
16.94744375047491
 10
-36.81478297409719
 20
16.914377746537
 10
-36.90529405225067
 20
16.88104238680147
 10
-36.99557590809578
 20
16.84742191656029
 10
-37.08562895175041
 20
16.81350058110542
 10
-37.17545359333247
 20
16.77926262572881
 10
-37.26505024295985
 20
16.74469229572245
 10
-37.35441931075045
 20
16.70977383637827
 10
-37.44356120682218
 20
16.67449149298827
 10
-37.53247634129292
 20
16.63882951084438
 10
-37.62116512428058
 20
16.60277213523858
 10
-37.70962796590306
 20
16.56630361146284
 10
-37.79786527627825
 20
16.52940818480911
 10
-37.88587746552405
 20
16.49207010056936
 10
-37.97366494375836
 20
16.45427360403554
 10
-38.06122812109908
 20
16.41600294049964
 10
-38.1485674076641
 20
16.3772423552536
 10
-38.23568321357132
 20
16.3379760935894
 10
-38.32257594893865
 20
16.29818840079899
 10
-38.40924602388398
 20
16.25786352217434
 10
-38.4956938485252
 20
16.21698570300742
 10
-38.58191983298022
 20
16.17553918859018
 10
-38.66792438736693
 20
16.13350822421458
 10
-38.75370792180324
 20
16.0908770551726
 10
-38.83927084640704
 20
16.0476299267562
 10
-38.92461357129623
 20
16.00375108425733
 10
-39.0097365065887
 20
15.95922477296797
 10
-39.09464006240236
 20
15.91403523818007
 10
-39.1793246488551
 20
15.8681667251856
 10
-39.26379067606482
 20
15.82160347927652
 10
-39.34803855414943
 20
15.7743297457448
 10
-39.43206869322681
 20
15.72632976988241
 10
-39.51588150341486
 20
15.67758779698129
 10
-39.51588150341485
 20
15.67758779698128
 10
-39.60685944307556
 20
15.62423103535068
 10
-39.69775767170405
 20
15.57097000289357
 10
-39.78857166938099
 20
15.51779170962685
 10
-39.8792969161871
 20
15.46468316556743
 10
-39.96992889220308
 20
15.41163138073223
 10
-40.06046307750965
 20
15.35862336513815
 10
-40.15089495218751
 20
15.30564612880211
 10
-40.24121999631735
 20
15.252686681741
 10
-40.3314336899799
 20
15.19973203397174
 10
-40.42153151325585
 20
15.14676919551124
 10
-40.51150894622592
 20
15.09378517637641
 10
-40.6013614689708
 20
15.04076698658415
 10
-40.6910845615712
 20
14.98770163615138
 10
-40.78067370410783
 20
14.934576135095
 10
-40.87012437666139
 20
14.88137749343193
 10
-40.95943205931259
 20
14.82809272117906
 10
-41.04859223214215
 20
14.77470882835332
 10
-41.13760037523074
 20
14.72121282497161
 10
-41.2264519686591
 20
14.66759172105084
 10
-41.31514249250792
 20
14.61383252660791
 10
-41.40366742685791
 20
14.55992225165975
 10
-41.49202225178977
 20
14.50584790622325
 10
-41.58020244738422
 20
14.45159650031532
 10
-41.66820349372194
 20
14.39715504395288
 10
-41.75602087088367
 20
14.34251054715283
 10
-41.84365005895009
 20
14.28765001993208
 10
-41.93108653800191
 20
14.23256047230755
 10
-42.01832578811984
 20
14.17722891429613
 10
-42.10536328938458
 20
14.12164235591475
 10
-42.19219452187686
 20
14.0657878071803
 10
-42.27881496567736
 20
14.0096522781097
 10
-42.36522010086679
 20
13.95322277871985
 10
-42.45140540752585
 20
13.89648631902767
 10
-42.53736636573527
 20
13.83942990905007
 10
-42.62309845557573
 20
13.78204055880394
 10
-42.70859715712795
 20
13.72430527830621
 10
-42.79385795047264
 20
13.66621107757378
 10
-42.87887631569048
 20
13.60774496662356
 10
-42.9636477328622
 20
13.54889395547246
 10
-43.0481676820685
 20
13.48964505413739
 10
-43.13243164339009
 20
13.42998527263525
 10
-43.21643509690768
 20
13.36990162098296
 10
-43.30017352270195
 20
13.30938110919743
 10
-43.38364240085364
 20
13.24841074729556
 10
-43.46683721144343
 20
13.18697754529426
 10
-43.54975343455204
 20
13.12506851321044
 10
-43.63238655026016
 20
13.06267066106102
 10
-43.71473203864852
 20
12.99977099886289
 10
-43.7967853797978
 20
12.93635653663298
 10
-43.87854205378872
 20
12.87241428438818
 10
-43.95999754070198
 20
12.80793125214541
 10
-44.0411473206183
 20
12.74289444992157
 10
-44.12198687361838
 20
12.67729088773358
 10
-44.20251167978292
 20
12.61110757559835
 10
-44.28271721919261
 20
12.54433152353277
 10
-44.36259897192819
 20
12.47694974155378
 10
-44.44215241807034
 20
12.40894923967825
 10
-44.52137303769978
 20
12.34031702792312
 10
-44.6002563108972
 20
12.27104011630529
 10
-44.67879771774334
 20
12.20110551484167
 10
-44.75699273831886
 20
12.13050023354917
 10
-44.83483685270449
 20
12.05921128244469
 10
-44.91232554098094
 20
11.98722567154514
 10
-44.91232554098094
 20
11.98722567154514
 10
-44.99634454052509
 20
11.90849518034988
 10
-45.07997835048732
 20
11.82988889415986
 10
-45.16322766070037
 20
11.75139423230752
 10
-45.24609316099697
 20
11.67299861412534
 10
-45.32857554120986
 20
11.59468945894578
 10
-45.41067549117177
 20
11.5164541861013
 10
-45.49239370071544
 20
11.43828021492435
 10
-45.57373085967362
 20
11.36015496474741
 10
-45.65468765787901
 20
11.28206585490293
 10
-45.73526478516438
 20
11.20400030472337
 10
-45.81546293136245
 20
11.12594573354119
 10
-45.89528278630596
 20
11.04788956068887
 10
-45.97472503982764
 20
10.96981920549884
 10
-46.05379038176024
 20
10.89172208730359
 10
-46.13247950193648
 20
10.81358562543557
 10
-46.2107930901891
 20
10.73539723922724
 10
-46.28873183635085
 20
10.65714434801107
 10
-46.36629643025443
 20
10.57881437111951
 10
-46.44348756173261
 20
10.50039472788502
 10
-46.52030592061811
 20
10.42187283764008
 10
-46.59675219674368
 20
10.34323611971712
 10
-46.67282707994204
 20
10.26447199344864
 10
-46.74853126004594
 20
10.18556787816707
 10
-46.82386542688809
 20
10.10651119320489
 10
-46.89883027030124
 20
10.02728935789455
 10
-46.97342648011814
 20
9.94788979156852
 10
-47.0476547461715
 20
9.868299913559257
 10
-47.12151575829408
 20
9.788507143199222
 10
-47.19501020631861
 20
9.708498899820877
 10
-47.26813878007781
 20
9.628262602756684
 10
-47.34090216940444
 20
9.547785671339104
 10
-47.41330106413122
 20
9.467055524900599
 10
-47.48533615409088
 20
9.386059582773629
 10
-47.55700812911617
 20
9.304785264290657
 10
-47.62831767903981
 20
9.223219988784144
 10
-47.69926549369456
 20
9.141351175586551
 10
-47.76985226291313
 20
9.05916624403034
 10
-47.84007867652827
 20
8.976652613447972
 10
-47.90994542437271
 20
8.893797703171909
 10
-47.9794531962792
 20
8.810588932534612
 10
-48.04860268208045
 20
8.727013720868542
 10
-48.11739457160921
 20
8.643059487506162
 10
-48.18582955469821
 20
8.558713651779932
 10
-48.25390832118021
 20
8.473963633022313
 10
-48.32163156088791
 20
8.388796850565766
 10
-48.38899996365406
 20
8.303200723742754
 10
-48.4560142193114
 20
8.21716267188574
 10
-48.52267501769267
 20
8.13067011432718
 10
-48.5889830486306
 20
8.04371047039954
 10
-48.65493900195791
 20
7.956271159435281
 10
-48.72054356750736
 20
7.868339600766863
 10
-48.78579743511167
 20
7.779903213726748
 10
-48.85070129460359
 20
7.690949417647398
 10
-48.91525583581584
 20
7.601465631861273
 10
-48.97946174858116
 20
7.511439275700836
 10
-49.04331972273229
 20
7.420857768498548
 10
-49.10683044810198
 20
7.329708529586869
 10
-49.16999461452294
 20
7.237978978298262
 10
-49.23281291182791
 20
7.145656533965189
 10
-49.29528602984964
 20
7.052728615920109
 10
-49.35741465842085
 20
6.959182643495486
 10
-49.41919948737429
 20
6.865006036023779
 10
-49.48064120654269
 20
6.770186212837452
 10
-49.54174050575877
 20
6.674710593268964
 10
-49.60249807485529
 20
6.578566596650778
 10
-49.66291460366497
 20
6.481741642315355
 10
-49.72299078202055
 20
6.384223149595157
 10
-49.78272729975478
 20
6.285998537822644
 10
-49.78272729975477
 20
6.285998537822636
 10
-49.83443530973946
 20
6.200236044783812
 10
-49.88584540642398
 20
6.114577831298737
 10
-49.9369516084262
 20
6.029011468518466
 10
-49.987747934364
 20
5.943524527594057
 10
-50.03822840285522
 20
5.858104579676566
 10
-50.08838703251774
 20
5.77273919591705
 10
-50.13821784196943
 20
5.687415947466566
 10
-50.18771484982814
 20
5.60212240547617
 10
-50.23687207471176
 20
5.51684614109692
 10
-50.28568353523812
 20
5.431574725479871
 10
-50.33414325002513
 20
5.34629572977608
 10
-50.38224523769062
 20
5.260996725136605
 10
-50.42998351685247
 20
5.175665282712501
 10
-50.47735210612853
 20
5.090288973654826
 10
-50.52434502413669
 20
5.004855369114635
 10
-50.5709562894948
 20
4.919352040242987
 10
-50.61717992082073
 20
4.833766558190937
 10
-50.66300993673234
 20
4.748086494109542
 10
-50.70844035584751
 20
4.662299419149859
 10
-50.75346519678409
 20
4.576392904462944
 10
-50.79807847815995
 20
4.490354521199855
 10
-50.84227421859296
 20
4.404171840511648
 10
-50.88604643670098
 20
4.317832433549379
 10
-50.92938915110188
 20
4.231323871464105
 10
-50.97229638041353
 20
4.144633725406884
 10
-51.01476214325378
 20
4.057749566528771
 10
-51.05678045824051
 20
3.970658965980824
 10
-51.09834534399158
 20
3.883349494914098
 10
-51.13945081912484
 20
3.795808724479651
 10
-51.18009090225819
 20
3.708024225828539
 10
-51.22025961200947
 20
3.619983570111819
 10
-51.25995096699656
 20
3.531674328480548
 10
-51.29915898583732
 20
3.443084072085782
 10
-51.3378776871496
 20
3.354200372078579
 10
-51.37610108955128
 20
3.265010799609994
 10
-51.41382321166023
 20
3.175502925831084
 10
-51.45103807209432
 20
3.085664321892907
 10
-51.48773968947139
 20
2.995482558946519
 10
-51.52392208240933
 20
2.904945208142977
 10
-51.55957926952599
 20
2.814039840633336
 10
-51.59470526943925
 20
2.722754027568654
 10
-51.62929410076697
 20
2.631075340099988
 10
-51.66333978212701
 20
2.538991349378394
 10
-51.69683633213724
 20
2.446489626554929
 10
-51.72977776941552
 20
2.35355774278065
 10
-51.76215811257972
 20
2.260183269206613
 10
-51.79397138024771
 20
2.166353776983875
 10
-51.82521159103735
 20
2.072056837263493
 10
-51.85587276356651
 20
1.977280021196523
 10
-51.88594891645305
 20
1.882010899934022
 10
-51.91543406831483
 20
1.786237044627046
 10
-51.91543406831484
 20
1.786237044627045
 10
-51.9260037981522
 20
1.750802931079058
 10
-51.93640862878338
 20
1.714625018773858
 10
-51.94665204532874
 20
1.677738218889061
 10
-51.95673753290864
 20
1.640177442602284
 10
-51.96666857664344
 20
1.60197760109114
 10
-51.97644866165351
 20
1.563173605533246
 10
-51.98608127305919
 20
1.523800367106217
 10
-51.99556989598086
 20
1.483892796987667
 10
-52.00491801553888
 20
1.443485806355214
 10
-52.01412911685361
 20
1.40261430638647
 10
-52.0232066850454
 20
1.361313208259053
 10
-52.03215420523463
 20
1.319617423150578
 10
-52.04097516254165
 20
1.277561862238659
 10
-52.04967304208683
 20
1.235181436700912
 10
-52.0582513289905
 20
1.192511057714953
 10
-52.06671350837307
 20
1.149585636458397
 10
-52.07506306535487
 20
1.106440084108858
 10
-52.08330348505626
 20
1.063109311843953
 10
-52.09143825259761
 20
1.019628230841297
 10
-52.09947085309929
 20
0.9760317522785054
 10
-52.10740477168164
 20
0.9323547873331929
 10
-52.11524349346504
 20
0.8886322471829751
 10
-52.12299050356985
 20
0.8448990430054674
 10
-52.13064928711641
 20
0.8011900859782851
 10
-52.13822332922511
 20
0.7575402872790438
 10
-52.14571611501629
 20
0.7139845580853585
 10
-52.15313112961031
 20
0.6705578095748446
 10
-52.16047185812755
 20
0.6272949529251175
 10
-52.16774178568837
 20
0.5842308993137926
 10
-52.17494439741312
 20
0.5414005599184852
 10
-52.18208317842215
 20
0.4988388459168104
 10
-52.18916161383585
 20
0.4565806684863839
 10
-52.19618318877456
 20
0.4146609388048208
 10
-52.20315138835864
 20
0.3731145680497364
 10
-52.21006969770847
 20
0.3319764673987462
 10
-52.21694160194441
 20
0.2912815480294655
 10
-52.22377058618679
 20
0.2510647211195096
 10
-52.230560135556
 20
0.2113608978464939
 10
-52.2373137351724
 20
0.1722049893880335
 10
-52.24403487015634
 20
0.1336319069217441
 10
-52.25072702562819
 20
0.0956765616252407
 10
-52.25739368670829
 20
0.0583738646761389
 10
-52.26403833851704
 20
0.0217587272520538
 10
-52.27066446617477
 20
-0.0141339394693991
 10
-52.27066446617477
 20
-0.0141339394693995
 10
-52.26718938975067
 20
-0.0308987913531167
 10
-52.26344946902927
 20
-0.0484057381810246
 10
-52.25944586498688
 20
-0.0666461257555289
 10
-52.25517973859979
 20
-0.085611299879035
 10
-52.2506522508443
 20
-0.1052926063539484
 10
-52.24586456269669
 20
-0.1256813909826748
 10
-52.24081783513327
 20
-0.1467689995676196
 10
-52.23551322913031
 20
-0.1685467779111885
 10
-52.22995190566415
 20
-0.1910060718157868
 10
-52.22413502571104
 20
-0.2141382270838203
 10
-52.21806375024729
 20
-0.2379345895176944
 10
-52.2117392402492
 20
-0.2623865049198147
 10
-52.20516265669306
 20
-0.2874853190925867
 10
-52.19833516055517
 20
-0.3132223778384159
 10
-52.19125791281182
 20
-0.3395890269597079
 10
-52.18393207443931
 20
-0.3665766122588682
 10
-52.17635880641393
 20
-0.3941764795383024
 10
-52.16853926971197
 20
-0.4223799746004161
 10
-52.16047462530973
 20
-0.4511784432476146
 10
-52.15216603418351
 20
-0.4805632312823037
 10
-52.14361465730959
 20
-0.5105256845068889
 10
-52.13482165566428
 20
-0.5410571487237755
 10
-52.12578819022388
 20
-0.5721489697353693
 10
-52.11651542196467
 20
-0.6037924933440758
 10
-52.10700451186294
 20
-0.6359790653523005
 10
-52.097256620895
 20
-0.668700031562449
 10
-52.08727291003713
 20
-0.7019467377769267
 10
-52.07705454026563
 20
-0.7357105297981392
 10
-52.06660267255681
 20
-0.769982753428492
 10
-52.05591846788695
 20
-0.8047547544703908
 10
-52.04500308723233
 20
-0.840017878726241
 10
-52.03385769156928
 20
-0.8757634719984482
 10
-52.02248344187407
 20
-0.9119828800894181
 10
-52.010881499123
 20
-0.9486674488015559
 10
-51.99905302429237
 20
-0.9858085239372675
 10
-51.98699917835847
 20
-1.023397451298958
 10
-51.9747211222976
 20
-1.061425576689033
 10
-51.96222001708604
 20
-1.099884245909898
 10
-51.9494970237001
 20
-1.13876480476396
 10
-51.93655330311607
 20
-1.178058599053622
 10
-51.92339001631023
 20
-1.217756974581292
 10
-51.91000832425891
 20
-1.257851277149374
 10
-51.89640938793838
 20
-1.298332852560274
 10
-51.88259436832493
 20
-1.339193046616397
 10
-51.86856442639487
 20
-1.38042320512015
 10
-51.85432072312448
 20
-1.422014673873937
 10
-51.83986441949008
 20
-1.463958798680164
 10
-51.82519667646793
 20
-1.506246925341236
 10
-51.81031865503435
 20
-1.54887039965956
 10
-51.79523151616563
 20
-1.591820567437541
 10
-51.77993642083805
 20
-1.635088774477584
 10
-51.76443453002793
 20
-1.678666366582095
 10
-51.74872700471154
 20
-1.722544689553479
 10
-51.73281500586519
 20
-1.766715089194142
 10
-51.71669969446517
 20
-1.811168911306489
 10
-51.70038223148778
 20
-1.855897501692927
 10
-51.6838637779093
 20
-1.90089220615586
 10
-51.66714549470604
 20
-1.946144370497693
 10
-51.6502285428543
 20
-1.991645340520834
 10
-51.63311408333036
 20
-2.037386462027687
 10
-51.61580327711051
 20
-2.083359080820657
 10
-51.59829728517106
 20
-2.129554542702151
 10
-51.58059726848829
 20
-2.175964193474573
 10
-51.56270438803852
 20
-2.22257937894033
 10
-51.54461980479801
 20
-2.269391444901827
 10
-51.52634467974309
 20
-2.316391737161469
 10
-51.50788017385003
 20
-2.363571601521662
 10
-51.48922744809513
 20
-2.410922383784811
 10
-51.47038766345469
 20
-2.458435429753322
 10
-51.451361980905
 20
-2.506102085229601
 10
-51.43215156142236
 20
-2.553913696016053
 10
-51.41275756598306
 20
-2.601861607915084
 10
-51.39318115556338
 20
-2.649937166729099
 10
-51.37342349113965
 20
-2.698131718260504
 10
-51.35348573368815
 20
-2.746436608311703
 10
-51.33336904418515
 20
-2.794843182685104
 10
-51.31307458360698
 20
-2.843342787183111
 10
-51.29260351292991
 20
-2.89192676760813
 10
-51.27195699313024
 20
-2.940586469762566
 10
-51.25113618518429
 20
-2.989313239448825
 10
-51.23014225006832
 20
-3.038098422469313
 10
-51.20897634875864
 20
-3.086933364626435
 10
-51.18763964223155
 20
-3.135809411722596
 10
-51.16613329146332
 20
-3.184717909560203
 10
-51.14445845743028
 20
-3.23365020394166
 10
-51.12261630110871
 20
-3.282597640669374
 10
-51.1006079834749
 20
-3.331551565545749
 10
-51.07843466550513
 20
-3.380503324373191
 10
-51.05609750817573
 20
-3.429444262954107
 10
-51.03359767246297
 20
-3.4783657270909
 10
-51.01093631934316
 20
-3.527259062585978
 10
-50.98811460979257
 20
-3.576115615241745
 10
-50.96513370478753
 20
-3.624926730860607
 10
-50.9419947653043
 20
-3.67368375524497
 10
-50.91869895231919
 20
-3.722378034197239
 10
-50.8952474268085
 20
-3.771000913519819
 10
-50.87164134974852
 20
-3.819543739015117
 10
-50.84788188211554
 20
-3.867997856485537
 10
-50.82397018488586
 20
-3.916354611733485
 10
-50.79990741903579
 20
-3.964605350561367
 10
-50.77569474554159
 20
-4.012741418771589
 10
-50.75133332537958
 20
-4.060754162166555
 10
-50.72682431952604
 20
-4.108634926548672
 10
-50.70216888895728
 20
-4.156375057720345
 10
-50.67736819464959
 20
-4.20396590148398
 10
-50.65242339757926
 20
-4.251398803641981
 10
-50.62733565872258
 20
-4.298665109996755
 10
-50.60210613905585
 20
-4.345756166350707
 10
-50.57673599955538
 20
-4.392663318506242
 10
-50.55122640119744
 20
-4.439377912265767
 10
-50.52557850495834
 20
-4.485891293431686
 10
-50.49979347181437
 20
-4.532194807806406
 10
-50.47387246274183
 20
-4.578279801192332
 10
-50.44781663871702
 20
-4.624137619391869
 10
-50.44781663871701
 20
-4.624137619391865
 10
-50.38712004218451
 20
-4.730006157191613
 10
-50.32585381622934
 20
-4.836045111040498
 10
-50.264021839974
 20
-4.942242489866083
 10
-50.201627992541
 20
-5.048586302595928
 10
-50.13867615305286
 20
-5.155064558157596
 10
-50.07517020063207
 20
-5.261665265478649
 10
-50.01111401440116
 20
-5.368376433486649
 10
-49.94651147348264
 20
-5.475186071109159
 10
-49.88136645699901
 20
-5.58208218727374
 10
-49.81568284407279
 20
-5.689052790907954
 10
-49.74946451382648
 20
-5.796085890939363
 10
-49.6827153453826
 20
-5.903169496295531
 10
-49.61543921786365
 20
-6.010291615904018
 10
-49.54764001039214
 20
-6.117440258692386
 10
-49.4793216020906
 20
-6.224603433588199
 10
-49.41048787208153
 20
-6.331769149519017
 10
-49.34114269948743
 20
-6.438925415412403
 10
-49.27128996343082
 20
-6.546060240195918
 10
-49.2009335430342
 20
-6.653161632797126
 10
-49.13007731742009
 20
-6.760217602143588
 10
-49.05872516571101
 20
-6.867216157162866
 10
-48.98688096702945
 20
-6.974145306782522
 10
-48.91454860049793
 20
-7.080993059930119
 10
-48.84173194523896
 20
-7.187747425533219
 10
-48.76843488037505
 20
-7.294396412519382
 10
-48.69466128502871
 20
-7.400928029816173
 10
-48.62041503832246
 20
-7.507330286351152
 10
-48.54570001937879
 20
-7.613591191051881
 10
-48.47052010732024
 20
-7.719698752845923
 10
-48.39487918126929
 20
-7.82564098066084
 10
-48.31878112034846
 20
-7.931405883424194
 10
-48.24222980368027
 20
-8.036981470063548
 10
-48.16522911038721
 20
-8.142355749506462
 10
-48.08778291959182
 20
-8.2475167306805
 10
-48.00989511041659
 20
-8.352452422513222
 10
-47.93156956198402
 20
-8.457150833932191
 10
-47.85281015341666
 20
-8.56159997386497
 10
-47.77362076383698
 20
-8.665787851239121
 10
-47.69400527236751
 20
-8.769702474982205
 10
-47.61396755813076
 20
-8.873331854021785
 10
-47.53351150024923
 20
-8.976663997285422
 10
-47.45264097784544
 20
-9.07968691370068
 10
-47.37135987004189
 20
-9.182388612195119
 10
-47.2896720559611
 20
-9.284757101696301
 10
-47.20758141472559
 20
-9.386780391131791
 10
-47.12509182545785
 20
-9.488446489429149
 10
-47.04220716728039
 20
-9.589743405515935
 10
-46.95893131931574
 20
-9.690659148319715
 10
-46.8752681606864
 20
-9.79118172676805
 10
-46.79122157051487
 20
-9.891299149788499
 10
-46.70679542792369
 20
-9.990999426308627
 10
-46.62199361203533
 20
-10.09027056525599
 10
-46.53682000197233
 20
-10.18910057555816
 10
-46.45127847685719
 20
-10.2874774661427
 10
-46.36537291581242
 20
-10.38538924593717
 10
-46.27910719796053
 20
-10.48282392386912
 10
-46.19248520242403
 20
-10.57976950886612
 10
-46.10551080832545
 20
-10.67621400985574
 10
-46.01818789478726
 20
-10.77214543576553
 10
-45.93052034093201
 20
-10.86755179552306
 10
-45.84251202588219
 20
-10.96242109805588
 10
-45.75416682876031
 20
-11.05674135229157
 10
-45.6654886286889
 20
-11.15050056715768
 10
-45.57648130479043
 20
-11.24368675158178
 10
-45.48714873618745
 20
-11.33628791449142
 10
-45.39749480200246
 20
-11.42829206481418
 10
-45.30752338135796
 20
-11.5196872114776
 10
-45.21723835337646
 20
-11.61046136340926
 10
-45.12664359718049
 20
-11.70060252953672
 10
-45.03574299189254
 20
-11.79009871878753
 10
-44.94454041663512
 20
-11.87893794008926
 10
-44.85303975053076
 20
-11.96710820236948
 10
-44.76124487270196
 20
-12.05459751455574
 10
-44.66915966227122
 20
-12.1413938855756
 10
-44.57678799836106
 20
-12.22748532435664
 10
-44.48413376009399
 20
-12.3128598398264
 10
-44.39120082659251
 20
-12.39750544091246
 10
-44.39120082659248
 20
-12.39750544091246
 10
-44.30523427559712
 20
-12.47496432960903
 10
-44.21853763822329
 20
-12.55231612649682
 10
-44.13112569922598
 20
-12.62955040824353
 10
-44.04301324336023
 20
-12.70665675151687
 10
-43.954215055381
 20
-12.78362473298457
 10
-43.86474592004333
 20
-12.86044392931432
 10
-43.7746206221022
 20
-12.93710391717384
 10
-43.68385394631263
 20
-13.01359427323084
 10
-43.59246067742961
 20
-13.08990457415304
 10
-43.50045560020816
 20
-13.16602439660814
 10
-43.40785349940326
 20
-13.24194331726386
 10
-43.31466915976995
 20
-13.31765091278791
 10
-43.2209173660632
 20
-13.39313675984799
 10
-43.12661290303803
 20
-13.46839043511183
 10
-43.03177055544945
 20
-13.54340151524713
 10
-42.93640510805246
 20
-13.61815957692161
 10
-42.84053134560204
 20
-13.69265419680297
 10
-42.74416405285323
 20
-13.76687495155892
 10
-42.64731801456102
 20
-13.84081141785719
 10
-42.55000801548042
 20
-13.91445317236548
 10
-42.45224884036641
 20
-13.98778979175149
 10
-42.35405527397403
 20
-14.06081085268296
 10
-42.25544210105825
 20
-14.13350593182757
 10
-42.1564241063741
 20
-14.20586460585306
 10
-42.05701607467656
 20
-14.27787645142712
 10
-41.95723279072066
 20
-14.34953104521747
 10
-41.8570890392614
 20
-14.42081796389182
 10
-41.75659960505377
 20
-14.49172678411788
 10
-41.65577927285276
 20
-14.56224708256337
 10
-41.55464282741341
 20
-14.632368435896
 10
-41.45320505349071
 20
-14.70208042078347
 10
-41.35148073583967
 20
-14.7713726138935
 10
-41.24948465921528
 20
-14.8402345918938
 10
-41.14723160837256
 20
-14.90865593145208
 10
-41.04473636806649
 20
-14.97662620923606
 10
-40.9420137230521
 20
-15.04413500191344
 10
-40.83907845808439
 20
-15.11117188615194
 10
-40.73594535791834
 20
-15.17772643861926
 10
-40.63262920730898
 20
-15.24378823598313
 10
-40.52914479101132
 20
-15.30934685491124
 10
-40.42550689378034
 20
-15.37439187207132
 10
-40.32173030037105
 20
-15.43891286413107
 10
-40.21782979553846
 20
-15.50289940775822
 10
-40.11382016403758
 20
-15.56634107962045
 10
-40.0097161906234
 20
-15.6292274563855
 10
-39.90553266005095
 20
-15.69154811472106
 10
-39.8012843570752
 20
-15.75329263129486
 10
-39.69698606645117
 20
-15.8144505827746
 10
-39.59265257293387
 20
-15.875011545828
 10
-39.48829866127829
 20
-15.93496509712276
 10
-39.38393911623945
 20
-15.9943008133266
 10
-39.27958872257234
 20
-16.05300827110723
 10
-39.17526226503198
 20
-16.11107704713236
 10
-39.07097452837336
 20
-16.1684967180697
 10
-38.96674029735148
 20
-16.22525686058697
 10
-38.86257435672137
 20
-16.28134705135188
 10
-38.758491491238
 20
-16.33675686703213
 10
-38.65450648565641
 20
-16.39147588429544
 10
-38.55063412473157
 20
-16.44549367980952
 10
-38.44688919321851
 20
-16.49879983024208
 10
-38.34328647587222
 20
-16.55138391226083
 10
-38.23984075744771
 20
-16.60323550253349
 10
-38.13656682269998
 20
-16.65434417772777
 10
-38.03347945638403
 20
-16.70469951451138
 10
-38.03347945638403
 20
-16.70469951451138
 10
-37.91302528548997
 20
-16.76290230260544
 10
-37.79294994899323
 20
-16.82042491712762
 10
-37.67324077055591
 20
-16.87727075557351
 10
-37.55388507384013
 20
-16.93344321543875
 10
-37.43487018250802
 20
-16.98894569421896
 10
-37.31618342022168
 20
-17.04378158940976
 10
-37.19781211064326
 20
-17.09795429850675
 10
-37.07974357743484
 20
-17.15146721900558
 10
-36.96196514425857
 20
-17.20432374840185
 10
-36.84446413477655
 20
-17.25652728419119
 10
-36.7272278726509
 20
-17.30808122386921
 10
-36.61024368154375
 20
-17.35898896493154
 10
-36.49349888511721
 20
-17.4092539048738
 10
-36.37698080703341
 20
-17.4588794411916
 10
-36.26067677095445
 20
-17.50786897138057
 10
-36.14457410054246
 20
-17.55622589293632
 10
-36.02866011945955
 20
-17.60395360335448
 10
-35.91292215136785
 20
-17.65105550013067
 10
-35.79734751992948
 20
-17.69753498076051
 10
-35.68192354880654
 20
-17.74339544273961
 10
-35.56663756166116
 20
-17.7886402835636
 10
-35.45147688215547
 20
-17.8332729007281
 10
-35.33642883395157
 20
-17.87729669172872
 10
-35.22148074071159
 20
-17.92071505406109
 10
-35.10661992609764
 20
-17.96353138522083
 10
-34.99183371377185
 20
-18.00574908270355
 10
-34.87710942739634
 20
-18.04737154400488
 10
-34.76243439063321
 20
-18.08840216662044
 10
-34.64779592714459
 20
-18.12884434804585
 10
-34.53318136059259
 20
-18.16870148577672
 10
-34.41857801463935
 20
-18.20797697730868
 10
-34.30397321294697
 20
-18.24667422013735
 10
-34.18935427917758
 20
-18.28479661175835
 10
-34.07470853699329
 20
-18.3223475496673
 10
-33.96002331005622
 20
-18.35933043135981
 10
-33.84528592202849
 20
-18.39574865433151
 10
-33.73048369657221
 20
-18.43160561607802
 10
-33.61560395734952
 20
-18.46690471409496
 10
-33.50063402802252
 20
-18.50164934587795
 10
-33.38556123225333
 20
-18.5358429089226
 10
-33.27037289370408
 20
-18.56948880072454
 10
-33.15505633603688
 20
-18.60259041877939
 10
-33.03959888291385
 20
-18.63515116058277
 10
-32.92398785799711
 20
-18.6671744236303
 10
-32.80821058494877
 20
-18.6986636054176
 10
-32.69225438743096
 20
-18.72962210344028
 10
-32.57610658910579
 20
-18.76005331519397
 10
-32.45975451363539
 20
-18.7899606381743
 10
-32.34318548468187
 20
-18.81934746987687
 10
-32.22638682590735
 20
-18.84821720779731
 10
-32.10934586097395
 20
-18.87657324943124
 10
-31.99204991354378
 20
-18.90441899227428
 10
-31.87448630727897
 20
-18.93175783382205
 10
-31.75664236584164
 20
-18.95859317157017
 10
-31.6385054128939
 20
-18.98492840301425
 10
-31.52006277209787
 20
-19.01076692564993
 10
-31.40130176711567
 20
-19.03611213697281
 10
-31.28220972160942
 20
-19.06096743447853
 10
-31.16277395924123
 20
-19.0853362156627
 10
-31.04298180367324
 20
-19.10922187802093
 10
-30.92282057856754
 20
-19.13262781904886
 10
-30.80227760758627
 20
-19.15555743624209
 10
-30.68134021439155
 20
-19.17801412709626
 10
-30.55999572264548
 20
-19.20000128910698
 10
-30.43823145601019
 20
-19.22152231976986
 10
-30.3160347381478
 20
-19.24258061658054
 10
-30.19339289272043
 20
-19.26317957703463
 10
-30.07029324339019
 20
-19.28332259862774
 10
-29.94672311381921
 20
-19.30301307885551
 10
-29.82266982766959
 20
-19.32225441521355
 10
-29.69812070860347
 20
-19.34105000519748
 10
-29.57306308028296
 20
-19.35940324630292
 10
-29.44748426637018
 20
-19.3773175360255
 10
-29.32137159052724
 20
-19.39479627186082
 10
-29.19471237641627
 20
-19.41184285130451
 10
-29.06749394769938
 20
-19.42846067185219
 10
-28.93970362803869
 20
-19.44465313099949
 10
-28.81132874109633
 20
-19.46042362624201
 10
-28.81132874109634
 20
-19.46042362624201
 10
-28.75525981930663
 20
-19.46714466087101
 10
-28.69867112359404
 20
-19.47380635148945
 10
-28.64157671499554
 20
-19.4804023760167
 10
-28.58399065454811
 20
-19.48692641237209
 10
-28.52592700328872
 20
-19.49337213847497
 10
-28.46739982225433
 20
-19.49973323224466
 10
-28.40842317248193
 20
-19.50600337160053
 10
-28.34901111500848
 20
-19.51217623446191
 10
-28.28917771087094
 20
-19.51824549874813
 10
-28.2289370211063
 20
-19.52420484237856
 10
-28.16830310675153
 20
-19.53004794327252
 10
-28.10729002884358
 20
-19.53576847934935
 10
-28.04591184841945
 20
-19.54136012852841
 10
-27.98418262651609
 20
-19.54681656872903
 10
-27.92211642417048
 20
-19.55213147787055
 10
-27.85972730241959
 20
-19.55729853387231
 10
-27.79702932230039
 20
-19.56231141465367
 10
-27.73403654484985
 20
-19.56716379813395
 10
-27.67076303110495
 20
-19.57184936223251
 10
-27.60722284210265
 20
-19.57636178486868
 10
-27.54343003887993
 20
-19.5806947439618
 10
-27.47939868247375
 20
-19.58484191743122
 10
-27.41514283392108
 20
-19.58879698319628
 10
-27.35067655425891
 20
-19.59255361917632
 10
-27.2860139045242
 20
-19.59610550329069
 10
-27.22116894575392
 20
-19.59944631345872
 10
-27.15615573898504
 20
-19.60256972759976
 10
-27.09098834525454
 20
-19.60546942363315
 10
-27.02568082559937
 20
-19.60813907947823
 10
-26.96024724105653
 20
-19.61057237305434
 10
-26.89470165266297
 20
-19.61276298228083
 10
-26.82905812145567
 20
-19.61470458507703
 10
-26.7633307084716
 20
-19.6163908593623
 10
-26.69753347474773
 20
-19.61781548305596
 10
-26.63168048132103
 20
-19.61897213407738
 10
-26.56578578922847
 20
-19.61985449034587
 10
-26.49986345950703
 20
-19.62045622978079
 10
-26.43392755319367
 20
-19.62077103030148
 10
-26.36799213132537
 20
-19.62079256982729
 10
-26.30207125493909
 20
-19.62051452627754
 10
-26.23617898507182
 20
-19.6199305775716
 10
-26.17032938276051
 20
-19.61903440162878
 10
-26.10453650904215
 20
-19.61781967636845
 10
-26.03881442495369
 20
-19.61628007970994
 10
-25.97317719153212
 20
-19.61440928957259
 10
-25.9076388698144
 20
-19.61220098387575
 10
-25.84221352083751
 20
-19.60964884053875
 10
-25.77691520563841
 20
-19.60674653748094
 10
-25.71175798525408
 20
-19.60348775262167
 10
-25.64675592072149
 20
-19.59986616388026
 10
-25.58192307307761
 20
-19.59587544917608
 10
-25.51727350335941
 20
-19.59150928642845
 10
-25.45282127260387
 20
-19.58676135355671
 10
-25.38858044184794
 20
-19.58162532848022
 10
-25.32456507212862
 20
-19.57609488911831
 10
-25.26078922448285
 20
-19.57016371339033
 10
-25.19726695994763
 20
-19.56382547921561
 10
-25.13401233955991
 20
-19.5570738645135
 10
-25.07103942435666
 20
-19.54990254720335
 10
-25.00836227537487
 20
-19.54230520520448
 10
-24.94599495365151
 20
-19.53427551643626
 10
-24.88395152022353
 20
-19.525807158818
 10
-24.82224603612792
 20
-19.51689381026907
 10
-24.76089256240164
 20
-19.5075291487088
 10
-24.69990516008167
 20
-19.49770685205653
 10
-24.63929789020497
 20
-19.4874205982316
 10
-24.57908481380853
 20
-19.47666406515336
 10
-24.5192799919293
 20
-19.46543093074115
 10
-24.45989748560426
 20
-19.45371487291432
 10
-24.40095135587039
 20
-19.44150956959219
 10
-24.34245566376465
 20
-19.42880869869412
 10
-24.28442447032401
 20
-19.41560593813944
 10
-24.22687183658545
 20
-19.40189496584751
 10
-24.16981182358593
 20
-19.38766945973765
 10
-24.11325849236244
 20
-19.37292309772922
 10
-24.05722590395193
 20
-19.35764955774155
 10
-24.00172811939138
 20
-19.34184251769399
 10
-23.94677919971775
 20
-19.32549565550588
 10
-23.89239320596804
 20
-19.30860264909656
 10
-23.89239320596804
 20
-19.30860264909657
 10
-23.86991294969119
 20
-19.301522812308
 10
-23.8471383979277
 20
-19.29446045355563
 10
-23.82407999081785
 20
-19.28742287218966
 10
-23.80074816850193
 20
-19.28041736756033
 10
-23.77715337112024
 20
-19.27345123901783
 10
-23.75330603881307
 20
-19.2665317859124
 10
-23.72921661172071
 20
-19.25966630759425
 10
-23.70489552998344
 20
-19.25286210341359
 10
-23.68035323374158
 20
-19.24612647272065
 10
-23.65560016313541
 20
-19.23946671486563
 10
-23.63064675830522
 20
-19.23289012919877
 10
-23.6055034593913
 20
-19.22640401507028
 10
-23.58018070653394
 20
-19.22001567183037
 10
-23.55468893987344
 20
-19.21373239882926
 10
-23.52903859955009
 20
-19.20756149541717
 10
-23.50324012570418
 20
-19.20151026094432
 10
-23.47730395847601
 20
-19.19558599476092
 10
-23.45124053800586
 20
-19.1897959962172
 10
-23.42506030443403
 20
-19.18414756466336
 10
-23.39877369790081
 20
-19.17864799944963
 10
-23.37239115854649
 20
-19.17330459992623
 10
-23.34592312651137
 20
-19.16812466544337
 10
-23.31938004193573
 20
-19.16311549535127
 10
-23.29277234495988
 20
-19.15828438900014
 10
-23.26611047572409
 20
-19.15363864574021
 10
-23.23940487436867
 20
-19.14918556492169
 10
-23.21266598103391
 20
-19.14493244589481
 10
-23.18590423586009
 20
-19.14088658800977
 10
-23.15913007898752
 20
-19.1370552906168
 10
-23.13235395055648
 20
-19.13344585306611
 10
-23.10558629070726
 20
-19.13006557470792
 10
-23.07883753958016
 20
-19.12692175489245
 10
-23.05211813731547
 20
-19.1240216929699
 10
-23.02543852405349
 20
-19.12137268829052
 10
-22.99880913993449
 20
-19.11898204020451
 10
-22.97224042509879
 20
-19.11685704806208
 10
-22.94574281968666
 20
-19.11500501121346
 10
-22.91932676383841
 20
-19.11343322900886
 10
-22.89300269769432
 20
-19.11214900079851
 10
-22.86678106139468
 20
-19.11115962593261
 10
-22.84067229507979
 20
-19.11047240376139
 10
-22.81468683888993
 20
-19.11009463363505
 10
-22.78883513296542
 20
-19.11003361490384
 10
-22.76312761744653
 20
-19.11029664691795
 10
-22.73757473247355
 20
-19.1108910290276
 10
-22.71218691818678
 20
-19.11182406058302
 10
-22.68697461472652
 20
-19.11310304093442
 10
-22.66194826223304
 20
-19.11473526943202
 10
-22.63711830084666
 20
-19.11672804542603
 10
-22.61249517070765
 20
-19.11908866826668
 10
-22.58808931195631
 20
-19.12182443730418
 10
-22.56391116473293
 20
-19.12494265188875
 10
-22.53997116917782
 20
-19.1284506113706
 10
-22.51627976543124
 20
-19.13235561509996
 10
-22.4928473936335
 20
-19.13666496242704
 10
-22.4696844939249
 20
-19.14138595270206
 10
-22.44680150644573
 20
-19.14652588527524
 10
-22.42420887133626
 20
-19.15209205949679
 10
-22.40191702873681
 20
-19.15809177471693
 10
-22.37993641878766
 20
-19.16453233028588
 10
-22.35827748162909
 20
-19.17142102555385
 10
-22.33695065740142
 20
-19.17876515987108
 10
-22.31596638624492
 20
-19.18657203258776
 10
-22.29533510829989
 20
-19.19484894305412
 10
-22.27506726370662
 20
-19.20360319062037
 10
-22.25517329260541
 20
-19.21284207463675
 10
-22.23566363513654
 20
-19.22257289445346
 10
-22.21654873144031
 20
-19.23280294942071
 10
-22.19783902165701
 20
-19.24353953888873
 10
-22.17954494592694
 20
-19.25478996220774
 10
-22.16167694439038
 20
-19.26656151872794
 10
-22.14424545718763
 20
-19.27886150779957
 10
-22.12726092445898
 20
-19.29169722877284
 10
-22.11073378634472
 20
-19.30507598099796
 10
-22.09467448298514
 20
-19.31900506382515
 10
-22.07909345452054
 20
-19.33349177660463
 10
-22.06400114109121
 20
-19.34854341868662
 10
-22.04940798283744
 20
-19.36416728942134
 10
-22.03532441989952
 20
-19.38037068815899
 10
-22.03532441989951
 20
-19.380370688159
 10
-22.01205820560582
 20
-19.40778849946619
 10
-21.98886509410465
 20
-19.43444476979431
 10
-21.96574181314044
 20
-19.46035852413855
 10
-21.94268509045764
 20
-19.48554878749409
 10
-21.91969165380068
 20
-19.51003458485613
 10
-21.89675823091399
 20
-19.53383494121984
 10
-21.87388154954202
 20
-19.55696888158042
 10
-21.8510583374292
 20
-19.57945543093305
 10
-21.82828532231996
 20
-19.60131361427292
 10
-21.80555923195877
 20
-19.62256245659521
 10
-21.78287679409003
 20
-19.64322098289512
 10
-21.7602347364582
 20
-19.66330821816784
 10
-21.73762978680771
 20
-19.68284318740854
 10
-21.71505867288301
 20
-19.70184491561242
 10
-21.69251812242852
 20
-19.72033242777466
 10
-21.67000486318869
 20
-19.73832474889046
 10
-21.64751562290795
 20
-19.75584090395499
 10
-21.62504712933075
 20
-19.77289991796345
 10
-21.60259611020151
 20
-19.78952081591102
 10
-21.58015929326468
 20
-19.80572262279289
 10
-21.5577334062647
 20
-19.82152436360425
 10
-21.53531517694601
 20
-19.83694506334028
 10
-21.51290133305304
 20
-19.85200374699618
 10
-21.49048860233022
 20
-19.86671943956712
 10
-21.468073712522
 20
-19.8811111660483
 10
-21.44565339137282
 20
-19.8951979514349
 10
-21.42322436662711
 20
-19.90899882072211
 10
-21.40078336602932
 20
-19.92253279890512
 10
-21.37832711732387
 20
-19.93581891097912
 10
-21.35585234825521
 20
-19.94887618193929
 10
-21.33335578656778
 20
-19.96172363678081
 10
-21.31083416000601
 20
-19.97438030049888
 10
-21.28828419631434
 20
-19.98686519808869
 10
-21.26570262323721
 20
-19.99919735454542
 10
-21.24308616851906
 20
-20.01139579486426
 10
-21.22043155990433
 20
-20.02347954404039
 10
-21.19773552513744
 20
-20.03546762706901
 10
-21.17499479196285
 20
-20.04737906894529
 10
-21.15220608812499
 20
-20.05923289466444
 10
-21.1293661413683
 20
-20.07104812922162
 10
-21.10647167943721
 20
-20.08284379761204
 10
-21.08351943007616
 20
-20.09463892483088
 10
-21.0605061210296
 20
-20.10645253587333
 10
-21.03742848004195
 20
-20.11830365573457
 10
-21.01428323485766
 20
-20.13021130940979
 10
-20.99106711322116
 20
-20.14219452189417
 10
-20.96777684287689
 20
-20.15427231818291
 10
-20.9444091515693
 20
-20.1664637232712
 10
-20.92096076704282
 20
-20.17878776215422
 10
-20.89742841704188
 20
-20.19126345982715
 10
-20.87380882931093
 20
-20.20390984128519
 10
-20.8500987315944
 20
-20.21674593152351
 10
-20.82629485163673
 20
-20.22979075553732
 10
-20.80239391718235
 20
-20.24306333832179
 10
-20.77839265597572
 20
-20.25658270487212
 10
-20.75428779576126
 20
-20.27036788018349
 10
-20.73007606428341
 20
-20.28443788925108
 10
-20.73007606428339
 20
-20.28443788925108
 10
-20.70375243207147
 20
-20.29940817516824
 10
-20.67713607409272
 20
-20.31365262469297
 10
-20.65023607583357
 20
-20.32718186529042
 10
-20.62306152278046
 20
-20.34000652442573
 10
-20.59562150041982
 20
-20.35213722956405
 10
-20.56792509423811
 20
-20.36358460817051
 10
-20.53998138972174
 20
-20.37435928771027
 10
-20.51179947235715
 20
-20.38447189564847
 10
-20.48338842763079
 20
-20.39393305945024
 10
-20.45475734102909
 20
-20.40275340658074
 10
-20.42591529803848
 20
-20.41094356450511
 10
-20.3968713841454
 20
-20.4185141606885
 10
-20.36763468483628
 20
-20.42547582259604
 10
-20.33821428559758
 20
-20.43183917769288
 10
-20.3086192719157
 20
-20.43761485344418
 10
-20.27885872927711
 20
-20.44281347731506
 10
-20.24894174316822
 20
-20.44744567677067
 10
-20.21887739907548
 20
-20.45152207927616
 10
-20.18867478248532
 20
-20.45505331229668
 10
-20.15834297888419
 20
-20.45805000329736
 10
-20.12789107375851
 20
-20.46052277974336
 10
-20.09732815259472
 20
-20.46248226909981
 10
-20.06666330087927
 20
-20.46393909883186
 10
-20.03590560409858
 20
-20.46490389640466
 10
-20.00506414773908
 20
-20.46538728928334
 10
-19.97414801728722
 20
-20.46539990493305
 10
-19.94316629822944
 20
-20.46495237081894
 10
-19.91212807605216
 20
-20.46405531440615
 10
-19.88104243624183
 20
-20.46271936315982
 10
-19.84991846428489
 20
-20.46095514454511
 10
-19.81876524566776
 20
-20.45877328602714
 10
-19.78759186587689
 20
-20.45618441507108
 10
-19.7564074103987
 20
-20.45319915914205
 10
-19.72522096471964
 20
-20.44982814570522
 10
-19.69404161432614
 20
-20.44608200222571
 10
-19.66287844470465
 20
-20.44197135616867
 10
-19.63174054134158
 20
-20.43750683499926
 10
-19.60063698972339
 20
-20.4326990661826
 10
-19.56957687533651
 20
-20.42755867718385
 10
-19.53856928366737
 20
-20.42209629546816
 10
-19.50762330020241
 20
-20.41632254850065
 10
-19.47674801042806
 20
-20.41024806374649
 10
-19.44595249983077
 20
-20.40388346867081
 10
-19.41524585389696
 20
-20.39723939073876
 10
-19.38463715811309
 20
-20.39032645741547
 10
-19.35413549796556
 20
-20.38315529616611
 10
-19.32374995894084
 20
-20.3757365344558
 10
-19.29348962652535
 20
-20.3680807997497
 10
-19.26336358620553
 20
-20.36019871951295
 10
-19.23338092346781
 20
-20.35210092121069
 10
-19.20355072379864
 20
-20.34379803230806
 10
-19.17388207268444
 20
-20.33530068027022
 10
-19.14438405561166
 20
-20.3266194925623
 10
-19.11506575806672
 20
-20.31776509664945
 10
-19.08593626553608
 20
-20.30874811999682
 10
-19.05700466350615
 20
-20.29957919006954
 10
-19.02828003746339
 20
-20.29026893433276
 10
-18.99977147289422
 20
-20.28082798025163
 10
-18.97148805528508
 20
-20.27126695529129
 10
-18.9434388701224
 20
-20.26159648691688
 10
-18.91563300289264
 20
-20.25182720259355
 10
-18.8880795390822
 20
-20.24196972978645
 10
-18.86078756417755
 20
-20.23203469596071
 10
-18.83376616366511
 20
-20.22203272858148
 10
-18.80702442303131
 20
-20.21197445511391
 10
-18.80702442303132
 20
-20.21197445511391
 10
-18.72752267220995
 20
-20.18182983679345
 10
-18.6480704665908
 20
-20.15167312733439
 10
-18.56867571316195
 20
-20.1214842742646
 10
-18.4893463189115
 20
-20.09124322511194
 10
-18.41009019082752
 20
-20.06092992740427
 10
-18.33091523589813
 20
-20.03052432866944
 10
-18.2518293611114
 20
-20.00000637643533
 10
-18.17284047345543
 20
-19.96935601822979
 10
-18.09395647991831
 20
-19.93855320158068
 10
-18.01518528748813
 20
-19.90757787401586
 10
-17.93653480315299
 20
-19.87640998306319
 10
-17.85801293390096
 20
-19.84502947625054
 10
-17.77962758672016
 20
-19.81341630110575
 10
-17.70138666859866
 20
-19.78155040515671
 10
-17.62329808652456
 20
-19.74941173593126
 10
-17.54536974748595
 20
-19.71698024095726
 10
-17.46760955847092
 20
-19.68423586776259
 10
-17.39002542646756
 20
-19.65115856387508
 10
-17.31262525846397
 20
-19.61772827682262
 10
-17.23541696144823
 20
-19.58392495413306
 10
-17.15840844240844
 20
-19.54972854333425
 10
-17.08160760833269
 20
-19.51511899195406
 10
-17.00502236620906
 20
-19.48007624752036
 10
-16.92866062302566
 20
-19.44458025756099
 10
-16.85253028577057
 20
-19.40861096960383
 10
-16.77663926143188
 20
-19.37214833117673
 10
-16.70099545699769
 20
-19.33517228980755
 10
-16.62560677945608
 20
-19.29766279302416
 10
-16.55048113579515
 20
-19.25959978835441
 10
-16.475626433003
 20
-19.22096322332616
 10
-16.4010505780677
 20
-19.18173304546728
 10
-16.32676147797735
 20
-19.14188920230563
 10
-16.25276703972004
 20
-19.10141164136906
 10
-16.17907517028387
 20
-19.06028031018545
 10
-16.10569377665693
 20
-19.01847515628263
 10
-16.0326307658273
 20
-18.97597612718849
 10
-16.0326307658273
 20
-18.97597612718848
 10
-15.95766991939775
 20
-18.93188019490852
 10
-15.88270234074846
 20
-18.88770387103412
 10
-15.80773878411766
 20
-18.84343654770144
 10
-15.73279000374355
 20
-18.79906761704662
 10
-15.65786675386438
 20
-18.75458647120581
 10
-15.58297978871834
 20
-18.70998250231516
 10
-15.50813986254366
 20
-18.66524510251081
 10
-15.43335772957856
 20
-18.6203636639289
 10
-15.35864414406126
 20
-18.5753275787056
 10
-15.28400986022997
 20
-18.53012623897704
 10
-15.20946563232292
 20
-18.48474903687936
 10
-15.13502221457832
 20
-18.43918536454873
 10
-15.0606903612344
 20
-18.39342461412127
 10
-14.98648082652936
 20
-18.34745617773315
 10
-14.91240436470144
 20
-18.3012694475205
 10
-14.83847172998884
 20
-18.25485381561948
 10
-14.76469367662979
 20
-18.20819867416622
 10
-14.69108095886251
 20
-18.16129341529689
 10
-14.61764433092521
 20
-18.11412743114762
 10
-14.54439454705611
 20
-18.06669011385456
 10
-14.47134236149344
 20
-18.01897085555386
 10
-14.3984985284754
 20
-17.97095904838166
 10
-14.32587380224023
 20
-17.92264408447412
 10
-14.25347893702613
 20
-17.87401535596737
 10
-14.18132468707133
 20
-17.82506225499757
 10
-14.10942180661405
 20
-17.77577417370086
 10
-14.0377810498925
 20
-17.72614050421339
 10
-13.96641317114491
 20
-17.67615063867131
 10
-13.89532892460948
 20
-17.62579396921076
 10
-13.82453906452445
 20
-17.57505988796788
 10
-13.75405434512803
 20
-17.52393778707884
 10
-13.68388552065843
 20
-17.47241705867977
 10
-13.61404334535388
 20
-17.42048709490681
 10
-13.5445385734526
 20
-17.36813728789613
 10
-13.4753819591928
 20
-17.31535702978385
 10
-13.4065842568127
 20
-17.26213571270615
 10
-13.33815622055053
 20
-17.20846272879914
 10
-13.27010860464449
 20
-17.15432747019899
 10
-13.20245216333282
 20
-17.09971932904184
 10
-13.13519765085372
 20
-17.04462769746384
 10
-13.06835582144542
 20
-16.98904196760113
 10
-13.00193742934613
 20
-16.93295153158987
 10
-12.93595322879408
 20
-16.87634578156619
 10
-12.87041397402749
 20
-16.81921410966625
 10
-12.80533041928456
 20
-16.76154590802619
 10
-12.74071331880352
 20
-16.70333056878216
 10
-12.67657342682259
 20
-16.6445574840703
 10
-12.61292149758
 20
-16.58521604602677
 10
-12.54976828531394
 20
-16.5252956467877
 10
-12.48712454426265
 20
-16.46478567848926
 10
-12.48712454426265
 20
-16.46478567848926
 10
-12.40861758507192
 20
-16.38814902911404
 10
-12.33019912041448
 20
-16.31135233864823
 10
-12.25188624780674
 20
-16.23438597056977
 10
-12.17369606476509
 20
-16.15724028835664
 10
-12.09564566880595
 20
-16.07990565548679
 10
-12.01775215744571
 20
-16.00237243543817
 10
-11.94003262820078
 20
-15.92463099168876
 10
-11.86250417858755
 20
-15.84667168771649
 10
-11.78518390612244
 20
-15.76848488699934
 10
-11.70808890832184
 20
-15.69006095301526
 10
-11.63123628270216
 20
-15.61139024924221
 10
-11.5546431267798
 20
-15.53246313915815
 10
-11.47832653807115
 20
-15.45326998624103
 10
-11.40230361409264
 20
-15.37380115396883
 10
-11.32659145236064
 20
-15.29404700581948
 10
-11.25120715039158
 20
-15.21399790527096
 10
-11.17616780570184
 20
-15.13364421580122
 10
-11.10149051580784
 20
-15.05297630088823
 10
-11.02719237822598
 20
-14.97198452400993
 10
-10.95329049047265
 20
-14.89065924864428
 10
-10.87980195006426
 20
-14.80899083826925
 10
-10.80674385451722
 20
-14.7269696563628
 10
-10.73413330134793
 20
-14.64458606640288
 10
-10.66198738807278
 20
-14.56183043186746
 10
-10.59032321220818
 20
-14.47869311623448
 10
-10.51915787127054
 20
-14.39516448298191
 10
-10.44850846277625
 20
-14.31123489558771
 10
-10.37839208424171
 20
-14.22689471752983
 10
-10.30882583318334
 20
-14.14213431228624
 10
-10.23982680711753
 20
-14.05694404333489
 10
-10.17141210356069
 20
-13.97131427415375
 10
-10.10359882002922
 20
-13.88523536822076
 10
-10.10359882002921
 20
-13.88523536822076
 10
-10.03156944045132
 20
-13.79285424541804
 10
-9.959792719338823
 20
-13.70020281287247
 10
-9.888277786053741
 20
-13.60728015821105
 10
-9.817033769958101
 20
-13.5140853690608
 10
-9.746069800413923
 20
-13.42061753304871
 10
-9.675395006783231
 20
-13.3268757378018
 10
-9.60501851842805
 20
-13.23285907094708
 10
-9.5349494647104
 20
-13.13856662011154
 10
-9.465196974992307
 20
-13.04399747292221
 10
-9.395770178635793
 20
-12.94915071700609
 10
-9.326678205002879
 20
-12.85402543999018
 10
-9.257930183455592
 20
-12.75862072950149
 10
-9.189535243355951
 20
-12.66293567316703
 10
-9.121502514065982
 20
-12.56696935861381
 10
-9.053841124947707
 20
-12.47072087346883
 10
-8.986560205363149
 20
-12.37418930535911
 10
-8.919668884674331
 20
-12.27737374191165
 10
-8.853176292243276
 20
-12.18027327075345
 10
-8.787091557432008
 20
-12.08288697951153
 10
-8.72142380960255
 20
-11.98521395581289
 10
-8.656182178116923
 20
-11.88725328728454
 10
-8.591375792337153
 20
-11.78900406155349
 10
-8.52701378162526
 20
-11.69046536624674
 10
-8.46310527534327
 20
-11.59163628899131
 10
-8.399659402853204
 20
-11.49251591741419
 10
-8.336685293517087
 20
-11.39310333914241
 10
-8.274192076696941
 20
-11.29339764180296
 10
-8.212188881754789
 20
-11.19339791302285
 10
-8.150684838052654
 20
-11.0931032404291
 10
-8.089689074952559
 20
-10.9925127116487
 10
-8.029210721816527
 20
-10.89162541430867
 10
-7.969258908006581
 20
-10.79044043603601
 10
-7.909842762884745
 20
-10.68895686445773
 10
-7.850971415813043
 20
-10.58717378720083
 10
-7.792653996153495
 20
-10.48509029189234
 10
-7.734899633268126
 20
-10.38270546615925
 10
-7.677717456518958
 20
-10.28001839762857
 10
-7.621116595268016
 20
-10.1770281739273
 10
-7.565106178877322
 20
-10.07373388268246
 10
-7.509695336708899
 20
-9.970134611521062
 10
-7.45489319812477
 20
-9.8662294480701
 10
-7.400708892486957
 20
-9.762017479956586
 10
-7.347151549157485
 20
-9.657497794807527
 10
-7.294230297498377
 20
-9.552669480249932
 10
-7.241954266871655
 20
-9.447531623910808
 10
-7.190332586639343
 20
-9.342083313417163
 10
-7.139374386163463
 20
-9.236323636396004
 10
-7.089088794806039
 20
-9.130251680474339
 10
-7.039484941929093
 20
-9.023866533279175
 10
-6.990571956894649
 20
-8.917167282437519
 10
-6.94235896906473
 20
-8.81015301557638
 10
-6.942358969064729
 20
-8.81015301557638
 10
-6.899307787365838
 20
-8.713322666894372
 10
-6.856757008766042
 20
-8.616749435898226
 10
-6.814707300514262
 20
-8.52041907222401
 10
-6.773159329859421
 20
-8.424317325507788
 10
-6.732113764050438
 20
-8.328429945385623
 10
-6.691571270336237
 20
-8.232742681493585
 10
-6.651532515965739
 20
-8.137241283467737
 10
-6.611998168187864
 20
-8.041911500944145
 10
-6.572968894251535
 20
-7.946739083558874
 10
-6.534445361405674
 20
-7.851709780947989
 10
-6.496428236899201
 20
-7.756809342747557
 10
-6.458918187981039
 20
-7.662023518593641
 10
-6.421915881900108
 20
-7.567338058122309
 10
-6.385421985905331
 20
-7.472738710969625
 10
-6.349437167245629
 20
-7.378211226771655
 10
-6.313962093169924
 20
-7.283741355164464
 10
-6.278997430927137
 20
-7.189314845784117
 10
-6.244543847766188
 20
-7.094917448266681
 10
-6.210602010936002
 20
-7.00053491224822
 10
-6.177172587685498
 20
-6.9061529873648
 10
-6.144256245263598
 20
-6.811757423252486
 10
-6.111853650919224
 20
-6.717333969547344
 10
-6.079965471901298
 20
-6.622868375885439
 10
-6.04859237545874
 20
-6.528346391902837
 10
-6.017735028840473
 20
-6.433753767235602
 10
-5.987394099295418
 20
-6.339076251519801
 10
-5.957570254072496
 20
-6.244299594391499
 10
-5.92826416042063
 20
-6.149409545486761
 10
-5.899476485588739
 20
-6.054391854441654
 10
-5.871207896825747
 20
-5.959232270892241
 10
-5.843459061380575
 20
-5.863916544474588
 10
-5.816230646502144
 20
-5.768430424824762
 10
-5.789523319439376
 20
-5.672759661578827
 10
-5.763337747441192
 20
-5.576890004372849
 10
-5.737674597756514
 20
-5.480807202842894
 10
-5.712534537634263
 20
-5.384497006625026
 10
-5.687918234323362
 20
-5.287945165355312
 10
-5.663826355072731
 20
-5.191137428669816
 10
-5.640259567131292
 20
-5.094059546204604
 10
-5.617218537747967
 20
-4.996697267595742
 10
-5.594703934171676
 20
-4.899036342479294
 10
-5.572716423651343
 20
-4.801062520491327
 10
-5.551256673435887
 20
-4.702761551267905
 10
-5.530325350774232
 20
-4.604119184445095
 10
-5.509923122915298
 20
-4.505121169658961
 10
-5.490050657108006
 20
-4.405753256545569
 10
-5.470708620601278
 20
-4.306001194740985
 10
-5.451897680644037
 20
-4.205850733881273
 10
-5.433618504485203
 20
-4.1052876236025
 10
-5.415871759373699
 20
-4.004297613540731
 10
-5.398658112558444
 20
-3.902866453332031
 10
-5.381978231288361
 20
-3.800979892612465
 10
-5.365832782812373
 20
-3.698623681018101
 10
-5.350222434379399
 20
-3.595783568185001
 10
-5.335147853238362
 20
-3.492445303749232
 10
-5.320609706638184
 20
-3.38859463734686
 10
-5.306608661827786
 20
-3.284217318613949
 10
-5.293145386056089
 20
-3.179299097186565
 10
-5.280220546572015
 20
-3.073825722700775
210
0.0
220
0.0
230
-1.0
  0
LWPOLYLINE
  5
24B
330
1F
100
AcDbEntity
  8
Vector Layer 1
 62
    18
420
        0
370
    30
100
AcDbPolyline
 90
       56
 70
     0
 43
0.0
 10
-22.00906374097113
 20
17.91978781942029
 10
-22.0223952758903
 20
17.29133216254247
 10
-22.03608873345137
 20
16.66288218004847
 10
-22.05010792139014
 20
16.0344373044999
 10
-22.06441664744243
 20
15.40599696845839
 10
-22.07897871934404
 20
14.77756060448555
 10
-22.09375794483079
 20
14.149127645143
 10
-22.1087181316385
 20
13.52069752299236
 10
-22.12382308750295
 20
12.89226967059524
 10
-22.13903662015998
 20
12.26384352051327
 10
-22.15432253734539
 20
11.63541850530806
 10
-22.16964464679498
 20
11.00699405754124
 10
-22.18496675624457
 20
10.37856960977441
 10
-22.20025267342998
 20
9.750144594569206
 10
-22.215466206087
 20
9.121718444487235
 10
-22.23057116195146
 20
8.493290592090119
 10
-22.24553134875916
 20
7.864860469939476
 10
-22.26031057424592
 20
7.236427510596925
 10
-22.27487264614753
 20
6.607991146624084
 10
-22.28918137219982
 20
5.979550810582571
 10
-22.30320056013859
 20
5.351105935034005
 10
-22.31689401769965
 20
4.722655952540003
 10
-22.33022555261883
 20
4.094200295662185
 10
-22.34315897263192
 20
3.465738396962168
 10
-22.35565808547473
 20
2.837269689001571
 10
-22.36768669888308
 20
2.208793604342012
 10
-22.37920862059278
 20
1.58030957554511
 10
-22.39018765833963
 20
0.9518170351724835
 10
-22.40058761985945
 20
0.3233154157857495
 10
-22.41037231288805
 20
-0.3051958500534732
 10
-22.41950554516124
 20
-0.933717329783566
 10
-22.42795112441483
 20
-1.56224959084291
 10
-22.43567285838463
 20
-2.190793200669888
 10
-22.44263455480645
 20
-2.819348726702882
 10
-22.44263455480645
 20
-2.81934872670288
 10
-22.44573825985076
 20
-3.150215485550153
 10
-22.44817141133612
 20
-3.481085748554327
 10
-22.44999148528186
 20
-3.811959215359097
 10
-22.45125595770732
 20
-4.142835585608158
 10
-22.45202230463184
 20
-4.473714558945203
 10
-22.45234800207477
 20
-4.804595835013926
 10
-22.45229052605543
 20
-5.135479113458021
 10
-22.45190735259317
 20
-5.466364093921184
 10
-22.45125595770732
 20
-5.797250476047106
 10
-22.45039381741724
 20
-6.128137959479484
 10
-22.44937840774225
 20
-6.45902624386201
 10
-22.44826720470169
 20
-6.78991502883838
 10
-22.44711768431491
 20
-7.120804014052287
 10
-22.44598732260124
 20
-7.451692899147425
 10
-22.44493359558002
 20
-7.782581383767489
 10
-22.4440139792706
 20
-8.113469167556171
 10
-22.4432859496923
 20
-8.444355950157168
 10
-22.44280698286448
 20
-8.775241431214173
 10
-22.44263455480646
 20
-9.106125310370879
 10
-22.44263455480645
 20
-9.106125310370881
 10
-22.29811095019469
 20
-18.13885028690536
210
0.0
220
0.0
230
-1.0
  0
LWPOLYLINE
  5
24C
330
1F
100
AcDbEntity
  8
Vector Layer 1
 62
    18
420
        0
370
    30
100
AcDbPolyline
 90
        4
 70
     0
 43
0.0
 10
5.372088990433226
 20
2.70586343178558
 10
5.299576745121016
 20
-0.3060009749192765
 10
5.299576745121016
 20
-0.3060009749192767
 10
5.280220546572013
 20
-3.073825722700772
  0
LWPOLYLINE
  5
24D
330
1F
100
AcDbEntity
  8
Vector Layer 1
 62
    18
420
        0
370
    30
100
AcDbPolyline
 90
      220
 70
     0
 43
0.0
 10
20.54548408963812
 20
17.45205533937984
 10
20.425566155267
 20
17.35562397557923
 10
20.30541278110229
 20
17.25947016026849
 10
20.18504358712677
 20
17.16357076440679
 10
20.06447819332326
 20
17.06790265895332
 10
19.94373621967454
 20
16.97244271486724
 10
19.82283728616343
 20
16.87716780310775
 10
19.70180101277272
 20
16.78205479463402
 10
19.58064701948521
 20
16.68708056040521
 10
19.4593949262837
 20
16.59222197138052
 10
19.33806435315099
 20
16.49745589851912
 10
19.21667492006988
 20
16.40275921278019
 10
19.09524624702317
 20
16.3081087851229
 10
18.97379795399366
 20
16.21348148650643
 10
18.85234966096416
 20
16.11885418788997
 10
18.73092098791745
 20
16.02420376023268
 10
18.60953155483634
 20
15.92950707449374
 10
18.48820098170363
 20
15.83474100163234
 10
18.36694888850212
 20
15.73988241260765
 10
18.24579489521461
 20
15.64490817837885
 10
18.1247586218239
 20
15.54979516990511
 10
18.00385968831279
 20
15.45452025814562
 10
17.88311771466408
 20
15.35906031405955
 10
17.76255232086056
 20
15.26339220860608
 10
17.64218312688505
 20
15.16749281274438
 10
17.52202975272033
 20
15.07133899743364
 10
17.40211181834921
 20
14.97490763363303
 10
17.28244894375449
 20
14.87817559230172
 10
17.16306074891897
 20
14.78111974439891
 10
17.04396685382545
 20
14.68371696088376
 10
16.92518687845673
 20
14.58594411271545
 10
16.8067404427956
 20
14.48777807085316
 10
16.68864716682487
 20
14.38919570625607
 10
16.57092667052734
 20
14.29017388988336
 10
16.45359857388581
 20
14.19068949269419
 10
16.33668249688308
 20
14.09071938564776
 10
16.22019805950194
 20
13.99024043970324
 10
16.1041648817252
 20
13.8892295258198
 10
15.98860258353566
 20
13.78766351495663
 10
15.87353078491612
 20
13.6855192780729
 10
15.87353078491611
 20
13.6855192780729
 10
15.79907649941267
 20
13.61921551457611
 10
15.7244654818629
 20
13.55300715677505
 10
15.64970824581122
 20
13.48688602560994
 10
15.57481530480204
 20
13.42084394202103
 10
15.49979717237978
 20
13.35487272694857
 10
15.42466436208884
 20
13.2889642013328
 10
15.34942738747365
 20
13.22311018611395
 10
15.27409676207861
 20
13.15730250223229
 10
15.19868299944815
 20
13.09153297062804
 10
15.12319661312668
 20
13.02579341224145
 10
15.0476481166586
 20
12.96007564801277
 10
14.97204802358834
 20
12.89437149888224
 10
14.89640684746031
 20
12.8286727857901
 10
14.82073510181892
 20
12.76297132967659
 10
14.74504330020859
 20
12.69725895148197
 10
14.66934195617373
 20
12.63152747214647
 10
14.59364158325876
 20
12.56576871261033
 10
14.51795269500809
 20
12.4999744938138
 10
14.44228580496613
 20
12.43413663669713
 10
14.3666514266773
 20
12.36824696220055
 10
14.29106007368601
 20
12.30229729126431
 10
14.21552225953668
 20
12.23627944482865
 10
14.14004849777372
 20
12.17018524383382
 10
14.06464930194155
 20
12.10400650922006
 10
13.98933518558458
 20
12.03773506192762
 10
13.91411666224722
 20
11.97136272289673
 10
13.83900424547389
 20
11.90488131306764
 10
13.764008448809
 20
11.83828265338059
 10
13.68913978579697
 20
11.77155856477583
 10
13.61440876998221
 20
11.7047008681936
 10
13.53982591490913
 20
11.63770138457415
 10
13.46540173412216
 20
11.57055193485771
 10
13.3911467411657
 20
11.50324433998453
 10
13.31707144958416
 20
11.43577042089486
 10
13.24318637292197
 20
11.36812199852894
 10
13.16950202472354
 20
11.300290893827
 10
13.09602891853328
 20
11.2322689277293
 10
13.0227775678956
 20
11.16404792117608
 10
12.94975848635492
 20
11.09561969510758
 10
12.87698218745565
 20
11.02697607046404
 10
12.80445918474222
 20
10.95810886818572
 10
12.73219999175902
 20
10.88900990921284
 10
12.66021512205048
 20
10.81967101448566
 10
12.58851508916101
 20
10.75008400494442
 10
12.51711040663503
 20
10.68024070152935
 10
12.44601158801694
 20
10.61013292518072
 10
12.37522914685117
 20
10.53975249683875
 10
12.30477359668213
 20
10.4690912374437
 10
12.23465545105423
 20
10.3981409679358
 10
12.16488522351188
 20
10.32689350925529
 10
12.09547342759951
 20
10.25534068234244
 10
12.02643057686152
 20
10.18347430813746
 10
11.95776718484232
 20
10.11128620758062
 10
11.88949376508634
 20
10.03876820161215
 10
11.82162083113799
 20
9.965912111172297
 10
11.75415889654168
 20
9.892709757201302
 10
11.68711847484183
 20
9.81915296063941
 10
11.62051007958284
 20
9.745233542426865
 10
11.55434422430914
 20
9.670943323503909
 10
11.48863142256514
 20
9.596274124810785
 10
11.42338218789525
 20
9.521217767287737
 10
11.35860703384389
 20
9.445766071875009
 10
11.29431647395547
 20
9.369910859512845
 10
11.2305210217744
 20
9.293643951141488
 10
11.16723119084511
 20
9.216957167701181
 10
11.10445749471199
 20
9.139842330132168
 10
11.04221044691948
 20
9.062291259374692
 10
10.98050056101198
 20
8.984295776368997
 10
10.9193383505339
 20
8.905847702055325
 10
10.85873432902967
 20
8.826938857373921
 10
10.79869901004369
 20
8.747561063265028
 10
10.73924290712039
 20
8.667706140668888
 10
10.68037653380416
 20
8.587365910525747
 10
10.62211040363943
 20
8.506532193775846
 10
10.62211040363943
 20
8.506532193775854
 10
10.56687943442985
 20
8.428595233471467
 10
10.51230817351594
 20
8.350247115017852
 10
10.45838521009731
 20
8.27149552421193
 10
10.40509913337354
 20
8.192348146850624
 10
10.35243853254422
 20
8.112812668730857
 10
10.30039199680895
 20
8.03289677564955
 10
10.2489481153673
 20
7.952608153403629
 10
10.19809547741888
 20
7.871954487790013
 10
10.14782267216328
 20
7.790943464605626
 10
10.09811828880007
 20
7.709582769647389
 10
10.04897091652885
 20
7.627880088712226
 10
10.00036914454922
 20
7.545843107597058
 10
9.952301562060755
 20
7.463479512098809
 10
9.904756758263049
 20
7.380796988014401
 10
9.857723322355692
 20
7.297803221140757
 10
9.811189843538272
 20
7.214505897274798
 10
9.765144911010382
 20
7.130912702213447
 10
9.71957711397161
 20
7.047031321753627
 10
9.674475041621544
 20
6.96286944169226
 10
9.629827283159777
 20
6.878434747826269
 10
9.585622427785896
 20
6.793734925952576
 10
9.541849064699491
 20
6.708777661868103
 10
9.498495783100151
 20
6.623570641369774
 10
9.455551172187469
 20
6.538121550254509
 10
9.413003821161032
 20
6.452438074319233
 10
9.370842319220429
 20
6.366527899360867
 10
9.329055255565251
 20
6.280398711176333
 10
9.287631219395086
 20
6.194058195562555
 10
9.246558799909525
 20
6.107514038316455
 10
9.205826586308157
 20
6.020773925234954
 10
9.165423167790573
 20
5.933845542114976
 10
9.12533713355636
 20
5.846736574753443
 10
9.08555707280511
 20
5.759454708947279
 10
9.046071574736412
 20
5.672007630493404
 10
9.006869228549854
 20
5.584403025188742
 10
8.967938623445027
 20
5.496648578830215
 10
8.929268348621521
 20
5.408751977214745
 10
8.890846993278925
 20
5.320720906139254
 10
8.852663146616828
 20
5.232563051400666
 10
8.814705397834821
 20
5.144286098795903
 10
8.776962336132493
 20
5.055897734121886
 10
8.739422550709434
 20
4.96740564317554
 10
8.702074630765233
 20
4.878817511753786
 10
8.66490716549948
 20
4.790141025653547
 10
8.627908744111763
 20
4.701383870671744
 10
8.591067955801674
 20
4.6125537326053
 10
8.554373389768802
 20
4.523658297251139
 10
8.517813635212736
 20
4.434705250406182
 10
8.481377281333065
 20
4.345702277867352
 10
8.44505291732938
 20
4.256657065431571
 10
8.408829132401271
 20
4.167577298895762
 10
8.372694515748325
 20
4.078470664056847
 10
8.336637656570133
 20
3.98934484671175
 10
8.300647144066285
 20
3.900207532657391
 10
8.264711567436371
 20
3.811066407690693
 10
8.228819515879981
 20
3.72192915760858
 10
8.192959578596703
 20
3.632803468207974
 10
8.157120344786127
 20
3.543697025285796
 10
8.121290403647844
 20
3.45461751463897
 10
8.085458344381441
 20
3.365572622064417
 10
8.04961275618651
 20
3.276570033359062
 10
8.013742228262639
 20
3.187617434319825
 10
7.977835349809419
 20
3.098722510743629
 10
7.941880710026438
 20
3.009892948427397
 10
7.905866898113288
 20
2.921136433168051
 10
7.869782503269556
 20
2.832460650762514
 10
7.833616114694834
 20
2.743873287007708
 10
7.79735632158871
 20
2.655382027700556
 10
7.760991713150773
 20
2.56699455863798
 10
7.760991713150768
 20
2.566994558637982
 10
7.716673131549125
 20
2.458476511333021
 10
7.673067400668247
 20
2.349688385734916
 10
7.630141619705637
 20
2.240642646995656
 10
7.587862887858796
 20
2.131351760267235
 10
7.54619830432523
 20
2.021828190701643
 10
7.50511496830244
 20
1.912084403450871
 10
7.464579978987932
 20
1.802132863666911
 10
7.424560435579206
 20
1.691986036501755
 10
7.385023437273767
 20
1.581656387107392
 10
7.345936083269118
 20
1.471156380635816
 10
7.307265472762762
 20
1.360498482239016
 10
7.268978704952202
 20
1.249695157068985
 10
7.231042879034941
 20
1.138758870277713
 10
7.193425094208483
 20
1.027702087017192
 10
7.156092449670331
 20
0.9165372724394138
 10
7.119012044617988
 20
0.8052768916963684
 10
7.082150978248956
 20
0.6939334099400477
 10
7.045476349760741
 20
0.582519292322443
 10
7.008955258350844
 20
0.4710470039955455
 10
6.972554803216768
 20
0.3595290101113467
 10
6.936242083556017
 20
0.2479777758218378
 10
6.899984198566094
 20
0.13640576627901
 10
6.863748247444502
 20
0.0248254466348548
 10
6.827501329388745
 20
-0.0867507179586368
 10
6.791210543596325
 20
-0.1983102623494732
 10
6.754842989264746
 20
-0.3098407213856633
 10
6.718365765591511
 20
-0.4213296299152158
 10
6.681745971774123
 20
-0.5327645227861393
 10
6.644950707010085
 20
-0.6441329348464427
 10
6.607947070496901
 20
-0.7554224009441344
 10
6.570702161432074
 20
-0.8666204559272234
 10
6.533183079013107
 20
-0.9777146346437181
 10
6.495356922437502
 20
-1.088692471941627
 10
6.457190790902764
 20
-1.19954150266896
  0
LWPOLYLINE
  5
24E
330
1F
100
AcDbEntity
  8
Vector Layer 1
 62
    18
420
        0
370
    30
100
AcDbPolyline
 90
      223
 70
     0
 43
0.0
 10
21.63455265842942
 20
8.45356045554492
 10
21.5745008663838
 20
8.420790477535691
 10
21.51424897523574
 20
8.388326701778595
 10
21.45380875552067
 20
8.356151116376448
 10
21.39319197777404
 20
8.324245709432066
 10
21.33241041253128
 20
8.292592469048265
 10
21.27147583032784
 20
8.261173383327861
 10
21.21040000169914
 20
8.229970440373667
 10
21.14919469718063
 20
8.198965628288501
 10
21.08787168730774
 20
8.168140935175179
 10
21.02644274261592
 20
8.137478349136515
 10
20.96491963364059
 20
8.106959858275326
 10
20.9033141309172
 20
8.076567450694426
 10
20.84163800498118
 20
8.046283114496633
 10
20.77990302636798
 20
8.016088837784762
 10
20.71812096561302
 20
7.985966608661628
 10
20.65630359325175
 20
7.955898415230046
 10
20.59446267981961
 20
7.925866245592833
 10
20.53260999585203
 20
7.895852087852804
 10
20.47075731188445
 20
7.865837930112776
 10
20.40891639845231
 20
7.835805760475563
 10
20.34709902609104
 20
7.805737567043981
 10
20.28531696533609
 20
7.775615337920847
 10
20.22358198672288
 20
7.745421061208975
 10
20.16190586078686
 20
7.715136725011181
 10
20.10030035806347
 20
7.684744317430282
 10
20.03877724908814
 20
7.654225826569092
 10
19.97734830439632
 20
7.623563240530428
 10
19.91602529452343
 20
7.592738547417105
 10
19.85481999000492
 20
7.561733735331939
 10
19.79374416137623
 20
7.530530792377746
 10
19.73280957917278
 20
7.499111706657341
 10
19.67202801393003
 20
7.46745846627354
 10
19.6114112361834
 20
7.435553059329158
 10
19.55097101646833
 20
7.403377473927013
 10
19.49071912532027
 20
7.370913698169918
 10
19.43066733327465
 20
7.338143720160689
 10
19.3708274108669
 20
7.305049528002143
 10
19.31121112863247
 20
7.271613109797096
 10
19.25183025710679
 20
7.237816453648362
 10
19.1926965668253
 20
7.203641547658757
 10
19.13382182832344
 20
7.169070379931098
 10
19.07521781213665
 20
7.134084938568199
 10
19.01689628880036
 20
7.098667211672877
 10
18.95886902885001
 20
7.062799187347947
 10
18.90114780282103
 20
7.026462853696226
 10
18.84374438124888
 20
6.989640198820527
 10
18.78667053466897
 20
6.952313210823668
 10
18.72993803361676
 20
6.914463877808464
 10
18.67355864862768
 20
6.876074187877731
 10
18.61754415023717
 20
6.837126129134284
 10
18.56190630898066
 20
6.797601689680939
 10
18.50665689539358
 20
6.757482857620511
 10
18.45180768001139
 20
6.716751621055817
 10
18.39737043336952
 20
6.675389968089673
 10
18.39737043336953
 20
6.675389968089674
 10
18.31817857086693
 20
6.614019039995797
 10
18.23948374970382
 20
6.552044190552592
 10
18.16127853123628
 20
6.489476564587281
 10
18.08355547682038
 20
6.426327306927087
 10
18.0063071478122
 20
6.362607562399234
 10
17.92952610556782
 20
6.298328475830944
 10
17.85320491144331
 20
6.233501192049439
 10
17.77733612679474
 20
6.168136855881944
 10
17.70191231297821
 20
6.10224661215568
 10
17.62692603134977
 20
6.035841605697871
 10
17.5523698432655
 20
5.968932981335741
 10
17.47823631008149
 20
5.90153188389651
 10
17.4045179931538
 20
5.833649458207404
 10
17.33120745383852
 20
5.765296849095645
 10
17.25829725349171
 20
5.696485201388455
 10
17.18577995346947
 20
5.627225659913057
 10
17.11364811512785
 20
5.557529369496675
 10
17.04189429982293
 20
5.487407474966532
 10
16.9705110689108
 20
5.416871121149851
 10
16.89949098374754
 20
5.345931452873854
 10
16.8288266056892
 20
5.274599614965764
 10
16.75851049609187
 20
5.202886752252805
 10
16.68853521631164
 20
5.130804009562199
 10
16.61889332770456
 20
5.05836253172117
 10
16.54957739162673
 20
4.985573463556939
 10
16.48057996943421
 20
4.912447949896732
 10
16.41189362248308
 20
4.838997135567769
 10
16.34351091212941
 20
4.765232165397274
 10
16.2754243997293
 20
4.69116418421247
 10
16.20762664663879
 20
4.616804336840581
 10
16.14011021421399
 20
4.542163768108828
 10
16.07286766381095
 20
4.467253622844435
 10
16.00589155678576
 20
4.392085045874626
 10
15.9391744544945
 20
4.316669182026622
 10
15.87270891829323
 20
4.241017176127646
 10
15.80648750953804
 20
4.165140173004923
 10
15.74050278958499
 20
4.089049317485675
 10
15.67474731979018
 20
4.012755754397124
 10
15.60921366150967
 20
3.936270628566494
 10
15.54389437609953
 20
3.859605084821007
 10
15.47878202491585
 20
3.782770267987887
 10
15.4138691693147
 20
3.705777322894357
 10
15.34914837065216
 20
3.628637394367639
 10
15.28461219028429
 20
3.551361627234956
 10
15.22025318956719
 20
3.473961166323532
 10
15.15606392985692
 20
3.39644715646059
 10
15.09203697250956
 20
3.318830742473351
 10
15.02816487888119
 20
3.24112306918904
 10
14.96444021032788
 20
3.163335281434879
 10
14.90085552820571
 20
3.085478524038092
 10
14.83740339387076
 20
3.0075639418259
 10
14.77407636867909
 20
2.929602679625528
 10
14.71086701398679
 20
2.851605882264197
 10
14.64776789114993
 20
2.773584694569132
 10
14.58477156152459
 20
2.695550261367555
 10
14.52187058646684
 20
2.617513727486688
 10
14.52187058646685
 20
2.617513727486688
 10
14.42348373167243
 20
2.494924468753215
 10
14.32551160615563
 20
2.371955526614319
 10
14.22796135648524
 20
2.24860728107621
 10
14.13084012923006
 20
2.124880112145103
 10
14.03415507095889
 20
2.00077439982721
 10
13.93791332824054
 20
1.876290524128743
 10
13.8421220476438
 20
1.751428865055916
 10
13.74678837573747
 20
1.62618980261494
 10
13.65191945909035
 20
1.500573716812029
 10
13.55752244427124
 20
1.374580987653394
 10
13.46360447784894
 20
1.24821199514525
 10
13.37017270639226
 20
1.121467119293808
 10
13.27723427646998
 20
0.9943467401052823
 10
13.18479633465092
 20
0.8668512375858837
 10
13.09286602750387
 20
0.7389809917418255
 10
13.00145050159762
 20
0.6107363825793206
 10
12.91055690350099
 20
0.4821177901045817
 10
12.82019237978277
 20
0.3531255943238213
 10
12.73036407701175
 20
0.2237601752432521
 10
12.64107914175675
 20
0.0940219128690869
 10
12.55234472058655
 20
-0.0360888127924617
 10
12.46416796006996
 20
-0.166571621735181
 10
12.37655600677578
 20
-0.2974261339528584
 10
12.28951600727281
 20
-0.4286519694392813
 10
12.20305510812985
 20
-0.5602487481882368
 10
12.1171804559157
 20
-0.6922160901935124
 10
12.03189919719915
 20
-0.8245536154488952
 10
11.94721847854902
 20
-0.9572609439481729
 10
11.86314544653409
 20
-1.090337695685132
 10
11.77968724772316
 20
-1.223783490653561
 10
11.69685102868505
 20
-1.357597948847246
 10
11.61464393598854
 20
-1.491780690259976
 10
11.53307311620244
 20
-1.626331334885537
 10
11.45214571589555
 20
-1.761249502717717
 10
11.37186888163666
 20
-1.896534813750302
 10
11.29224975999458
 20
-2.032186887977081
 10
11.2132954975381
 20
-2.16820534539184
 10
11.13501324083604
 20
-2.304589805988368
 10
11.05741013645717
 20
-2.441339889760451
 10
10.98049333097032
 20
-2.578455216701876
 10
10.90426997094426
 20
-2.715935406806431
 10
10.82874720294781
 20
-2.853780080067904
 10
10.82874720294782
 20
-2.853780080067903
 10
10.76918505730341
 20
-2.963962992198519
 10
10.71030076480329
 20
-3.074514448361754
 10
10.65208454261491
 20
-3.185426269080386
 10
10.59452660790566
 20
-3.296690274877193
 10
10.53761717784298
 20
-3.408298286274952
 10
10.48134646959428
 20
-3.520242123796438
 10
10.42570470032699
 20
-3.632513607964432
 10
10.37068208720852
 20
-3.745104559301708
 10
10.3162688474063
 20
-3.858006798331044
 10
10.26245519808774
 20
-3.971212145575218
 10
10.20923135642028
 20
-4.084712421557007
 10
10.15658753957132
 20
-4.198499446799188
 10
10.10451396470829
 20
-4.312565041824538
 10
10.05300084899861
 20
-4.426901027155834
 10
10.0020384096097
 20
-4.541499223315854
 10
9.951616863708988
 20
-4.656351450827375
 10
9.901726428463884
 20
-4.771449530213173
 10
9.852357321041814
 20
-4.886785281996027
 10
9.803499758610199
 20
-5.002350526698712
 10
9.755143958336457
 20
-5.118137084844008
 10
9.707280137388011
 20
-5.23413677695469
 10
9.659898512932281
 20
-5.350341423553536
 10
9.612989302136687
 20
-5.466742845163324
 10
9.566542722168652
 20
-5.583332862306829
 10
9.520548990195594
 20
-5.70010329550683
 10
9.474998323384937
 20
-5.817045965286105
 10
9.4298809389041
 20
-5.934152692167429
 10
9.385187053920503
 20
-6.05141529667358
 10
9.340906885601569
 20
-6.168825599327336
 10
9.297030651114717
 20
-6.286375420651473
 10
9.253548567627367
 20
-6.404056581168769
 10
9.210450852306941
 20
-6.521860901402002
 10
9.16772772232086
 20
-6.639780201873947
 10
9.125369394836544
 20
-6.757806303107383
 10
9.083366087021415
 20
-6.875931025625086
 10
9.041708016042893
 20
-6.994146189949834
 10
9.000385399068397
 20
-7.112443616604404
 10
8.959388453265351
 20
-7.230815126111574
 10
8.959388453265349
 20
-7.230815126111575
 10
8.935025937648424
 20
-7.30261891662457
 10
8.911364589530764
 20
-7.374636810537904
 10
8.888364720185998
 20
-7.446856688791181
 10
8.865986640887753
 20
-7.519266432324005
 10
8.844190662909653
 20
-7.591853922075977
 10
8.822937097525326
 20
-7.664607038986703
 10
8.802186256008397
 20
-7.737513663995786
 10
8.781898449632492
 20
-7.810561678042828
 10
8.762033989671241
 20
-7.883738962067434
 10
8.742553187398266
 20
-7.957033397009206
 10
8.723416354087197
 20
-8.03043286380775
 10
8.704583801011658
 20
-8.103925243402667
 10
8.686015839445277
 20
-8.177498416733561
 10
8.667672780661678
 20
-8.251140264740035
 10
8.64951493593449
 20
-8.324838668361692
 10
8.631502616537339
 20
-8.398581508538137
 10
8.61359613374385
 20
-8.472356666208973
 10
8.595755798827651
 20
-8.546152022313803
 10
8.577941923062368
 20
-8.619955457792231
 10
8.560114817721627
 20
-8.693754853583861
 10
8.542234794079055
 20
-8.767538090628296
 10
8.524262163408277
 20
-8.841293049865138
 10
8.50615723698292
 20
-8.91500761223399
 10
8.487880326076611
 20
-8.988669658674458
 10
8.469391741962976
 20
-9.062267070126145
 10
8.450651795915641
 20
-9.135787727528652
 10
8.431620799208234
 20
-9.209219511821586
 10
8.41225906311438
 20
-9.282550303944548
  0
LWPOLYLINE
  5
24F
330
1F
100
AcDbEntity
  8
Vector Layer 1
 62
    18
420
        0
370
    30
100
AcDbPolyline
 90
      160
 70
     0
 43
0.0
 10
21.04182915243253
 20
-1.34917428299039
 10
20.963375704767
 20
-1.409817691883776
 10
20.88468523537129
 20
-1.470179269047691
 10
20.80577749605625
 20
-1.530282500459591
 10
20.72667223863274
 20
-1.590150872096933
 10
20.64738921491159
 20
-1.649807869937171
 10
20.56794817670365
 20
-1.709276979957762
 10
20.48836887581978
 20
-1.768581688136163
 10
20.40867106407082
 20
-1.827745480449827
 10
20.32887449326761
 20
-1.886791842876213
 10
20.24899891522102
 20
-1.945744261392774
 10
20.16906408174188
 20
-2.004626221976968
 10
20.08908974464104
 20
-2.06346121060625
 10
20.00909565572936
 20
-2.122272713258077
 10
19.92910156681768
 20
-2.181084215909903
 10
19.84912722971684
 20
-2.239919204539185
 10
19.7691923962377
 20
-2.298801165123379
 10
19.68931681819111
 20
-2.357753583639941
 10
19.6095202473879
 20
-2.416799946066326
 10
19.52982243563894
 20
-2.475963738379991
 10
19.45024313475507
 20
-2.535268446558391
 10
19.37080209654714
 20
-2.594737556578982
 10
19.29151907282598
 20
-2.65439455441922
 10
19.21241381540246
 20
-2.714262926056562
 10
19.13350607608743
 20
-2.774366157468462
 10
19.05481560669172
 20
-2.834727734632378
 10
18.97636215902618
 20
-2.895371143525764
 10
18.89816548490168
 20
-2.956319870126076
 10
18.82024533612905
 20
-3.017597400410771
 10
18.74262146451913
 20
-3.079227220357304
 10
18.66531362188279
 20
-3.141232815943132
 10
18.58834156003087
 20
-3.20363767314571
 10
18.51172503077421
 20
-3.266465277942494
 10
18.43548378592367
 20
-3.329739116310939
 10
18.35963757729009
 20
-3.393482674228503
 10
18.28420615668432
 20
-3.457719437672641
 10
18.20920927591721
 20
-3.522472892620808
 10
18.1346666867996
 20
-3.587766525050461
 10
18.06059814114235
 20
-3.653623820939055
 10
17.9870233907563
 20
-3.720068266264046
 10
17.9870233907563
 20
-3.720068266264047
 10
17.92255132089347
 20
-3.779281331113184
 10
17.85860648478205
 20
-3.839029781166495
 10
17.79516527494065
 20
-3.899289643952153
 10
17.73220408388786
 20
-3.960036946998328
 10
17.66969930414227
 20
-4.021247717833192
 10
17.60762732822247
 20
-4.082897983984915
 10
17.54596454864705
 20
-4.14496377298167
 10
17.48468735793462
 20
-4.207421112351627
 10
17.42377214860376
 20
-4.270246029622958
 10
17.36319531317306
 20
-4.333414552323834
 10
17.30293324416112
 20
-4.396902707982426
 10
17.24296233408653
 20
-4.460686524126906
 10
17.18325897546789
 20
-4.524742028285444
 10
17.12379956082379
 20
-4.589045247986213
 10
17.06456048267282
 20
-4.653572210757383
 10
17.00551813353357
 20
-4.718298944127125
 10
16.94664890592464
 20
-4.783201475623612
 10
16.88792919236462
 20
-4.848255832775014
 10
16.8293353853721
 20
-4.913438043109502
 10
16.77084387746568
 20
-4.978724134155248
 10
16.71243106116395
 20
-5.044090133440423
 10
16.6540733289855
 20
-5.109512068493199
 10
16.59574707344893
 20
-5.174965966841746
 10
16.53742868707283
 20
-5.240427856014236
 10
16.47909456237579
 20
-5.305873763538841
 10
16.4207210918764
 20
-5.37127971694373
 10
16.36228466809326
 20
-5.436621743757076
 10
16.30376168354496
 20
-5.501875871507051
 10
16.2451285307501
 20
-5.567018127721825
 10
16.18636160222727
 20
-5.632024539929568
 10
16.12743729049505
 20
-5.696871135658454
 10
16.06833198807206
 20
-5.761533942436654
 10
16.00902208747686
 20
-5.825988987792337
 10
15.94948398122807
 20
-5.890212299253676
 10
15.88969406184427
 20
-5.954179904348843
 10
15.88969406184427
 20
-5.95417990434884
 10
13.60998826954857
 20
-8.46185623281136
 10
13.60998826954857
 20
-8.46185623281136
 10
13.56424688621007
 20
-8.511779441156562
 10
13.51822569463566
 20
-8.561476334677585
 10
13.47194678494923
 20
-8.610964780334231
 10
13.42543224727467
 20
-8.660262645086305
 10
13.37870417173585
 20
-8.70938779589361
 10
13.33178464845668
 20
-8.75835809971595
 10
13.28469576756104
 20
-8.807191423513129
 10
13.23745961917281
 20
-8.855905634244951
 10
13.19009829341589
 20
-8.904518598871218
 10
13.14263388041415
 20
-8.953048184351734
 10
13.0950884702915
 20
-9.001512257646304
 10
13.04748415317181
 20
-9.04992868571473
 10
12.99984301917897
 20
-9.098315335516817
 10
12.95218715843688
 20
-9.146690074012369
 10
12.90453866106942
 20
-9.195070768161187
 10
12.85691961720047
 20
-9.243475284923077
 10
12.80935211695393
 20
-9.291921491257843
 10
12.76185825045368
 20
-9.340427254125287
 10
12.71446010782361
 20
-9.389010440485215
 10
12.6671797791876
 20
-9.437688917297428
 10
12.62003935466956
 20
-9.486480551521731
 10
12.57306092439335
 20
-9.535403210117928
 10
12.52626657848288
 20
-9.584474760045823
 10
12.47967840706202
 20
-9.633713068265219
 10
12.43331850025467
 20
-9.683136001735919
 10
12.38720894818471
 20
-9.732761427417727
 10
12.34137184097603
 20
-9.782607212270447
 10
12.29582926875252
 20
-9.832691223253881
 10
12.25060332163807
 20
-9.883031327327836
 10
12.20571608975656
 20
-9.933645391452113
 10
12.16118966323188
 20
-9.984551282586517
 10
12.11704613218792
 20
-10.03576686769085
 10
12.07330758674857
 20
-10.08731001372492
 10
12.02999611703771
 20
-10.13919858764852
 10
11.98713381317923
 20
-10.19145045642147
 10
11.94474276529702
 20
-10.24408348700356
 10
11.90284506351497
 20
-10.2971155463546
 10
11.86146279795697
 20
-10.3505645014344
 10
11.8206180587469
 20
-10.40444821920274
 10
11.78033293600864
 20
-10.45878456661945
 10
11.7406295198661
 20
-10.51359141064432
 10
11.7406295198661
 20
-10.51359141064433
 10
11.70288804566969
 20
-10.56698297527898
 10
11.6657881556567
 20
-10.62077897369088
 10
11.62930418645978
 20
-10.67496322852895
 10
11.5934104747116
 20
-10.7295195624421
 10
11.55808135704482
 20
-10.78443179807924
 10
11.52329117009211
 20
-10.83968375808927
 10
11.48901425048613
 20
-10.89525926512111
 10
11.45522493485954
 20
-10.95114214182366
 10
11.42189755984501
 20
-11.00731621084584
 10
11.3890064620752
 20
-11.06376529483656
 10
11.35652597818277
 20
-11.12047321644471
 10
11.32443044480039
 20
-11.17742379831923
 10
11.29269419856072
 20
-11.234600863109
 10
11.26129157609642
 20
-11.29198823346295
 10
11.23019691404016
 20
-11.34956973202999
 10
11.1993845490246
 20
-11.40732918145902
 10
11.16882881768241
 20
-11.46525040439895
 10
11.13850405664625
 20
-11.52331722349869
 10
11.10838460254877
 20
-11.58151346140716
 10
11.07844479202265
 20
-11.63982294077326
 10
11.04865896170055
 20
-11.6982294842459
 10
11.01900144821514
 20
-11.75671691447399
 10
10.98944658819907
 20
-11.81526905410644
 10
10.95996871828501
 20
-11.87386972579216
 10
10.93054217510562
 20
-11.93250275218007
 10
10.90114129529357
 20
-11.99115195591906
 10
10.87174041548152
 20
-12.04980115965806
 10
10.84231387230213
 20
-12.10843418604596
 10
10.81283600238807
 20
-12.16703485773168
 10
10.783281142372
 20
-12.22558699736414
 10
10.75362362888658
 20
-12.28407442759223
 10
10.72383779856448
 20
-12.34248097106487
 10
10.69389798803836
 20
-12.40079045043096
 10
10.66377853394089
 20
-12.45898668833943
 10
10.63345377290473
 20
-12.51705350743917
 10
10.60289804156253
 20
-12.57497473037911
 10
10.57208567654697
 20
-12.63273417980813
 10
10.54099101449072
 20
-12.69031567837517
 10
10.50958839202642
 20
-12.74770304872912
  0
LWPOLYLINE
  5
250
330
1F
100
AcDbEntity
  8
Vector Layer 1
 62
    18
420
        0
370
    30
100
AcDbPolyline
 90
      131
 70
     0
 43
0.0
 10
20.12994683551426
 20
-9.601709109385232
 10
20.07458925542364
 20
-9.637504057532586
 10
20.01900386352716
 20
-9.673002588423512
 10
19.9632046074864
 20
-9.708222850053305
 10
19.90720543496295
 20
-9.743182990417254
 10
19.85102029361839
 20
-9.777901157510651
 10
19.7946631311143
 20
-9.812395499328788
 10
19.73814789511227
 20
-9.846684163866955
 10
19.68148853327388
 20
-9.880785299120445
 10
19.62469899326071
 20
-9.914717053084547
 10
19.56779322273435
 20
-9.948497573754556
 10
19.51078516935638
 20
-9.98214500912576
 10
19.45368878078838
 20
-10.01567750719345
 10
19.39651800469194
 20
-10.04911321595292
 10
19.33928678872864
 20
-10.08247028339947
 10
19.28200908056006
 20
-10.11576685752837
 10
19.22469882784778
 20
-10.14902108633493
 10
19.1673699782534
 20
-10.18225111781443
 10
19.11003647943848
 20
-10.21547509996217
 10
19.05271227906462
 20
-10.24871118077344
 10
18.9954113247934
 20
-10.28197750824352
 10
18.93814756428641
 20
-10.31529223036772
 10
18.88093494520521
 20
-10.34867349514132
 10
18.82378741521141
 20
-10.38213945055961
 10
18.76671892196658
 20
-10.41570824461788
 10
18.7097434131323
 20
-10.44939802531144
 10
18.65287483637017
 20
-10.48322694063555
 10
18.59612713934175
 20
-10.51721313858553
 10
18.53951426970863
 20
-10.55137476715666
 10
18.48305017513241
 20
-10.58572997434423
 10
18.42674880327466
 20
-10.62029690814353
 10
18.37062410179696
 20
-10.65509371654986
 10
18.31469001836089
 20
-10.6901385475585
 10
18.25896050062805
 20
-10.72544954916475
 10
18.20344949626001
 20
-10.7610448693639
 10
18.14817095291836
 20
-10.79694265615124
 10
18.09313881826468
 20
-10.83316105752206
 10
18.03836703996056
 20
-10.86971822147165
 10
17.98386956566757
 20
-10.9066322959953
 10
17.9296603430473
 20
-10.94392142908832
 10
17.87575331976133
 20
-10.98160376874598
 10
17.82216244347125
 20
-11.01969746296357
 10
17.76890166183864
 20
-11.05822065973639
 10
17.71598492252509
 20
-11.09719150705974
 10
17.66342617319217
 20
-11.1366281529289
 10
17.61123936150147
 20
-11.17654874533916
 10
17.55943843511457
 20
-11.21697143228582
 10
17.50803734169306
 20
-11.25791436176417
 10
17.45705002889851
 20
-11.29939568176949
 10
17.40649044439252
 20
-11.34143354029708
 10
17.35637253583667
 20
-11.38404608534223
 10
17.30671025089253
 20
-11.42725146490024
 10
17.2575175372217
 20
-11.47106782696639
 10
17.25751753722168
 20
-11.47106782696638
 10
17.20176721638523
 20
-11.52183703665977
 10
17.14654943634799
 20
-11.57313880204309
 10
17.09185226690117
 20
-11.62496001263451
 10
17.03766377783595
 20
-11.67728755795218
 10
16.98397203894353
 20
-11.73010832751428
 10
16.93076512001512
 20
-11.78340921083896
 10
16.87803109084188
 20
-11.83717709744439
 10
16.82575802121503
 20
-11.89139887684873
 10
16.77393398092576
 20
-11.94606143857014
 10
16.72254703976526
 20
-12.00115167212678
 10
16.67158526752473
 20
-12.05665646703682
 10
16.62103673399536
 20
-12.11256271281843
 10
16.57088950896834
 20
-12.16885729898975
 10
16.52113166223487
 20
-12.22552711506896
 10
16.47175126358615
 20
-12.28255905057421
 10
16.42273638281337
 20
-12.33993999502368
 10
16.37407508970772
 20
-12.39765683793552
 10
16.32575545406039
 20
-12.4556964688279
 10
16.27776554566259
 20
-12.51404577721898
 10
16.2300934343055
 20
-12.57269165262691
 10
16.18272718978033
 20
-12.63162098456987
 10
16.13565488187826
 20
-12.69082066256602
 10
16.08886458039049
 20
-12.75027757613351
 10
16.04234435510821
 20
-12.80997861479052
 10
15.99608227582262
 20
-12.8699106680552
 10
15.9500664123249
 20
-12.93006062544571
 10
15.90428483440627
 20
-12.99041537648023
 10
15.85872561185791
 20
-13.05096181067691
 10
15.81337681447101
 20
-13.11168681755391
 10
15.76822651203678
 20
-13.1725772866294
 10
15.72326277434639
 20
-13.23362010742154
 10
15.67847367119106
 20
-13.29480216944849
 10
15.63384727236196
 20
-13.35611036222841
 10
15.58937164765031
 20
-13.41753157527948
 10
15.54503486684728
 20
-13.47905269811984
 10
15.50082499974408
 20
-13.54066062026767
 10
15.4567301161319
 20
-13.60234223124112
 10
15.41273828580194
 20
-13.66408442055837
 10
15.36883757854538
 20
-13.72587407773756
 10
15.32501606415343
 20
-13.78769809229686
 10
15.28126181241727
 20
-13.84954335375444
 10
15.23756289312811
 20
-13.91139675162846
 10
15.19390737607713
 20
-13.97324517543708
 10
15.15028333105554
 20
-14.03507551469847
 10
15.10667882785451
 20
-14.09687465893078
 10
15.06308193626526
 20
-14.15862949765218
 10
15.01948072607897
 20
-14.22032692038083
 10
14.97586326708684
 20
-14.2819538166349
 10
14.93221762908006
 20
-14.34349707593254
 10
14.93221762908007
 20
-14.34349707593254
 10
14.8842455803877
 20
-14.41172274791834
 10
14.83688713167755
 20
-14.48035559107885
 10
14.79010618883302
 20
-14.5493716541685
 10
14.7438666577375
 20
-14.61874698594171
 10
14.69813244427439
 20
-14.68845763515292
 10
14.65286745432709
 20
-14.75847965055656
 10
14.60803559377901
 20
-14.82878908090705
 10
14.56360076851354
 20
-14.89936197495883
 10
14.51952688441408
 20
-14.97017438146631
 10
14.47577784736402
 20
-15.04120234918394
 10
14.43231756324677
 20
-15.11242192686614
 10
14.38910993794574
 20
-15.18380916326733
 10
14.3461188773443
 20
-15.25534010714195
 10
14.30330828732587
 20
-15.32699080724443
 10
14.26064207377385
 20
-15.3987373123292
 10
14.21808414257163
 20
-15.47055567115067
 10
14.17559839960261
 20
-15.54242193246329
 10
14.13314875075019
 20
-15.61431214502148
 10
14.09069910189777
 20
-15.68620235757967
 10
14.04821335892875
 20
-15.75806861889229
 10
14.00565542772653
 20
-15.82988697771377
 10
13.9629892141745
 20
-15.90163348279853
 10
13.92017862415608
 20
-15.97328418290101
 10
13.87718756355464
 20
-16.04481512677563
 10
13.8339799382536
 20
-16.11620236317682
 10
13.79051965413635
 20
-16.18742194085902
 10
13.7467706170863
 20
-16.25844990857665
  0
LWPOLYLINE
  5
251
330
1F
100
AcDbEntity
  8
Vector Layer 1
 62
    18
420
        0
370
    30
100
AcDbPolyline
 90
       44
 70
     0
 43
0.0
 10
13.88355296462405
 20
16.70609528193976
 10
14.02669593743827
 20
16.50623802681187
 10
14.16956383453262
 20
16.30617987695023
 10
14.31220250186043
 20
16.10595431481046
 10
14.45465778537499
 20
15.90559482284818
 10
14.59697553102963
 20
15.70513488351903
 10
14.73920158477764
 20
15.50460797927863
 10
14.88138179257235
 20
15.3040475925826
 10
15.02356200036705
 20
15.10348720588657
 10
15.16578805411507
 20
14.90296030164616
 10
15.3081057997697
 20
14.70250036231701
 10
15.45056108328427
 20
14.50214087035474
 10
15.59319975061207
 20
14.30191530821496
 10
15.73606764770643
 20
14.10185715835332
 10
15.87921062052065
 20
13.90199990322543
 10
16.02267451500804
 20
13.70237702528693
 10
16.16650517712191
 20
13.50302200699342
 10
16.31074845281558
 20
13.30396833080055
 10
16.45545018804235
 20
13.10524947916394
 10
16.60065622875553
 20
12.90689893453921
 10
16.74641242090843
 20
12.70895017938199
 10
16.89276461045437
 20
12.51143669614791
 10
16.89276461045437
 20
12.5114366961479
 10
17.03530455036981
 20
12.32033198187228
 10
17.17841525550302
 20
12.12965915535454
 10
17.32205282083725
 20
11.93938499445946
 10
17.46617334135575
 20
11.74947627705184
 10
17.61073291204175
 20
11.55989978099643
 10
17.75568762787852
 20
11.37062228415803
 10
17.9009935838493
 20
11.1816105644014
 10
18.04660687493734
 20
10.99283139959133
 10
18.19248359612589
 20
10.80425156759259
 10
18.33857984239819
 20
10.61583784626996
 10
18.4848517087375
 20
10.42755701348822
 10
18.63125529012706
 20
10.23937584711215
 10
18.77774668155013
 20
10.05126112500652
 10
18.92428197798995
 20
9.863179625036115
 10
19.07081727442976
 20
9.675098125065709
 10
19.21730866585283
 20
9.486983402960081
 10
19.3637122472424
 20
9.298802236584009
 10
19.5099841135817
 20
9.11052140380227
 10
19.65608035985401
 20
8.922107682479643
 10
19.80195708104255
 20
8.733527850480903
 10
19.94757037213059
 20
8.544748685670832
  0
LWPOLYLINE
  5
252
330
1F
100
AcDbEntity
  8
Vector Layer 1
 62
    18
420
        0
370
    30
100
AcDbPolyline
 90
      117
 70
     0
 43
0.0
 10
10.60077662371825
 20
13.97044837816246
 10
10.66139775277985
 20
13.84497616754389
 10
10.7216963768022
 20
13.71933727072819
 10
10.78170181442521
 20
13.593546841006
 10
10.84144338428882
 20
13.46762003166798
 10
10.90095040503296
 20
13.34157199600478
 10
10.96025219529757
 20
13.21541788730704
 10
11.01937807372259
 20
13.08917285886541
 10
11.07835735894793
 20
12.96285206397054
 10
11.13721936961355
 20
12.83647065591307
 10
11.19599342435936
 20
12.71004378798367
 10
11.25470884182531
 20
12.58358661347297
 10
11.31339494065132
 20
12.45711428567161
 10
11.37208103947734
 20
12.33064195787026
 10
11.43079645694328
 20
12.20418478335956
 10
11.4895705116891
 20
12.07775791543015
 10
11.54843252235471
 20
11.95137650737269
 10
11.60741180758006
 20
11.82505571247782
 10
11.66653768600507
 20
11.69881068403618
 10
11.72583947626968
 20
11.57265657533844
 10
11.78534649701383
 20
11.44660853967524
 10
11.84508806687744
 20
11.32068173033722
 10
11.90509350450045
 20
11.19489130061504
 10
11.96539212852279
 20
11.06925240379934
 10
12.0260132575844
 20
10.94378019318076
 10
12.08698621032521
 20
10.81848982204997
 10
12.14834030538515
 20
10.6933964436976
 10
12.21010486140415
 20
10.5685152114143
 10
12.27230919702215
 20
10.44386127849073
 10
12.33498263087909
 20
10.31944979821753
 10
12.39815448161489
 20
10.19529592388534
 10
12.46185406786949
 20
10.07141480878483
 10
12.52611070828282
 20
9.947821606206625
 10
12.59095372149481
 20
9.824531469441387
 10
12.65641242614541
 20
9.701559551779759
 10
12.72251614087453
 20
9.578921006512391
 10
12.78929418432212
 20
9.456630986929932
 10
12.78929418432211
 20
9.456630986929928
 10
12.88090893732807
 20
9.290398283099237
 10
12.97290203374036
 20
9.124347551223227
 10
13.06528008885032
 20
8.958486074139303
 10
13.15804971794928
 20
8.792821134684876
 10
13.25121753632857
 20
8.627360015697357
 10
13.34479015927955
 20
8.462110000014154
 10
13.43877420209353
 20
8.297078370472677
 10
13.53317628006187
 20
8.132272409910337
 10
13.62800300847588
 20
7.967699401164542
 10
13.72326100262692
 20
7.803366627072701
 10
13.81895687780632
 20
7.639281370472226
 10
13.91509724930541
 20
7.475450914200525
 10
14.01168873241552
 20
7.311882541095008
 10
14.10873794242801
 20
7.148583533993084
 10
14.20625149463419
 20
6.985561175732164
 10
14.30423600432541
 20
6.822822749149657
 10
14.40269808679301
 20
6.660375537082972
 10
14.50164435732831
 20
6.498226822369519
 10
14.60108143122266
 20
6.336383887846708
 10
14.7010159237674
 20
6.174854016351948
 10
14.80145445025384
 20
6.01364449072265
 10
14.90240362597335
 20
5.852762593796222
 10
15.00387006621725
 20
5.692215608410074
 10
15.10586038627688
 20
5.532010817401616
 10
15.20838120144357
 20
5.372155503608258
 10
15.31143912700865
 20
5.212656949867409
 10
15.41504077826347
 20
5.053522439016479
 10
15.51919277049937
 20
4.894759253892877
 10
15.62390171900768
 20
4.736374677334013
 10
15.72917423907972
 20
4.578375992177297
 10
15.83501694600685
 20
4.420770481260138
 10
15.9414364550804
 20
4.263565427419946
 10
16.0484393815917
 20
4.106768113494131
 10
16.15603234083209
 20
3.950385822320102
 10
16.2642219480929
 20
3.794425836735268
 10
16.37301481866547
 20
3.63889543957704
 10
16.48241756784114
 20
3.483801913682827
 10
16.48241756784114
 20
3.483801913682828
 10
16.55540370129815
 20
3.381425792832911
 10
16.62897932589883
 20
3.27949558562675
 10
16.70312205590356
 20
3.177994358634836
 10
16.77780950557268
 20
3.076905178427659
 10
16.85301928916659
 20
2.97621111157571
 10
16.92872902094563
 20
2.875895224649478
 10
17.00491631517018
 20
2.775940584219454
 10
17.0815587861006
 20
2.676330256856129
 10
17.15863404799727
 20
2.577047309129992
 10
17.23611971512054
 20
2.478074807611534
 10
17.31399340173079
 20
2.379395818871245
 10
17.39223272208838
 20
2.280993409479615
 10
17.47081529045368
 20
2.182850646007134
 10
17.54971872108705
 20
2.084950595024293
 10
17.62892062824887
 20
1.987276323101583
 10
17.7083986261995
 20
1.889810896809492
 10
17.7881303291993
 20
1.792537382718513
 10
17.86809335150864
 20
1.695438847399134
 10
17.94826530738789
 20
1.598498357421845
 10
18.02862381109742
 20
1.501698979357139
 10
18.10914647689759
 20
1.405023779775503
 10
18.18981091904878
 20
1.30845582524743
 10
18.27059475181133
 20
1.211978182343408
 10
18.35147558944564
 20
1.115573917633929
 10
18.43243104621205
 20
1.019226097689482
 10
18.51343873637095
 20
0.9229177890805587
 10
18.59447627418268
 20
0.8266320583776476
 10
18.67552127390762
 20
0.7303519721512398
 10
18.75655134980615
 20
0.6340605969718255
 10
18.83754411613862
 20
0.5377409994098949
 10
18.9184771871654
 20
0.4413762460359384
 10
18.99932817714686
 20
0.3449494034204461
 10
19.08007470034336
 20
0.2484435381339082
 10
19.16069437101527
 20
0.1518417167468152
 10
19.24116480342297
 20
0.0551270058296571
 10
19.32146361182681
 20
-0.0417175280470757
 10
19.40156841048716
 20
-0.138708818312893
 10
19.48145681366439
 20
-0.2358637983973046
 10
19.56110643561887
 20
-0.3331994017298201
 10
19.64049489061096
 20
-0.4307325617399495
 10
19.71959979290104
 20
-0.5284802118572023
  0
LWPOLYLINE
  5
253
330
1F
100
AcDbEntity
  8
Vector Layer 1
 62
    18
420
        0
370
    30
100
AcDbPolyline
 90
      163
 70
     0
 43
0.0
 10
8.503447294806212
 20
9.866978022496519
 10
8.562680671424329
 20
9.717686176364136
 10
8.621581914350604
 20
9.568254188438027
 10
8.680184236954223
 20
9.418696072897565
 10
8.738520852604368
 20
9.269025843922126
 10
8.796624974670224
 20
9.119257515691078
 10
8.854529816520976
 20
8.969405102383795
 10
8.912268591525807
 20
8.819482618179652
 10
8.9698745130539
 20
8.669504077258018
 10
9.027380794474442
 20
8.519483493798267
 10
9.084820649156615
 20
8.369434881979771
 10
9.142227290469604
 20
8.219372255981902
 10
9.199633931782592
 20
8.069309629984033
 10
9.257073786464765
 20
7.919261018165537
 10
9.314580067885307
 20
7.769240434705785
 10
9.3721859894134
 20
7.619261893784152
 10
9.429924764418231
 20
7.469339409580007
 10
9.487829606268983
 20
7.319486996272726
 10
9.545933728334839
 20
7.169718668041678
 10
9.604270343984984
 20
7.020048439066238
 10
9.662872666588603
 20
6.870490323525777
 10
9.721773909514878
 20
6.721058335599669
 10
9.781007286132995
 20
6.571766489467284
 10
9.840606009812137
 20
6.422628799307997
 10
9.900603293921491
 20
6.273659279301178
 10
9.961032351830239
 20
6.124871943626202
 10
10.02192639690756
 20
5.97628080646244
 10
10.08331864252265
 20
5.827899881989265
 10
10.14524230204469
 20
5.679743184386048
 10
10.20773058884285
 20
5.531824727832163
 10
10.27081671628633
 20
5.384158526506983
 10
10.33453389774431
 20
5.236758594589878
 10
10.39891534658598
 20
5.089638946260222
 10
10.46399427618051
 20
4.942813595697388
 10
10.46399427618051
 20
4.942813595697387
 10
10.54646388907729
 20
4.758479894717591
 10
10.62932911594222
 20
4.574303144876314
 10
10.7125990163018
 20
4.390290751356699
 10
10.79628264968251
 20
4.206450119341886
 10
10.88038907561087
 20
4.022788654015016
 10
10.96492735361336
 20
3.83931376055923
 10
11.0499065432165
 20
3.656032844157669
 10
11.13533570394677
 20
3.472953309993473
 10
11.22122389533068
 20
3.290082563249784
 10
11.30758017689473
 20
3.107428009109742
 10
11.39441360816541
 20
2.924997052756489
 10
11.48173324866923
 20
2.742797099373165
 10
11.56954815793268
 20
2.560835554142911
 10
11.65786739548227
 20
2.379119822248868
 10
11.74670002084448
 20
2.197657308874177
 10
11.83605509354583
 20
2.016455419201979
 10
11.92594167311281
 20
1.835521558415414
 10
12.01636881907192
 20
1.654863131697624
 10
12.10734559094966
 20
1.474487544231749
 10
12.19888104827253
 20
1.29440220120093
 10
12.29098425056702
 20
1.114614507788308
 10
12.38366425735964
 20
0.9351318691770254
 10
12.47693012817689
 20
0.7559616905502211
 10
12.57079092254526
 20
0.5771113770910363
 10
12.66525569999125
 20
0.3985883339826123
 10
12.76033352004136
 20
0.22039996640809
 10
12.8560334422221
 20
0.0425536795506101
 10
12.95236452605996
 20
-0.1349431214066865
 10
13.04933583108144
 20
-0.3120830312806588
 10
13.14695641681304
 20
-0.4888586448881661
 10
13.24523534278126
 20
-0.6652625570460673
 10
13.24523534278126
 20
-0.665262557046068
 10
13.30743285291871
 20
-0.7763627882427882
 10
13.36969477073279
 20
-0.887465683160925
 10
13.43203380643795
 20
-0.9985607902391201
 10
13.49446267024865
 20
-1.109637657916014
 10
13.55699407237936
 20
-1.220685834630249
 10
13.61964072304453
 20
-1.331694868820466
 10
13.68241533245862
 20
-1.442654308925306
 10
13.74533061083611
 20
-1.553553703383411
 10
13.80839926839144
 20
-1.664382600633421
 10
13.87163401533909
 20
-1.775130549113977
 10
13.9350475618935
 20
-1.885787097263722
 10
13.99865261826915
 20
-1.996341793521296
 10
14.06246189468049
 20
-2.106784186325341
 10
14.12648810134199
 20
-2.217103824114497
 10
14.1907439484681
 20
-2.327290255327407
 10
14.25524214627329
 20
-2.437333028402711
 10
14.31999540497202
 20
-2.54722169177905
 10
14.38501643477875
 20
-2.656945793895066
 10
14.45031794590794
 20
-2.7664948831894
 10
14.51591264857406
 20
-2.875858508100694
 10
14.58181325299155
 20
-2.985026217067588
 10
14.64803246937489
 20
-3.093987558528724
 10
14.71458300793854
 20
-3.202732080922743
 10
14.78147757889695
 20
-3.311249332688286
 10
14.84872889246459
 20
-3.419528862263994
 10
14.91634965885593
 20
-3.52756021808851
 10
14.98435258828541
 20
-3.635332948600474
 10
15.05275039096751
 20
-3.742836602238527
 10
15.12155577711667
 20
-3.85006072744131
 10
15.19078145694738
 20
-3.956994872647465
 10
15.26044014067408
 20
-4.063628586295632
 10
15.33054453851123
 20
-4.169951416824455
 10
15.40110736067331
 20
-4.275952912672572
 10
15.47214131737476
 20
-4.381622622278626
 10
15.54365911883006
 20
-4.486950094081259
 10
15.61567347525365
 20
-4.591924876519111
 10
15.68819709686001
 20
-4.696536518030823
 10
15.76124269386359
 20
-4.800774567055037
 10
15.83482297647887
 20
-4.904628572030394
 10
15.90895065492028
 20
-5.008088081395535
 10
15.9836384394023
 20
-5.111142643589102
 10
16.0588990401394
 20
-5.213781807049735
 10
16.13474516734602
 20
-5.315995120216076
 10
16.21118953123664
 20
-5.417772131526766
 10
16.2882448420257
 20
-5.519102389420447
 10
16.2882448420257
 20
-5.519102389420446
 10
16.3515947769228
 20
-5.601261246500031
 10
16.41551846449726
 20
-5.68293708183924
 10
16.4799981598209
 20
-5.764144834254786
 10
16.54501611796556
 20
-5.844899442563383
 10
16.61055459400308
 20
-5.925215845581742
 10
16.67659584300528
 20
-6.005108982126575
 10
16.74312212004402
 20
-6.084593791014596
 10
16.8101156801911
 20
-6.163685211062518
 10
16.87755877851839
 20
-6.242398181087053
 10
16.9454336700977
 20
-6.320747639904913
 10
17.01372261000088
 20
-6.398748526332812
 10
17.08240785329975
 20
-6.476415779187461
 10
17.15147165506615
 20
-6.553764337285574
 10
17.22089627037193
 20
-6.630809139443863
 10
17.29066395428889
 20
-6.707565124479041
 10
17.3607569618889
 20
-6.784047231207821
 10
17.43115754824377
 20
-6.860270398446914
 10
17.50184796842535
 20
-6.936249565013034
 10
17.57281047750546
 20
-7.011999669722894
 10
17.64402733055596
 20
-7.087535651393205
 10
17.71548078264865
 20
-7.162872448840682
 10
17.78715308885539
 20
-7.238025000882037
 10
17.85902650424801
 20
-7.31300824633398
 10
17.93108328389833
 20
-7.387837124013227
 10
18.0033056828782
 20
-7.462526572736489
 10
18.07567595625945
 20
-7.537091531320479
 10
18.14817635911391
 20
-7.611546938581909
 10
18.22078914651342
 20
-7.685907733337493
 10
18.29349657352981
 20
-7.760188854403942
 10
18.36628089523492
 20
-7.834405240597971
 10
18.43912436670059
 20
-7.90857183073629
 10
18.51200924299864
 20
-7.982703563635613
 10
18.58491777920091
 20
-8.056815378112652
 10
18.65783223037923
 20
-8.13092221298412
 10
18.73073485160545
 20
-8.205039007066732
 10
18.80360789795139
 20
-8.279180699177198
 10
18.87643362448889
 20
-8.35336222813223
 10
18.94919428628978
 20
-8.427598532748541
 10
19.0218721384259
 20
-8.501904551842846
 10
19.09444943596908
 20
-8.576295224231856
 10
19.16690843399115
 20
-8.650785488732282
 10
19.23923138756396
 20
-8.725390284160839
 10
19.31140055175933
 20
-8.800124549334238
 10
19.3833981816491
 20
-8.875003223069194
 10
19.45520653230511
 20
-8.950041244182418
 10
19.52680785879919
 20
-9.025253551490623
 10
19.59818441620317
 20
-9.10065508381052
 10
19.66931845958888
 20
-9.176260779958825
 10
19.74019224402817
 20
-9.252085578752248
 10
19.81078802459286
 20
-9.328144419007504
  0
LWPOLYLINE
  5
254
330
1F
100
AcDbEntity
  8
Vector Layer 1
 62
    18
420
        0
370
    30
100
AcDbPolyline
 90
      210
 70
     0
 43
0.0
 10
6.907653240199222
 20
6.401825277711946
 10
6.923908408801979
 20
6.310287627215465
 10
6.93981169282411
 20
6.218669588065768
 10
6.955388226878516
 20
6.126976902309513
 10
6.970663145578099
 20
6.035215311993357
 10
6.985661583535762
 20
5.943390559163959
 10
7.000408675364405
 20
5.851508385867978
 10
7.014929555676931
 20
5.759574534152072
 10
7.029249359086242
 20
5.667594746062899
 10
7.043393220205239
 20
5.575574763647118
 10
7.057386273646825
 20
5.483520328951387
 10
7.071253654023902
 20
5.391437184022364
 10
7.08502049594937
 20
5.299331070906708
 10
7.098711934036133
 20
5.207207731651077
 10
7.112353102897093
 20
5.11507290830213
 10
7.12596913714515
 20
5.022932342906523
 10
7.139585171393208
 20
4.930791777510917
 10
7.153226340254168
 20
4.838656954161969
 10
7.166917778340931
 20
4.746533614906338
 10
7.180684620266399
 20
4.654427501790682
 10
7.194552000643476
 20
4.562344356861659
 10
7.208545054085061
 20
4.470289922165928
 10
7.222688915204058
 20
4.378269939750147
 10
7.23700871861337
 20
4.286290151660974
 10
7.251529598925896
 20
4.194356299945068
 10
7.266276690754539
 20
4.102474126649087
 10
7.281275128712201
 20
4.010649373819689
 10
7.296550047411784
 20
3.918887783503533
 10
7.312126581466189
 20
3.827195097747278
 10
7.32802986548832
 20
3.73557705859758
 10
7.344285034091077
 20
3.644039408101099
 10
7.360917221887363
 20
3.552587888304493
 10
7.377951563490079
 20
3.461228241254421
 10
7.395413193512128
 20
3.36996620899754
 10
7.413327246566411
 20
3.27880753358051
 10
7.43171885726583
 20
3.187757957049987
 10
7.450613160223287
 20
3.096823221452632
 10
7.470035290051684
 20
3.006009068835101
 10
7.490010381363923
 20
2.915321241244054
 10
7.510563568772905
 20
2.824765480726149
 10
7.531719986891533
 20
2.734347529328044
 10
7.553504770332709
 20
2.644073129096397
 10
7.575943053709335
 20
2.553948022077867
 10
7.599059971634312
 20
2.463977950319112
 10
7.622880658720542
 20
2.37416865586679
 10
7.647430249580927
 20
2.284525880767561
 10
7.647430249580923
 20
2.284525880767562
 10
7.686788971079922
 20
2.144529158641764
 10
7.726879054622923
 20
2.004746098677423
 10
7.767687657000657
 20
1.865174288046977
 10
7.809201935003855
 20
1.725811313922868
 10
7.851409045423246
 20
1.586654763477535
 10
7.894296145049563
 20
1.447702223883419
 10
7.937850390673534
 20
1.308951282312959
 10
7.982058939085891
 20
1.170399525938596
 10
8.026908947077362
 20
1.03204454193277
 10
8.072387571438682
 20
0.8938839174679216
 10
8.118481968960578
 20
0.7559152397164902
 10
8.16517929643378
 20
0.6181360958509164
 10
8.212466710649021
 20
0.4805440730436402
 10
8.26033136839703
 20
0.343136758467102
 10
8.308760426468538
 20
0.2059117392937418
 10
8.357741041654275
 20
0.0688666026959999
 10
8.407260370744971
 20
-0.0680010641536838
 10
8.457305570531358
 20
-0.2046936740828688
 10
8.507863797804166
 20
-0.3412136399191151
 10
8.558922209354124
 20
-0.4775633744899827
 10
8.610467961971963
 20
-0.613745290623031
 10
8.662488212448415
 20
-0.7497618011458202
 10
8.71497011757421
 20
-0.8856153188859099
 10
8.767900834140078
 20
-1.02130825667086
 10
8.821267518936748
 20
-1.15684302732823
 10
8.875057328754952
 20
-1.29222204368558
 10
8.92925742038542
 20
-1.427447718570471
 10
8.983854950618884
 20
-1.562522464810461
 10
9.038837076246073
 20
-1.697448695233111
 10
9.094190954057717
 20
-1.83222882266598
 10
9.149903740844548
 20
-1.966865259936629
 10
9.205962593397295
 20
-2.101360419872616
 10
9.26235466850669
 20
-2.235716715301503
 10
9.319067122963462
 20
-2.369936559050848
 10
9.376087113558341
 20
-2.504022363948212
 10
9.433401797082058
 20
-2.637976542821154
 10
9.490998330325346
 20
-2.771801508497235
 10
9.548863870078934
 20
-2.905499673804013
 10
9.606985573133551
 20
-3.03907345156905
 10
9.665350596279928
 20
-3.172525254619904
 10
9.723946096308797
 20
-3.305857495784136
 10
9.782759230010885
 20
-3.439072587889305
 10
9.841777154176925
 20
-3.572172943762971
 10
9.900987025597649
 20
-3.705160976232694
 10
9.960376001063785
 20
-3.838039098126035
 10
10.01993123736606
 20
-3.970809722270551
 10
10.07963989129522
 20
-4.103475261493805
 10
10.13948911964197
 20
-4.236038128623355
 10
10.13948911964197
 20
-4.236038128623355
 10
10.20335846982713
 20
-4.37685699720451
 10
10.26757604239677
 20
-4.517550365103437
 10
10.33215058495349
 20
-4.658110022027127
 10
10.39709084509987
 20
-4.798527757682572
 10
10.46240557043851
 20
-4.938795361776765
 10
10.52810350857202
 20
-5.078904624016697
 10
10.59419340710299
 20
-5.21884733410936
 10
10.66068401363401
 20
-5.358615281761746
 10
10.72758407576768
 20
-5.498200256680847
 10
10.7949023411066
 20
-5.637594048573656
 10
10.86264755725337
 20
-5.776788447147162
 10
10.93082847181058
 20
-5.91577524210836
 10
10.99945383238082
 20
-6.05454622316424
 10
11.06853238656671
 20
-6.193093180021794
 10
11.13807288197082
 20
-6.331407902388014
 10
11.20808406619576
 20
-6.469482179969893
 10
11.27857468684413
 20
-6.607307802474422
 10
11.34955349151852
 20
-6.744876559608592
 10
11.42102922782153
 20
-6.882180241079397
 10
11.49301064335575
 20
-7.019210636593827
 10
11.56550648572379
 20
-7.155959535858875
 10
11.63852550252824
 20
-7.292418728581533
 10
11.71207644137169
 20
-7.428580004468792
 10
11.78616804985674
 20
-7.564435153227645
 10
11.86080907558599
 20
-7.699975964565083
 10
11.93600826616203
 20
-7.835194228188098
 10
12.01177436918748
 20
-7.970081733803682
 10
12.0881161322649
 20
-8.104630271118827
 10
12.16504230299692
 20
-8.238831629840525
 10
12.24256162898611
 20
-8.372677599675768
 10
12.32068285783509
 20
-8.506159970331546
 10
12.39941473714644
 20
-8.639270531514855
 10
12.47876601452276
 20
-8.772001072932683
 10
12.55874543756665
 20
-8.904343384292022
 10
12.63936175388071
 20
-9.036289255299868
 10
12.72062371106752
 20
-9.167830475663208
 10
12.8025400567297
 20
-9.298958835089036
 10
12.8025400567297
 20
-9.298958835089036
 10
12.87529252146045
 20
-9.414049519120281
 10
12.94867830026082
 20
-9.528735775761209
 10
13.02268335671679
 20
-9.643024632824788
 10
13.09729365441432
 20
-9.756923118123991
 10
13.17249515693939
 20
-9.870438259471784
 10
13.24827382787797
 20
-9.983577084681138
 10
13.32461563081602
 20
-10.09634662156502
 10
13.40150652933952
 20
-10.20875389793641
 10
13.47893248703443
 20
-10.32080594160827
 10
13.55687946748673
 20
-10.43250978039357
 10
13.6353334342824
 20
-10.54387244210527
 10
13.71428035100739
 20
-10.65490095455636
 10
13.79370618124767
 20
-10.7656023455598
 10
13.87359688858923
 20
-10.87598364292855
 10
13.95393843661803
 20
-10.9860518744756
 10
14.03471678892003
 20
-11.0958140680139
 10
14.11591790908122
 20
-11.20527725135643
 10
14.19752776068756
 20
-11.31444845231616
 10
14.27953230732501
 20
-11.42333469870606
 10
14.36191751257956
 20
-11.53194301833909
 10
14.44466934003717
 20
-11.64028043902824
 10
14.52777375328382
 20
-11.74835398858646
 10
14.61121671590546
 20
-11.85617069482672
 10
14.69498419148808
 20
-11.96373758556201
 10
14.77906214361764
 20
-12.07106168860528
 10
14.86343653588012
 20
-12.1781500317695
 10
14.94809333186148
 20
-12.28500964286765
 10
15.03301849514769
 20
-12.39164754971269
 10
15.11819798932473
 20
-12.4980707801176
 10
15.20361777797856
 20
-12.60428636189535
 10
15.28926382469516
 20
-12.7103013228589
 10
15.3751220930605
 20
-12.81612269082122
 10
15.46117854666054
 20
-12.92175749359529
 10
15.54741914908126
 20
-13.02721275899407
 10
15.63382986390862
 20
-13.13249551483054
 10
15.72039665472861
 20
-13.23761278891765
 10
15.72039665472861
 20
-13.23761278891766
 10
15.81175264855964
 20
-13.34777375899722
 10
15.90366358805319
 20
-13.45745214343877
 10
15.99610727538275
 20
-13.56666724566784
 10
16.08906151272181
 20
-13.67543836910994
 10
16.18250410224389
 20
-13.7837848171906
 10
16.27641284612247
 20
-13.89172589333533
 10
16.37076554653106
 20
-13.99928090096965
 10
16.46554000564315
 20
-14.1064691435191
 10
16.56071402563225
 20
-14.21330992440918
 10
16.65626540867186
 20
-14.31982254706541
 10
16.75217195693547
 20
-14.42602631491332
 10
16.84841147259659
 20
-14.53194053137843
 10
16.94496175782871
 20
-14.63758449988626
 10
17.04180061480534
 20
-14.74297752386232
 10
17.13890584569997
 20
-14.84813890673214
 10
17.2362552526861
 20
-14.95308795192123
 10
17.33382663793724
 20
-15.05784396285513
 10
17.43159780362688
 20
-15.16242624295934
 10
17.52954655192853
 20
-15.26685409565939
 10
17.62765068501568
 20
-15.3711468243808
 10
17.72588800506182
 20
-15.47532373254909
 10
17.82423631424047
 20
-15.57940412358977
 10
17.92267341472513
 20
-15.68340730092838
 10
18.02117710868928
 20
-15.78735256799042
 10
18.11972519830644
 20
-15.89125922820143
 10
18.21829548575009
 20
-15.99514658498691
 10
18.31686577319374
 20
-16.0990339417724
 10
18.4154138628109
 20
-16.2029406019834
 10
18.51391755677505
 20
-16.30688586904544
 10
18.6123546572597
 20
-16.41088904638405
 10
18.71070296643835
 20
-16.51496943742473
 10
18.8089402864845
 20
-16.61914634559302
 10
18.90704441957165
 20
-16.72343907431443
 10
19.00499316787329
 20
-16.82786692701448
 10
19.10276433356294
 20
-16.93244920711869
 10
19.20033571881408
 20
-17.03720521805259
 10
19.29768512580021
 20
-17.14215426324168
 10
19.39479035669484
 20
-17.2473156461115
 10
19.49162921367147
 20
-17.35270867008757
  0
ENDSEC
  0
SECTION
  2
OBJECTS
  0
DICTIONARY
  5
C
330
0
100
AcDbDictionary
281
     1
  3
ACAD_CIP_PREVIOUS_PRODUCT_INFO
350
216
  3
ACAD_COLOR
350
6B
  3
ACAD_DETAILVIEWSTYLE
350
21B
  3
ACAD_GROUP
350
D
  3
ACAD_LAYOUT
350
1A
  3
ACAD_MATERIAL
350
6A
  3
ACAD_MLEADERSTYLE
350
12D
  3
ACAD_MLINESTYLE
350
17
  3
ACAD_PLOTSETTINGS
350
19
  3
ACAD_PLOTSTYLENAME
350
E
  3
ACAD_SCALELIST
350
10C
  3
ACAD_SECTIONVIEWSTYLE
350
219
  3
ACAD_TABLESTYLE
350
7E
  3
ACAD_VISUALSTYLE
350
EF
  3
ACDB_RECOMPOSE_DATA
350
257
  3
AcDbVariableDictionary
350
5E
  3
AcDsDecomposeData
350
25D
  0
DICTIONARY
  5
1FF
330
2
100
AcDbDictionary
280
     1
281
     1
  3
ACAD_LAYERSTATES
360
200
  0
DICTIONARY
  5
13C
330
10
100
AcDbDictionary
280
     1
281
     1
  0
DICTIONARY
  5
1CE
330
1F
100
AcDbDictionary
280
     1
281
     1
  0
XRECORD
  5
216
102
{ACAD_REACTORS
330
C
102
}
330
C
100
AcDbXrecord
280
     1
300
ACD
300
2015
300

  0
DICTIONARY
  5
6B
102
{ACAD_REACTORS
330
C
102
}
330
C
100
AcDbDictionary
281
     1
  0
DICTIONARY
  5
21B
102
{ACAD_REACTORS
330
C
102
}
330
C
100
AcDbDictionary
281
     1
  3
Metric50
350
21C
  0
DICTIONARY
  5
D
102
{ACAD_REACTORS
330
C
102
}
330
C
100
AcDbDictionary
281
     1
  0
DICTIONARY
  5
1A
102
{ACAD_REACTORS
330
C
102
}
330
C
100
AcDbDictionary
281
     1
  3
Layout1
350
D3
  3
Layout2
350
D7
  3
Model
350
22
  0
DICTIONARY
  5
6A
102
{ACAD_REACTORS
330
C
102
}
330
C
100
AcDbDictionary
281
     1
  3
ByBlock
350
ED
  3
ByLayer
350
EC
  3
Global
350
EE
  0
DICTIONARY
  5
12D
102
{ACAD_REACTORS
330
C
102
}
330
C
100
AcDbDictionary
281
     1
  3
Annotative
350
13B
  3
Standard
350
12E
  0
DICTIONARY
  5
17
102
{ACAD_REACTORS
330
C
102
}
330
C
100
AcDbDictionary
281
     1
  3
Standard
350
18
  0
DICTIONARY
  5
19
102
{ACAD_REACTORS
330
C
102
}
330
C
100
AcDbDictionary
281
     1
  0
ACDBDICTIONARYWDFLT
  5
E
102
{ACAD_REACTORS
330
C
102
}
330
C
100
AcDbDictionary
281
     1
  3
Normal
350
F
100
AcDbDictionaryWithDefault
340
F
  0
DICTIONARY
  5
10C
102
{ACAD_REACTORS
330
C
102
}
330
C
100
AcDbDictionary
281
     1
  3
A0
350
10D
  3
A1
350
1BE
  3
A2
350
1BF
  3
A3
350
1C0
  3
A4
350
1C1
  3
A5
350
1C2
  3
A6
350
1C3
  3
A7
350
1C4
  3
A8
350
1C5
  3
A9
350
1C6
  3
B0
350
1C7
  3
B1
350
1C8
  3
B2
350
1C9
  3
B3
350
1CA
  3
B4
350
1CB
  3
B5
350
1CC
  3
B6
350
1CD
  0
DICTIONARY
  5
219
102
{ACAD_REACTORS
330
C
102
}
330
C
100
AcDbDictionary
281
     1
  3
Metric50
350
21A
  0
DICTIONARY
  5
7E
102
{ACAD_REACTORS
330
C
102
}
330
C
100
AcDbDictionary
281
     1
  3
Standard
350
7F
  0
DICTIONARY
  5
EF
102
{ACAD_REACTORS
330
C
102
}
330
C
100
AcDbDictionary
281
     1
  3
2dWireframe
350
F5
  3
Basic
350
F4
  3
Brighten
350
FB
  3
ColorChange
350
FF
  3
Conceptual
350
F8
  3
Dim
350
FA
  3
EdgeColorOff
350
1E6
  3
Facepattern
350
FE
  3
Flat
350
F0
  3
FlatWithEdges
350
F1
  3
Gouraud
350
F2
  3
GouraudWithEdges
350
F3
  3
Hidden
350
F7
  3
JitterOff
350
1E4
  3
Linepattern
350
FD
  3
OverhangOff
350
1E5
  3
Realistic
350
F9
  3
Shaded
350
1F3
  3
Shaded with edges
350
1F2
  3
Shades of Gray
350
1EF
  3
Sketchy
350
1F0
  3
Thicken
350
FC
  3
Wireframe
350
F6
  3
X-Ray
350
1F1
  0
XRECORD
  5
257
102
{ACAD_REACTORS
330
C
102
}
330
C
100
AcDbXrecord
280
     1
 90
        1
330
7F
  0
DICTIONARY
  5
5E
102
{ACAD_REACTORS
330
C
102
}
330
C
100
AcDbDictionary
281
     1
  3
CANNOSCALE
350
146
  3
CMLEADERSTYLE
350
145
  3
CTABLESTYLE
350
84
  3
CVIEWDETAILSTYLE
350
227
  3
CVIEWSECTIONSTYLE
350
228
  3
DIMASSOC
350
5F
  3
HIDETEXT
350
63
  3
LAYEREVAL
350
1AE
  3
LAYERNOTIFY
350
1AF
  3
XCLIPFRAME
350
255
  0
DICTIONARY
  5
25D
102
{ACAD_REACTORS
330
C
102
}
330
C
100
AcDbDictionary
281
     1
  3
AcDsRecords
350
25F
  3
AcDsSchemas
350
25E
1001
ACAD
1070
     2
  0
DICTIONARY
  5
200
102
{ACAD_REACTORS
330
1FF
102
}
330
1FF
100
AcDbDictionary
281
     1
  0
ACDBDETAILVIEWSTYLE
  5
21C
102
{ACAD_XDICTIONARY
360
236
102
}
102
{ACAD_REACTORS
330
21B
102
}
330
21B
100
AcDbModelDocViewStyle
 70
     0
  3
Metric50
290
     0
100
AcDbDetailViewStyle
 70
     0
 71
     0
 90
        3
 71
     1
340
11
 62
   256
 40
5.0
340
0
 62
   256
 40
5.0
300

 40
0.0
280
     1
 71
     2
340
16
 90
       25
 62
   256
 71
     3
340
11
 62
   256
 40
5.0
 90
        0
 40
15.0
 90
        1
300
%<\AcVar ViewDetailId>% (%<\AcVar ViewScale \f "%sn">%)
 71
     4
340
16
 90
       25
 62
   256
340
16
 90
       25
 62
   256
280
     0
  0
LAYOUT
  5
D3
102
{ACAD_REACTORS
330
1A
102
}
330
1A
100
AcDbPlotSettings
  1

  2
C:\Documents and Settings\basas\Application Data\Autodesk\AutoCAD 2005\R16.1\enu\plotters\Default Windows System Printer.pc3
  4

  6

 40
0.0
 41
0.0
 42
0.0
 43
0.0
 44
0.0
 45
0.0
 46
0.0
 47
0.0
 48
0.0
 49
0.0
140
0.0
141
0.0
142
1.0
143
1.0
 70
   688
 72
     0
 73
     0
 74
     5
  7

 75
    16
147
1.0
 76
     0
 77
     2
 78
   300
148
0.0
149
0.0
100
AcDbLayout
  1
Layout1
 70
     1
 71
     1
 10
0.0
 20
0.0
 11
12.0
 21
9.0
 12
0.0
 22
0.0
 32
0.0
 14
0.0
 24
0.0
 34
0.0
 15
0.0
 25
0.0
 35
0.0
146
0.0
 13
0.0
 23
0.0
 33
0.0
 16
1.0
 26
0.0
 36
0.0
 17
0.0
 27
1.0
 37
0.0
 76
     0
330
D2
  0
LAYOUT
  5
D7
102
{ACAD_REACTORS
330
1A
102
}
330
1A
100
AcDbPlotSettings
  1

  2
C:\Documents and Settings\basas\Application Data\Autodesk\AutoCAD 2005\R16.1\enu\plotters\Default Windows System Printer.pc3
  4

  6

 40
0.0
 41
0.0
 42
0.0
 43
0.0
 44
0.0
 45
0.0
 46
0.0
 47
0.0
 48
0.0
 49
0.0
140
0.0
141
0.0
142
1.0
143
1.0
 70
   688
 72
     0
 73
     0
 74
     5
  7

 75
    16
147
1.0
 76
     0
 77
     2
 78
   300
148
0.0
149
0.0
100
AcDbLayout
  1
Layout2
 70
     1
 71
     2
 10
0.0
 20
0.0
 11
12.0
 21
9.0
 12
0.0
 22
0.0
 32
0.0
 14
0.0
 24
0.0
 34
0.0
 15
0.0
 25
0.0
 35
0.0
146
0.0
 13
0.0
 23
0.0
 33
0.0
 16
1.0
 26
0.0
 36
0.0
 17
0.0
 27
1.0
 37
0.0
 76
     0
330
D6
  0
LAYOUT
  5
22
102
{ACAD_XDICTIONARY
360
205
102
}
102
{ACAD_REACTORS
330
1A
102
}
330
1A
100
AcDbPlotSettings
  1

  2
none_device
  4
ISO_A4_(210.00_x_297.00_MM)
  6

 40
7.5
 41
20.0
 42
7.5
 43
20.0
 44
210.0
 45
297.0
 46
11.54999923706054
 47
-13.65000009536743
 48
0.0
 49
0.0
140
0.0
141
0.0
142
1.0
143
8.704084754739808
 70
 11952
 72
     1
 73
     0
 74
     0
  7

 75
     0
147
0.1148885871608098
 76
     0
 77
     2
 78
   300
148
0.0
149
0.0
100
AcDbLayout
  1
Model
 70
     1
 71
     0
 10
0.0
 20
0.0
 11
12.0
 21
9.0
 12
0.0
 22
0.0
 32
0.0
 14
0.0
 24
0.0
 34
0.0
 15
0.0
 25
0.0
 35
0.0
146
0.0
 13
0.0
 23
0.0
 33
0.0
 16
1.0
 26
0.0
 36
0.0
 17
0.0
 27
1.0
 37
0.0
 76
     0
330
1F
331
EA
1001
ACAD_PSEXT
1000
None
1000
None
1000
Not applicable
1000
The layout will not be plotted unless a new plotter configuration name is selected.
1070
     0
  0
MATERIAL
  5
ED
102
{ACAD_XDICTIONARY
360
1F9
102
}
102
{ACAD_REACTORS
330
6A
102
}
330
6A
100
AcDbMaterial
  1
ByBlock
 94
       63
  0
MATERIAL
  5
EC
102
{ACAD_XDICTIONARY
360
1F7
102
}
102
{ACAD_REACTORS
330
6A
102
}
330
6A
100
AcDbMaterial
  1
ByLayer
 94
       63
  0
MATERIAL
  5
EE
102
{ACAD_XDICTIONARY
360
173
102
}
102
{ACAD_REACTORS
330
6A
102
}
330
6A
100
AcDbMaterial
  1
Global
 43
0.0007999999797903
 43
0.0
 43
0.0
 43
0.0
 43
0.0
 43
0.0007999999797903
 43
0.0
 43
0.0
 43
0.0
 43
0.0
 43
1.0
 43
0.0
 43
0.0
 43
0.0
 43
0.0
 43
1.0
 49
0.0007999999797903
 49
0.0
 49
0.0
 49
0.0
 49
0.0
 49
0.0007999999797903
 49
0.0
 49
0.0
 49
0.0
 49
0.0
 49
1.0
 49
0.0
 49
0.0
 49
0.0
 49
0.0
 49
1.0
142
0.0007999999797903
142
0.0
142
0.0
142
0.0
142
0.0
142
0.0007999999797903
142
0.0
142
0.0
142
0.0
142
0.0
142
1.0
142
0.0
142
0.0
142
0.0
142
0.0
142
1.0
144
0.0007999999797903
144
0.0
144
0.0
144
0.0
144
0.0
144
0.0007999999797903
144
0.0
144
0.0
144
0.0
144
0.0
144
1.0
144
0.0
144
0.0
144
0.0
144
0.0
144
1.0
 94
       63
1001
ACAD
1070
    -1
1070
     3
1070
     0
1000

1071
        0
1070
     0
  0
MLEADERSTYLE
  5
13B
102
{ACAD_REACTORS
330
12D
102
}
330
12D
100
AcDbMLeaderStyle
170
     2
171
     1
172
     0
 90
        2
 40
0.0
 41
0.0
173
     1
 91
-1056964608
340
14
 92
       -2
290
     1
 42
2.0
291
     1
 43
8.0
  3
Standard
 44
4.0
300

342
11
174
     1
178
     1
175
     1
176
     0
 93
-1056964608
 45
4.0
292
     0
297
     0
 46
4.0
 94
-1056964608
 47
1.0
 49
1.0
140
1.0
293
     1
141
0.0
294
     1
177
     0
142
1.0
295
     0
296
     1
143
3.75
1001
ACAD_MLEADERVER
1070
     2
  0
MLEADERSTYLE
  5
12E
102
{ACAD_REACTORS
330
12D
102
}
330
12D
100
AcDbMLeaderStyle
170
     2
171
     1
172
     0
 90
        2
 40
0.0
 41
0.0
173
     1
 91
-1056964608
340
14
 92
       -2
290
     1
 42
2.0
291
     1
 43
8.0
  3
Standard
 44
4.0
300

342
11
174
     1
178
     1
175
     1
176
     0
 93
-1056964608
 45
4.0
292
     0
297
     0
 46
4.0
 94
-1056964608
 47
1.0
 49
1.0
140
1.0
293
     1
141
0.0
294
     1
177
     0
142
1.0
295
     0
296
     0
143
3.75
1001
ACAD_MLEADERVER
1070
     2
  0
MLINESTYLE
  5
18
102
{ACAD_REACTORS
330
17
102
}
330
17
100
AcDbMlineStyle
  2
STANDARD
 70
     0
  3

 62
   256
 51
90.0
 52
90.0
 71
     2
 49
0.5
 62
   256
  6
BYLAYER
 49
-0.5
 62
   256
  6
BYLAYER
  0
ACDBPLACEHOLDER
  5
F
102
{ACAD_REACTORS
330
E
102
}
330
E
  0
SCALE
  5
10D
102
{ACAD_REACTORS
330
10C
102
}
330
10C
100
AcDbScale
 70
     0
300
1:1
140
1.0
141
1.0
290
     1
  0
SCALE
  5
1BE
102
{ACAD_REACTORS
330
10C
102
}
330
10C
100
AcDbScale
 70
     0
300
1:2
140
1.0
141
2.0
290
     0
  0
SCALE
  5
1BF
102
{ACAD_REACTORS
330
10C
102
}
330
10C
100
AcDbScale
 70
     0
300
1:4
140
1.0
141
4.0
290
     0
  0
SCALE
  5
1C0
102
{ACAD_REACTORS
330
10C
102
}
330
10C
100
AcDbScale
 70
     0
300
1:5
140
1.0
141
5.0
290
     0
  0
SCALE
  5
1C1
102
{ACAD_REACTORS
330
10C
102
}
330
10C
100
AcDbScale
 70
     0
300
1:8
140
1.0
141
8.0
290
     0
  0
SCALE
  5
1C2
102
{ACAD_REACTORS
330
10C
102
}
330
10C
100
AcDbScale
 70
     0
300
1:10
140
1.0
141
10.0
290
     0
  0
SCALE
  5
1C3
102
{ACAD_REACTORS
330
10C
102
}
330
10C
100
AcDbScale
 70
     0
300
1:16
140
1.0
141
16.0
290
     0
  0
SCALE
  5
1C4
102
{ACAD_REACTORS
330
10C
102
}
330
10C
100
AcDbScale
 70
     0
300
1:20
140
1.0
141
20.0
290
     0
  0
SCALE
  5
1C5
102
{ACAD_REACTORS
330
10C
102
}
330
10C
100
AcDbScale
 70
     0
300
1:30
140
1.0
141
30.0
290
     0
  0
SCALE
  5
1C6
102
{ACAD_REACTORS
330
10C
102
}
330
10C
100
AcDbScale
 70
     0
300
1:40
140
1.0
141
40.0
290
     0
  0
SCALE
  5
1C7
102
{ACAD_REACTORS
330
10C
102
}
330
10C
100
AcDbScale
 70
     0
300
1:50
140
1.0
141
50.0
290
     0
  0
SCALE
  5
1C8
102
{ACAD_REACTORS
330
10C
102
}
330
10C
100
AcDbScale
 70
     0
300
1:100
140
1.0
141
100.0
290
     0
  0
SCALE
  5
1C9
102
{ACAD_REACTORS
330
10C
102
}
330
10C
100
AcDbScale
 70
     0
300
2:1
140
2.0
141
1.0
290
     0
  0
SCALE
  5
1CA
102
{ACAD_REACTORS
330
10C
102
}
330
10C
100
AcDbScale
 70
     0
300
4:1
140
4.0
141
1.0
290
     0
  0
SCALE
  5
1CB
102
{ACAD_REACTORS
330
10C
102
}
330
10C
100
AcDbScale
 70
     0
300
8:1
140
8.0
141
1.0
290
     0
  0
SCALE
  5
1CC
102
{ACAD_REACTORS
330
10C
102
}
330
10C
100
AcDbScale
 70
     0
300
10:1
140
10.0
141
1.0
290
     0
  0
SCALE
  5
1CD
102
{ACAD_REACTORS
330
10C
102
}
330
10C
100
AcDbScale
 70
     0
300
100:1
140
100.0
141
1.0
290
     0
  0
ACDBSECTIONVIEWSTYLE
  5
21A
102
{ACAD_XDICTIONARY
360
234
102
}
102
{ACAD_REACTORS
330
219
102
}
330
219
100
AcDbModelDocViewStyle
 70
     0
  3
Metric50
290
     0
100
AcDbSectionViewStyle
 70
     0
 71
     0
 90
      102
 71
     1
340
11
 62
   256
 40
5.0
340
0
340
0
 62
   256
 40
5.0
300
I, O, Q, S, X, Z
 40
10.0
 90
        0
 40
2.5
 90
        0
 71
     2
340
16
 90
       25
 62
   256
340
16
 90
       50
 62
   256
 40
5.0
 40
2.5
 40
5.0
 71
     3
340
11
 62
   256
 40
5.0
 90
        0
 40
15.0
 90
        1
300
%<\AcVar ViewSectionStartId>%-%<\AcVar ViewSectionEndId>% (%<\AcVar ViewScale \f "%sn">%)
 71
     4
 62
   256
 62
   257
300
ANSI31
 40
1.0
 90
        0
290
     0
290
     0
 90
        6
 40
0.0
 40
1.570796326794896
 40
0.2617993877991494
 40
1.308996938995747
 40
-0.2617993877991494
 40
1.832595714594046
  0
TABLESTYLE
  5
7F
102
{ACAD_XDICTIONARY
360
162
102
}
102
{ACAD_REACTORS
330
7E
102
}
330
7E
100
AcDbTableStyle
  3
Standard
 70
     0
 71
     0
 40
1.5
 41
1.5
280
     0
281
     0
  7
Standard
140
4.5
170
     2
 62
     0
 63
     7
283
     0
 90
      512
 91
        0
  1

274
    -2
284
     1
 64
     0
275
    -2
285
     1
 65
     0
276
    -2
286
     1
 66
     0
277
    -2
287
     1
 67
     0
278
    -2
288
     1
 68
     0
279
    -2
289
     1
 69
     0
  7
Standard
140
6.0
170
     5
 62
     0
 63
     7
283
     0
 90
      512
 91
        0
  1

274
    -2
284
     1
 64
     0
275
    -2
285
     1
 65
     0
276
    -2
286
     1
 66
     0
277
    -2
287
     1
 67
     0
278
    -2
288
     1
 68
     0
279
    -2
289
     1
 69
     0
  7
Standard
140
4.5
170
     5
 62
     0
 63
     7
283
     0
 90
      512
 91
        0
  1

274
    -2
284
     1
 64
     0
275
    -2
285
     1
 65
     0
276
    -2
286
     1
 66
     0
277
    -2
287
     1
 67
     0
278
    -2
288
     1
 68
     0
279
    -2
289
     1
 69
     0
  0
VISUALSTYLE
  5
F5
102
{ACAD_XDICTIONARY
360
26A
102
}
102
{ACAD_REACTORS
330
EF
102
}
330
EF
100
AcDbVisualStyle
  2
2dWireframe
 70
     4
 71
     0
 72
     2
 73
     1
 90
        0
 40
-0.6
 41
-30.0
 62
     5
 63
     7
421
 16777215
 74
     1
 91
        4
 64
     7
 65
   257
 75
     1
175
     1
 42
1.0
 92
        0
 66
   257
 43
1.0
 76
     1
 77
     6
 78
     2
 67
     7
 79
     5
170
     0
171
     0
290
     0
174
     0
 93
        1
 44
0.0
173
     0
291
     0
 45
0.0
1001
ACAD
1000
AcDbSavedByObjectVersion
1070
     0
  0
VISUALSTYLE
  5
F4
102
{ACAD_XDICTIONARY
360
268
102
}
102
{ACAD_REACTORS
330
EF
102
}
330
EF
100
AcDbVisualStyle
  2
Basic
 70
     7
 71
     1
 72
     0
 73
     1
 90
        0
 40
-0.6
 41
-30.0
 62
     5
 63
     7
421
 16777215
 74
     0
 91
        4
 64
     7
 65
   257
 75
     1
175
     1
 42
1.0
 92
        8
 66
     7
 43
1.0
 76
     1
 77
     6
 78
     2
 67
     7
 79
     5
170
     0
171
     0
290
     0
174
     0
 93
        1
 44
0.0
173
     0
291
     1
 45
0.0
1001
ACAD
1000
AcDbSavedByObjectVersion
1070
     0
  0
VISUALSTYLE
  5
FB
102
{ACAD_XDICTIONARY
360
276
102
}
102
{ACAD_REACTORS
330
EF
102
}
330
EF
100
AcDbVisualStyle
  2
Brighten
 70
    12
 71
     2
 72
     2
 73
     1
 90
        0
 40
-0.6
 41
-30.0
 62
     5
 63
     7
421
 16777215
 74
     1
 91
        4
 64
     7
 65
   257
 75
     1
175
     1
 42
1.0
 92
        8
 66
     7
 43
1.0
 76
     1
 77
     6
 78
     2
 67
     7
 79
     5
170
     0
171
     0
290
     0
174
     0
 93
        1
 44
50.0
173
     0
291
     1
 45
0.0
1001
ACAD
1000
AcDbSavedByObjectVersion
1070
     0
  0
VISUALSTYLE
  5
FF
102
{ACAD_XDICTIONARY
360
27E
102
}
102
{ACAD_REACTORS
330
EF
102
}
330
EF
100
AcDbVisualStyle
  2
ColorChange
 70
    16
 71
     2
 72
     2
 73
     3
 90
        0
 40
-0.6
 41
-30.0
 62
     5
 63
     8
421
  8421504
 74
     1
 91
        4
 64
     7
 65
   257
 75
     1
175
     1
 42
1.0
 92
        8
 66
     8
424
  8421504
 43
1.0
 76
     1
 77
     6
 78
     2
 67
     7
 79
     5
170
     0
171
     0
290
     0
174
     0
 93
        1
 44
0.0
173
     0
291
     1
 45
0.0
1001
ACAD
1000
AcDbSavedByObjectVersion
1070
     0
  0
VISUALSTYLE
  5
F8
102
{ACAD_XDICTIONARY
360
270
102
}
102
{ACAD_REACTORS
330
EF
102
}
330
EF
100
AcDbVisualStyle
  2
Conceptual
 70
     9
 71
     3
 72
     2
 73
     1
 90
        0
 40
-0.6
 41
-30.0
 62
     5
 63
     7
421
 16777215
 74
     2
 91
        2
 64
     7
 65
   257
 75
     1
175
     1
 42
40.0
 92
        8
 66
     7
 43
1.0
 76
     1
 77
     6
 78
     2
 67
     7
 79
     3
170
     0
171
     0
290
     0
174
     0
 93
        1
 44
0.0
173
     0
291
     0
 45
0.0
1001
ACAD
1000
AcDbSavedByObjectVersion
1070
     0
  0
VISUALSTYLE
  5
FA
102
{ACAD_XDICTIONARY
360
274
102
}
102
{ACAD_REACTORS
330
EF
102
}
330
EF
100
AcDbVisualStyle
  2
Dim
 70
    11
 71
     2
 72
     2
 73
     1
 90
        0
 40
-0.6
 41
-30.0
 62
     5
 63
     7
421
 16777215
 74
     1
 91
        4
 64
     7
 65
   257
 75
     1
175
     1
 42
1.0
 92
        8
 66
     7
 43
1.0
 76
     1
 77
     6
 78
     2
 67
     7
 79
     5
170
     0
171
     0
290
     0
174
     0
 93
        1
 44
-50.0
173
     0
291
     1
 45
0.0
1001
ACAD
1000
AcDbSavedByObjectVersion
1070
     0
  0
VISUALSTYLE
  5
1E6
102
{ACAD_XDICTIONARY
360
284
102
}
102
{ACAD_REACTORS
330
EF
102
}
330
EF
100
AcDbVisualStyle
  2
EdgeColorOff
 70
    22
 71
     2
 72
     2
 73
     0
 90
        0
 40
-0.6
 41
-30.0
 62
     5
 63
     7
421
 16777215
 74
     1
 91
        4
 64
     7
 65
   257
 75
     1
175
     1
 42
1.0
 92
        8
 66
     7
 43
1.0
 76
     1
 77
     6
 78
     2
 67
     7
 79
     5
170
     0
171
     0
290
     0
174
     0
 93
        1
 44
0.0
173
     0
291
     1
 45
0.0
1001
ACAD
1000
AcDbSavedByObjectVersion
1070
     0
  0
VISUALSTYLE
  5
FE
102
{ACAD_XDICTIONARY
360
27C
102
}
102
{ACAD_REACTORS
330
EF
102
}
330
EF
100
AcDbVisualStyle
  2
Facepattern
 70
    15
 71
     2
 72
     2
 73
     1
 90
        0
 40
-0.6
 41
-30.0
 62
     5
 63
     7
421
 16777215
 74
     1
 91
        4
 64
     7
 65
   257
 75
     1
175
     1
 42
1.0
 92
        8
 66
     7
 43
1.0
 76
     1
 77
     6
 78
     2
 67
     7
 79
     5
170
     0
171
     0
290
     0
174
     0
 93
        1
 44
0.0
173
     0
291
     1
 45
0.0
1001
ACAD
1000
AcDbSavedByObjectVersion
1070
     0
  0
VISUALSTYLE
  5
F0
102
{ACAD_XDICTIONARY
360
260
102
}
102
{ACAD_REACTORS
330
EF
102
}
330
EF
100
AcDbVisualStyle
  2
Flat
 70
     0
 71
     2
 72
     1
 73
     1
 90
        2
 40
-0.6
 41
30.0
 62
     5
 63
     7
421
 16777215
 74
     0
 91
        0
 64
     7
 65
   257
 75
     1
175
     1
 42
1.0
 92
        8
 66
     7
 43
1.0
 76
     1
 77
     6
 78
     2
 67
     7
 79
     5
170
     0
171
     0
290
     0
174
     0
 93
       13
 44
0.0
173
     0
291
     1
 45
0.0
1001
ACAD
1000
AcDbSavedByObjectVersion
1070
     0
  0
VISUALSTYLE
  5
F1
102
{ACAD_XDICTIONARY
360
262
102
}
102
{ACAD_REACTORS
330
EF
102
}
330
EF
100
AcDbVisualStyle
  2
FlatWithEdges
 70
     1
 71
     2
 72
     1
 73
     1
 90
        2
 40
-0.6
 41
30.0
 62
     5
 63
     7
421
 16777215
 74
     1
 91
        0
 64
     7
 65
   257
 75
     1
175
     1
 42
1.0
 92
        0
 66
   257
 43
1.0
 76
     1
 77
     6
 78
     2
 67
     7
 79
     5
170
     0
171
     0
290
     0
174
     0
 93
       13
 44
0.0
173
     0
291
     1
 45
0.0
1001
ACAD
1000
AcDbSavedByObjectVersion
1070
     0
  0
VISUALSTYLE
  5
F2
102
{ACAD_XDICTIONARY
360
264
102
}
102
{ACAD_REACTORS
330
EF
102
}
330
EF
100
AcDbVisualStyle
  2
Gouraud
 70
     2
 71
     2
 72
     2
 73
     1
 90
        2
 40
-0.6
 41
30.0
 62
     5
 63
     7
421
 16777215
 74
     0
 91
        0
 64
     7
 65
   257
 75
     1
175
     1
 42
1.0
 92
        0
 66
     7
 43
1.0
 76
     1
 77
     6
 78
     2
 67
     7
 79
     5
170
     0
171
     0
290
     0
174
     0
 93
       13
 44
0.0
173
     0
291
     1
 45
0.0
1001
ACAD
1000
AcDbSavedByObjectVersion
1070
     0
  0
VISUALSTYLE
  5
F3
102
{ACAD_XDICTIONARY
360
266
102
}
102
{ACAD_REACTORS
330
EF
102
}
330
EF
100
AcDbVisualStyle
  2
GouraudWithEdges
 70
     3
 71
     2
 72
     2
 73
     1
 90
        2
 40
-0.6
 41
30.0
 62
     5
 63
     7
421
 16777215
 74
     1
 91
        0
 64
     7
 65
   257
 75
     1
175
     1
 42
1.0
 92
        0
 66
   257
 43
1.0
 76
     1
 77
     6
 78
     2
 67
     7
 79
     5
170
     0
171
     0
290
     0
174
     0
 93
       13
 44
0.0
173
     0
291
     1
 45
0.0
1001
ACAD
1000
AcDbSavedByObjectVersion
1070
     0
  0
VISUALSTYLE
  5
F7
102
{ACAD_XDICTIONARY
360
26E
102
}
102
{ACAD_REACTORS
330
EF
102
}
330
EF
100
AcDbVisualStyle
  2
Hidden
 70
     6
 71
     1
 72
     2
 73
     2
 90
        0
 40
-0.6
 41
-30.0
 62
     5
 63
     7
421
 16777215
 74
     2
 91
        2
 64
     7
 65
   257
 75
     2
175
     1
 42
40.0
 92
        0
 66
   257
 43
1.0
 76
     1
 77
     6
 78
     2
 67
     7
 79
     3
170
     0
171
     0
290
     0
174
     0
 93
        1
 44
0.0
173
     0
291
     0
 45
0.0
1001
ACAD
1000
AcDbSavedByObjectVersion
1070
     0
  0
VISUALSTYLE
  5
1E4
102
{ACAD_XDICTIONARY
360
280
102
}
102
{ACAD_REACTORS
330
EF
102
}
330
EF
100
AcDbVisualStyle
  2
JitterOff
 70
    20
 71
     2
 72
     2
 73
     0
 90
        0
 40
-0.6
 41
-30.0
 62
     5
 63
     7
421
 16777215
 74
     1
 91
        4
 64
     7
 65
   257
 75
     1
175
     1
 42
1.0
 92
       10
 66
     7
 43
1.0
 76
     1
 77
     6
 78
     2
 67
     7
 79
     5
170
     0
171
     0
290
     0
174
     0
 93
        1
 44
0.0
173
     0
291
     1
 45
0.0
1001
ACAD
1000
AcDbSavedByObjectVersion
1070
     0
  0
VISUALSTYLE
  5
FD
102
{ACAD_XDICTIONARY
360
27A
102
}
102
{ACAD_REACTORS
330
EF
102
}
330
EF
100
AcDbVisualStyle
  2
Linepattern
 70
    14
 71
     2
 72
     2
 73
     1
 90
        0
 40
-0.6
 41
-30.0
 62
     5
 63
     7
421
 16777215
 74
     1
 91
        4
 64
     7
 65
   257
 75
     7
175
     7
 42
1.0
 92
        8
 66
     7
 43
1.0
 76
     1
 77
     6
 78
     2
 67
     7
 79
     5
170
     0
171
     0
290
     0
174
     0
 93
        1
 44
0.0
173
     0
291
     1
 45
0.0
1001
ACAD
1000
AcDbSavedByObjectVersion
1070
     0
  0
VISUALSTYLE
  5
1E5
102
{ACAD_XDICTIONARY
360
282
102
}
102
{ACAD_REACTORS
330
EF
102
}
330
EF
100
AcDbVisualStyle
  2
OverhangOff
 70
    21
 71
     2
 72
     2
 73
     0
 90
        0
 40
-0.6
 41
-30.0
 62
     5
 63
     7
421
 16777215
 74
     1
 91
        4
 64
     7
 65
   257
 75
     1
175
     1
 42
1.0
 92
        9
 66
     7
 43
1.0
 76
     1
 77
     6
 78
     2
 67
     7
 79
     5
170
     0
171
     0
290
     0
174
     0
 93
        1
 44
0.0
173
     0
291
     1
 45
0.0
1001
ACAD
1000
AcDbSavedByObjectVersion
1070
     0
  0
VISUALSTYLE
  5
F9
102
{ACAD_XDICTIONARY
360
272
102
}
102
{ACAD_REACTORS
330
EF
102
}
330
EF
100
AcDbVisualStyle
  2
Realistic
 70
     8
 71
     2
 72
     3
 73
     0
 90
        2
 40
-0.6
 41
30.0
 62
     5
 63
     7
421
 16777215
 74
     0
 91
        0
 64
     7
 65
   257
 75
     1
175
     1
 42
1.0
 92
        8
 66
   257
 43
1.0
 76
     1
 77
     6
 78
     2
 67
     7
 79
     3
170
     0
171
     0
290
     0
174
     0
 93
       13
 44
0.0
173
     0
291
     0
 45
0.0
1001
ACAD
1000
AcDbSavedByObjectVersion
1070
     0
  0
VISUALSTYLE
  5
1F3
102
{ACAD_XDICTIONARY
360
28E
102
}
102
{ACAD_REACTORS
330
EF
102
}
330
EF
100
AcDbVisualStyle
  2
Shaded
 70
    27
 71
     2
 72
     2
 73
     1
 90
        2
 40
-0.6
 41
30.0
 62
     5
 63
     7
421
 16777215
 74
     0
 91
        4
 64
     7
 65
   257
 75
     1
175
     1
 42
1.0
 92
        8
 66
   257
 43
1.0
 76
     1
 77
     6
 78
     2
 67
     8
425
  7895160
 79
     3
170
     0
171
     0
290
     0
174
     0
 93
        5
 44
0.0
173
     0
291
     0
 45
0.0
1001
ACAD
1000
AcDbSavedByObjectVersion
1070
     0
  0
VISUALSTYLE
  5
1F2
102
{ACAD_XDICTIONARY
360
28C
102
}
102
{ACAD_REACTORS
330
EF
102
}
330
EF
100
AcDbVisualStyle
  2
Shaded with edges
 70
    26
 71
     2
 72
     2
 73
     1
 90
        2
 40
-0.6
 41
30.0
 62
     5
 63
     7
421
 16777215
 74
     1
 91
       10
 64
     7
 65
   257
 75
     2
175
     1
 42
1.0
 92
        8
 66
   257
 43
1.0
 76
     1
 77
     6
 78
     2
 67
     7
 79
     3
170
     0
171
     0
290
     0
174
     0
 93
        5
 44
0.0
173
     0
291
     0
 45
0.0
1001
ACAD
1000
AcDbSavedByObjectVersion
1070
     0
  0
VISUALSTYLE
  5
1EF
102
{ACAD_XDICTIONARY
360
286
102
}
102
{ACAD_REACTORS
330
EF
102
}
330
EF
100
AcDbVisualStyle
  2
Shades of Gray
 70
    23
 71
     2
 72
     2
 73
     3
 90
        0
 40
-0.6
 41
-30.0
 62
     5
 63
     7
421
 16777215
 74
     2
 91
        2
 64
     7
 65
     7
 75
     1
175
     1
 42
40.0
 92
        8
 66
     7
 43
1.0
 76
     1
 77
     6
 78
     2
 67
     7
 79
     3
170
     0
171
     0
290
     0
174
     0
 93
        1
 44
0.0
173
     0
291
     0
 45
0.0
1001
ACAD
1000
AcDbSavedByObjectVersion
1070
     0
  0
VISUALSTYLE
  5
1F0
102
{ACAD_XDICTIONARY
360
288
102
}
102
{ACAD_REACTORS
330
EF
102
}
330
EF
100
AcDbVisualStyle
  2
Sketchy
 70
    24
 71
     1
 72
     2
 73
     2
 90
        0
 40
-0.6
 41
-30.0
 62
     5
 63
     7
421
 16777215
 74
     2
 91
        2
 64
     7
 65
     7
 75
     1
175
     1
 42
40.0
 92
       11
 66
     7
 43
1.0
 76
     1
 77
     6
 78
     2
 67
     7
 79
     6
170
     0
171
     0
290
     0
174
     0
 93
        1
 44
0.0
173
     0
291
     0
 45
0.0
1001
ACAD
1000
AcDbSavedByObjectVersion
1070
     0
  0
VISUALSTYLE
  5
FC
102
{ACAD_XDICTIONARY
360
278
102
}
102
{ACAD_REACTORS
330
EF
102
}
330
EF
100
AcDbVisualStyle
  2
Thicken
 70
    13
 71
     2
 72
     2
 73
     1
 90
        0
 40
-0.6
 41
-30.0
 62
     5
 63
     7
421
 16777215
 74
     1
 91
        4
 64
     7
 65
   257
 75
     1
175
     1
 42
1.0
 92
       12
 66
     7
 43
1.0
 76
     1
 77
     6
 78
     2
 67
     7
 79
     5
170
     0
171
     0
290
     0
174
     0
 93
        1
 44
0.0
173
     0
291
     1
 45
0.0
1001
ACAD
1000
AcDbSavedByObjectVersion
1070
     0
  0
VISUALSTYLE
  5
F6
102
{ACAD_XDICTIONARY
360
26C
102
}
102
{ACAD_REACTORS
330
EF
102
}
330
EF
100
AcDbVisualStyle
  2
Wireframe
 70
     5
 71
     0
 72
     2
 73
     0
 90
        0
 40
-0.6
 41
-30.0
 62
     5
 63
     7
421
 16777215
 74
     1
 91
        4
 64
     7
 65
   257
 75
     1
175
     1
 42
1.0
 92
        0
 66
   257
 43
1.0
 76
     1
 77
     6
 78
     2
 67
     7
 79
     3
170
     0
171
     0
290
     0
174
     0
 93
        1
 44
0.0
173
     0
291
     0
 45
0.0
1001
ACAD
1000
AcDbSavedByObjectVersion
1070
     0
  0
VISUALSTYLE
  5
1F1
102
{ACAD_XDICTIONARY
360
28A
102
}
102
{ACAD_REACTORS
330
EF
102
}
330
EF
100
AcDbVisualStyle
  2
X-Ray
 70
    25
 71
     2
 72
     2
 73
     1
 90
        1
 40
0.5
 41
-30.0
 62
     5
 63
     7
421
 16777215
 74
     1
 91
        0
 64
     7
 65
   257
 75
     1
175
     1
 42
1.0
 92
        8
 66
     7
 43
1.0
 76
     1
 77
     6
 78
     2
 67
     7
 79
     3
170
     0
171
     0
290
     0
174
     0
 93
       13
 44
0.0
173
     0
291
     0
 45
0.0
1001
ACAD
1000
AcDbSavedByObjectVersion
1070
     0
  0
DICTIONARYVAR
  5
146
102
{ACAD_REACTORS
330
5E
102
}
330
5E
100
DictionaryVariables
280
     0
  1
1:1
  0
DICTIONARYVAR
  5
145
102
{ACAD_REACTORS
330
5E
102
}
330
5E
100
DictionaryVariables
280
     0
  1
STANDARD
  0
DICTIONARYVAR
  5
84
102
{ACAD_REACTORS
330
5E
102
}
330
5E
100
DictionaryVariables
280
     0
  1
STANDARD
  0
DICTIONARYVAR
  5
227
102
{ACAD_REACTORS
330
5E
102
}
330
5E
100
DictionaryVariables
280
     0
  1
Metric50
  0
DICTIONARYVAR
  5
228
102
{ACAD_REACTORS
330
5E
102
}
330
5E
100
DictionaryVariables
280
     0
  1
Metric50
  0
DICTIONARYVAR
  5
5F
102
{ACAD_REACTORS
330
5E
102
}
330
5E
100
DictionaryVariables
280
     0
  1
2
  0
DICTIONARYVAR
  5
63
102
{ACAD_REACTORS
330
5E
102
}
330
5E
100
DictionaryVariables
280
     0
  1
1
  0
DICTIONARYVAR
  5
1AE
102
{ACAD_REACTORS
330
5E
102
}
330
5E
100
DictionaryVariables
280
     0
  1
0
  0
DICTIONARYVAR
  5
1AF
102
{ACAD_REACTORS
330
5E
102
}
330
5E
100
DictionaryVariables
280
     0
  1
0
  0
DICTIONARYVAR
  5
255
102
{ACAD_REACTORS
330
5E
102
}
330
5E
100
DictionaryVariables
280
     0
  1
2
  0
DICTIONARY
  5
25F
102
{ACAD_REACTORS
330
25D
102
}
330
25D
100
AcDbDictionary
281
     1
  0
DICTIONARY
  5
25E
102
{ACAD_REACTORS
330
25D
102
}
330
25D
100
AcDbDictionary
281
     1
  3
140689938603392
350
258
  3
140689938603408
350
259
  3
140689938603424
350
25A
  3
140689938603440
350
25B
  3
140689938603456
350
25C
  0
DICTIONARY
  5
236
330
21C
100
AcDbDictionary
280
     1
281
     1
  3
ACAD_XREC_ROUNDTRIP
360
291
  0
DICTIONARY
  5
205
330
22
100
AcDbDictionary
280
     1
281
     1
  0
DICTIONARY
  5
1F9
330
ED
100
AcDbDictionary
280
     1
281
     1
  3
FBXASSET
360
1FA
  0
DICTIONARY
  5
1F7
330
EC
100
AcDbDictionary
280
     1
281
     1
  3
FBXASSET
360
1F8
  0
DICTIONARY
  5
173
330
EE
100
AcDbDictionary
280
     1
281
     1
  3
BUMPTILE
360
175
  3
DIFFUSETILE
360
174
  3
FBXASSET
360
1FB
  3
OPACITYTILE
360
176
  3
REFLECTIONTILE
360
177
  0
DICTIONARY
  5
234
330
21A
100
AcDbDictionary
280
     1
281
     1
  3
ACAD_XREC_ROUNDTRIP
360
290
  0
DICTIONARY
  5
162
330
7F
100
AcDbDictionary
280
     1
281
     1
  3
ACAD_ROUNDTRIP_2008_TABLESTYLE_CELLSTYLEMAP
360
256
  0
DICTIONARY
  5
26A
330
F5
100
AcDbDictionary
280
     1
281
     1
  3
ACAD_XREC_ROUNDTRIP
360
26B
  0
DICTIONARY
  5
268
330
F4
100
AcDbDictionary
280
     1
281
     1
  3
ACAD_XREC_ROUNDTRIP
360
269
  0
DICTIONARY
  5
276
330
FB
100
AcDbDictionary
280
     1
281
     1
  3
ACAD_XREC_ROUNDTRIP
360
277
  0
DICTIONARY
  5
27E
330
FF
100
AcDbDictionary
280
     1
281
     1
  3
ACAD_XREC_ROUNDTRIP
360
27F
  0
DICTIONARY
  5
270
330
F8
100
AcDbDictionary
280
     1
281
     1
  3
ACAD_XREC_ROUNDTRIP
360
271
  0
DICTIONARY
  5
274
330
FA
100
AcDbDictionary
280
     1
281
     1
  3
ACAD_XREC_ROUNDTRIP
360
275
  0
DICTIONARY
  5
284
330
1E6
100
AcDbDictionary
280
     1
281
     1
  3
ACAD_XREC_ROUNDTRIP
360
285
  0
DICTIONARY
  5
27C
330
FE
100
AcDbDictionary
280
     1
281
     1
  3
ACAD_XREC_ROUNDTRIP
360
27D
  0
DICTIONARY
  5
260
330
F0
100
AcDbDictionary
280
     1
281
     1
  3
ACAD_XREC_ROUNDTRIP
360
261
  0
DICTIONARY
  5
262
330
F1
100
AcDbDictionary
280
     1
281
     1
  3
ACAD_XREC_ROUNDTRIP
360
263
  0
DICTIONARY
  5
264
330
F2
100
AcDbDictionary
280
     1
281
     1
  3
ACAD_XREC_ROUNDTRIP
360
265
  0
DICTIONARY
  5
266
330
F3
100
AcDbDictionary
280
     1
281
     1
  3
ACAD_XREC_ROUNDTRIP
360
267
  0
DICTIONARY
  5
26E
330
F7
100
AcDbDictionary
280
     1
281
     1
  3
ACAD_XREC_ROUNDTRIP
360
26F
  0
DICTIONARY
  5
280
330
1E4
100
AcDbDictionary
280
     1
281
     1
  3
ACAD_XREC_ROUNDTRIP
360
281
  0
DICTIONARY
  5
27A
330
FD
100
AcDbDictionary
280
     1
281
     1
  3
ACAD_XREC_ROUNDTRIP
360
27B
  0
DICTIONARY
  5
282
330
1E5
100
AcDbDictionary
280
     1
281
     1
  3
ACAD_XREC_ROUNDTRIP
360
283
  0
DICTIONARY
  5
272
330
F9
100
AcDbDictionary
280
     1
281
     1
  3
ACAD_XREC_ROUNDTRIP
360
273
  0
DICTIONARY
  5
28E
330
1F3
100
AcDbDictionary
280
     1
281
     1
  3
ACAD_XREC_ROUNDTRIP
360
28F
  0
DICTIONARY
  5
28C
330
1F2
100
AcDbDictionary
280
     1
281
     1
  3
ACAD_XREC_ROUNDTRIP
360
28D
  0
DICTIONARY
  5
286
330
1EF
100
AcDbDictionary
280
     1
281
     1
  3
ACAD_XREC_ROUNDTRIP
360
287
  0
DICTIONARY
  5
288
330
1F0
100
AcDbDictionary
280
     1
281
     1
  3
ACAD_XREC_ROUNDTRIP
360
289
  0
DICTIONARY
  5
278
330
FC
100
AcDbDictionary
280
     1
281
     1
  3
ACAD_XREC_ROUNDTRIP
360
279
  0
DICTIONARY
  5
26C
330
F6
100
AcDbDictionary
280
     1
281
     1
  3
ACAD_XREC_ROUNDTRIP
360
26D
  0
DICTIONARY
  5
28A
330
1F1
100
AcDbDictionary
280
     1
281
     1
  3
ACAD_XREC_ROUNDTRIP
360
28B
  0
XRECORD
  5
258
102
{ACAD_REACTORS
330
25E
102
}
330
25E
100
AcDbXrecord
280
     1
  1
AcDb_Thumbnail_Schema
102
{ATTRRECORD
341
259
  2
AcDbDs::TreatedAsObjectData
280
     1
291
     1
102
ATTRRECORD}
102
{ATTRRECORD
341
25A
  2
AcDbDs::Legacy
280
     1
291
     1
102
ATTRRECORD}
  2
AcDbDs::ID
280
    10
 91
        8
102
{ATTRRECORD
341
25B
  2
AcDs:Indexable
280
     1
291
     1
102
ATTRRECORD}
102
{ATTRRECORD
341
25C
  2
AcDbDs::HandleAttribute
280
     7
282
     1
102
ATTRRECORD}
  2
Thumbnail_Data
280
    15
 91
        0
  0
XRECORD
  5
259
102
{ACAD_REACTORS
330
25E
102
}
330
25E
100
AcDbXrecord
280
     1
  1
AcDbDs::TreatedAsObjectDataSchema
  2
AcDbDs::TreatedAsObjectData
280
     1
 91
        0
  0
XRECORD
  5
25A
102
{ACAD_REACTORS
330
25E
102
}
330
25E
100
AcDbXrecord
280
     1
  1
AcDbDs::LegacySchema
  2
AcDbDs::Legacy
280
     1
 91
        0
  0
XRECORD
  5
25B
102
{ACAD_REACTORS
330
25E
102
}
330
25E
100
AcDbXrecord
280
     1
  1
AcDbDs::IndexedPropertySchema
  2
AcDs:Indexable
280
     1
 91
        0
  0
XRECORD
  5
25C
102
{ACAD_REACTORS
330
25E
102
}
330
25E
100
AcDbXrecord
280
     1
  1
AcDbDs::HandleAttributeSchema
  2
AcDbDs::HandleAttribute
280
     7
 91
        1
284
     1
  0
XRECORD
  5
291
102
{ACAD_REACTORS
330
236
102
}
330
236
100
AcDbXrecord
280
     1
102
DISPLAYNAME
  1
Metric50
102
FLAGS
 90
        0
  0
XRECORD
  5
1FA
102
{ACAD_REACTORS
330
1F9
102
}
330
1F9
100
AcDbXrecord
280
     1
 70
     1
 90
429727718
  1
D62C5603-E3A1-4AEA-B7FB-FE5D8D0755AF
310
504B03040A0000080000CC70623B3DEE336E79000000790000001B0000006175746F6465736B2D64657369676E2D7061636B6167652E786D6C3C3F786D6C2076657273696F6E3D22312E302220656E636F64696E673D227574662D3822203F3E3C666F726D6174733E3C666F726D61743E687474703A2F2F736368656D612E
310
6175746F6465736B2E636F6D2F64657369676E2D7061636B6167652F323030393C2F666F726D61743E3C2F666F726D6174733E504B0304140006080800CC70623BD486FD9CA0000000F4000000130000005B436F6E74656E745F54797065735D2E786D6C7D8EC10E82300C865F65E91D8A1E8C310C0EEA1BF002731658846E
310
D98AC1B77784ABF1D8FE5FBFBF75BBCE937A534CCEB38643598122B6FEE978D0B0485F9C41B54DDD7D022595594E1A469170414C76A4D9A4D207E29CF43ECE46F218070CC6BECC4078ACAA135ACF422C856C0E68EA1BF5669944DDD7BCDE7B1F8E415D77AECB980613C2E4AC91FC167A2B244592486606FC29C8FD7F045B9A
310
EF7053A7E60B504B0304140006080800CC70623B853B8169EB0000007C01000008000000636F72652E786D6C8D90416EC3201045AF62CDB6C206821CC7C244919D9CA01740401C94182C03558F5F9C3852BBEB6A467FFE9B197D7EFC9E1EC5975982F5AE035262288C535E5B377690E21535501C055FBC8FBF6C503839990E
310
5619041F179FE64D52DE45E362569DD7661365082642A11EB9E920A89B99642953CC8E702F67A9EE7234257977194EC9EAE275C4EABCCF5EAD5940D4AC6F0E35A568B8F43562CD7046CD199FD07E60174276A7BE677B5EADB0E0D14EEFFB6A31321A0D82627C4084204C3F096B71DD52F6819B16635EADF63F509AF53FA164
310
5DDCD1EDDD17164090FCC8732078B56691CB33A85CD7DCC40F504B0304140006080800CC70623B55019EA25F0000007C00000007000000636E782E786D6C4DCB3B0E80201045D1AD90E915ED2CF8AC45050C11660C8261F98AB1B07AC9C97D42D718D865D3E909258CFD00CCE24AC6E326A164D74DC0B4128928FF32603847
310
2BA13128B1252AC747C6BAB984FC68F0B87FE8960A5C09FE86CFB69FBA01504B0304140006080800CC70623BDBABAAF470010000D40300000C0000006662782F636F72652E786D6CC553D16E823014FD95A6AF4B694182CC941A83FA05FB810A9511A125A5257EFE2E82712ECEB8A7F100CD39F7F69E734AF9FADC366850B6
310
AF8DCE7018308C942E4C59EB2AC3DE1D498AD15A706B8CFB56869196ADCAF00863C12B6B7C374385D14E6907A836A59A41D9F7CA615434B0C8705F7CAA5606D23BA8E84F41278B93AC54100640439DE0BDB320004D43C63716C7C399D30917DCFBBA9CD9BA8469F5B156168B24CED3F7248AC8769F27244EB73B92EED8862C
310
B7F13E0C179B3C8F979C8ECD82BBBABDAA2BAC924E9558448CBD9330242CFA08E3154B5651FCC6D215639C8EE5774DBE2B5F6CF2B5768B68963BB5F5588420E442FC700B1139D4CB01F450C1E918227C2E09DF070D8140C84E1E9AAB8F1340832A9CB13130A5F1376A908D57309505ECF2A0DF179C4E9D30F5B239B87E3823
310
7A79C6F31DE1A8A5AEC08474B03C7837EAE4938639B44E5932B833D2C6B6B279CDC613877FA26EE21F4A2A4C63EC7F29A2F301D1F9F7A0E37D145F504B0304140006080800CC70623B9C113CC27E0000009D0000000B0000006662782F636E782E786D6C4DCCDF0A83201C86E15B91DFB94BFB330DD428C8FB886521330DA7
310
6397BF1A1DECE883878F57749FCDA1B7892F1BBC047A23808C7F84D9FA55424E0BE6803A256208E9EF06C84F9B91703228B1C690F78B66B34CD9A5439DF5CF0BFBF65E35BCA1B8D6A5C6F540381E886698B5741C695F9503EBA150A2F8958E3DC3EA0B504B0304140006080800CC70623B7DF2F77C2A010000120200003100
310
00006662782F41393633353835312D344632462D344230382D423046372D3739314545314133324237412F636F72652E786D6C8D51DB8EC22014FC15C2939B0D2DB4B45643319AE817EC0F6041255A68B86CFCFC856D4D76DF7CE190393373060EDB3DC707F856CE6B6B7A480A0C81328395DA5C7B18C3057510EC3873D686
310
3F34088C18550F330C39BB3A1BA7051AAC09CA84841A2BD5020AEF55806078A44B0FFD7053A328440C89E1EFC52486BBB8AA8214A99D789CF9E05200300FC927E4FB4D5B375D43103D5527440FB843077C5AA3F5861C8F645F5787F59E95B390B318B55CE45AA638FAA2957BD7248B390B7A7CC51F9C124149C82B8C378810
310
84AB2F42B7B8DD56F413775B8C5999E9FF4471926F8AA236A1AE96B8B3CC434E5839373893369E1FAF30EA395917409EB7F26AF8801C171837A4A6AC9C89E9F9C9B1A58BA30FD6A5EF5DDDCF894B9AD9B6A59C957943A9FCAE2FD5BC4DFE03504B0304140006080800CC70623BAD7543B64E01000033030000300000006662
310
782F41393633353835312D344632462D344230382D423046372D3739314545314133324237412F636E782E786D6CD593CD6EC32010845F0571AD6CE3D48AD20813A9873E410FBD12D82434182C7EAAE6EDBB2424CD25871E7B41D6EC30B3FA84F9E67BB2E40B4234DE8DB46F1925E094D7C6ED479AD3AE5951B2113C789FEE
310
6C943839C1488B4C05DF079FE72A69D8C96C13AAD6B8631503449F83828872B949AC57D26200B826A308D316B4064D6E46FCDA41C05550DC9E483A00797BFD207EFB092A45DE9514C1BBD22178396BD39D891265658C238DEA00936C654E5E433CB65A26D9F6EDB5EBC14EBF49A45CB856E66048291F6939A9A81BB5C89177
310
38143CA680F4AA299D66A042CEB3354A2684DC9D8D178FE0D9B8B41CAAD720F880EE7EF93C0C18769E099ECC04D5A102C8049A8A05632F4DDF376CF1DE0F6BB65C2F8627B65A33C6BB62177CEBBDAD973006829F89F22E814B54F4BC2BE347F8AA8F681390B50FA73F804400B5F542E796F19FF974E7F78DB802FE05E20750
310
4B0304140006080800CC70623BE75B7789680500003C100000340000006662782F41393633353835312D344632462D344230382D423046372D3739314545314133324237412F6F626A656374732E786D6CAD575B8F9B3818FD2B887D06C22499CB8AA1CA655245D5B455A356FB305264C061D8018C6C3393D95FBFC7600890
310
A4CD5EF210B0B1BFEBF98E3F7B1FF6596ABC522E1296DF9BAE3D320D9A872C4AF2F8DE2CE5CEBA358D0FBEC719939D65A691938CDE9B6ADAF4BD98B3B2D05311DD91329583D9D5FC0F438434A7A611A644887B5384CF34233629258BA878B12322891DEFF6B66BD70BFB62634E8AE781D082709A4B588AF91C528CDA28B73F
310
1C998EEF39EABBEFA97FBD6A7C7E9553F9D3D79FE442923C3C523610337627CB87ABE99D359D4CC6D6E4FACAB5E6ABF9D2726FC6A3C5F56271377BB88362213924694B38DD99FE47C48627A1E7D49F5A8BB5E1A74C0A599ED3B0F21F1E56366B89112D681E218F0915D0D6F17AD41FBA2A369DCF6335D62ABBD39779D5DDD1
310
11D4D8DE3CBB96B2E04FB8202E41051754A1AA8E8F76B4C6DFE810B580B1547F4B84911149794252234D024EF8BBE963A95AE27B3D310A9D5C215C7960FAEE415ED75694C6AFB17BCACA5D99A60A9AA65F217B0BFC53292ACB92BF283FAD0D3621576592CB5BED907C2FA8E9DF794E35E97BEA31BED21FEB401ABB94C44839
310
DCACBF0E1C5DA8DA5B2F4DFFD32AD86F543D9E565E7056502E157C00AD2671CD534549AB752FCA9CDA00677A313F04E51B22FF19E57B300579E3C97EB29F682D92935CEC18CF901B7B54FD8C51F362B56FC72FE0B3C1EAE335EDCCBF5AEC39ADB17DC238973F804BA5E6F6BFE7AF1FB32E523BE9F3BD571418E3631DCA4D48
310
5250CF639223210A9446CA30052EDF057BD35F8329C1ECD84552BF0DC8D18BE7BCE23BFE6BD960AB4A7DE79923A103BEBD80F911CBAA2C60DB19B01CF164A5583B772EE6D3FFA56666CBCDA74DC97724A48F9A58967497E489C4D979006FD7A05E227A1EBDD0F737C623387A9C844D3709995625106D157315F8B8392CD4E0
310
A0B9A720C4BE9829CEF37EA1E13111214D53925356365ADA634861B52519DD27A00AEB808EAF0628E6F435519D446F45CF2C9CF5214F0A15B2F6D06B79DA3EE3CBF7F56780D2F4E7EF73A0F5E5B02A38D07DC852C6B7C1FBB6664213E0C39E3EBA7FF4E1AD23EA2829407C85E586727488B751B2DB9502BC7B228A3FD68B6E
310
A65A22397E690AA8D158D7E404EC8CDA235CC3B7D1898680131CEC2CDF2638C65196279577750F15884AEE19F94199155B92B13297978469D4F8D358DF0AEF7631E28DC8F0D9F437D5D39A83B2231A1D52D543813A824EF8D44BCFF2FA6A31BD1E8DAD87F1CCB526B3879935BF59CDADD5C37479BB1CDD4CA7B3556B516589
310
EF352754B706114D9C885EC9131DE6EFEB43D99AFE2391C2F958179413D7CFEF6B1B6DB1E7600F00DE6E5C67454A339A4BA2E0FBA85ED26F045D454F463DBFCE484C2F90F2E5E3666003662ED8F755951A7D1BECD5B30B550B2785C8E7320B7292A4838DDA71BBC863ED7613CAF659337A3354231D4FF4A182A54904C2898C
310
98B28C4AD0CE056CCF332A80986E571EE9DBC305BB5FEB7E509220A58D25CF042D712A806AC0AD0C657FDEF80D2D9CEAA2EE4D1C76F60BFE74219A06527D6F82DF6412526107381E55E353090704D085B52408A8913C4ED159D79BDA71BB4BC506F4831350EB6F975CD22D69BF7AC49B91A2C0A9DDA3D5CA36AD20FC478E37
310
E61844E2352865EBCB61A275A65283CAAA9DD27703B4102F5AF51EF5F573B75CBB5AD38BC845F7A49F82A0966A49C2E3EA5EA0ECD326CD965F1DB402C6FA8B51A4658C5C5E2EC9E214602E55810345408596591009A82E7E7FFACA19EEA299B14A0081A705CB3296EBC14CDF658DCD336EA6D1136881AAEB87B81AB9EE53D5
310
F5EB8BC8362082DA24122F98680A4E7930C01A0079749CEA14382A0783E5EBA5A10F8C098456A03D6A4AEB6BB881E2513747552A5DB22C7EDAF83BD5528081A365F7FF06504B0304140006080000CC70623B000000000000000000000000350000006662782F41393633353835312D344632462D344230382D423046372D37
310
39314545314133324237412F76657274696365732E62696E504B0304140006080800CC70623BF270F1330600000004000000360000006662782F41393633353835312D344632462D344230382D423046372D3739314545314133324237412F747269616E676C65732E62696E636660600000504B0304140006080000CC7062
310
3B000000000000000000000000370000006662782F41393633353835312D344632462D344230382D423046372D3739314545314133324237412F617474726962757465732E62696E504B0304140006080800CC70623B08DA0BD19000000041010000360000006662782F41393633353835312D344632462D344230382D4230
310
46372D3739314545314133324237412F6469726563746F72792E786D6C858F410AC3201045AF22B36F53E9A60B35CBEEBAE80D244E44489C6234F4F835464A48035D0DF398FF9F8AF63D0E6CC63039F212F8F9020C7D47C6792B21C5FE7403D62A1188E2E60C98D7234A5830286103A55745067B9D86B8A3CF9C7F90C11DE6
310
07FB144396D7B6A82D282E9A152AD114D5EF2CB866EEE831B8EEA07A7BB5A8D7D61A2BAAEB7FD5F70921FF497D00504B0304140006080800CC70623BEDD1DC58FD000000A00100003B0000006662782F41393633353835312D344632462D344230382D423046372D3739314545314133324237412F7265736F75726365732F
310
636F72652E786D6C8D504B6E833010BD0A9A6D65B00922041947112427E8052C33A156828DFCA97AFC9A40A576D7CDCCE87D344F8F9FBFE667F689CE6B6B3A6039850C8DB2A336530731DC4903D95970676DF82583CCC8193B5861107C72362E3BA4AC096842428D1D7107A5F7182053CF7474E0D507CE32973124857FE48B
310
540F3961CEF244279DE03EB81420DB9EAC1384436FA353E879B1B182C7A8C75DA3C7F453DF353A1075D537A7BA6464B8F535A99AE14A9A2BBD90E350DD183B5CFABE3AF262350B1EF4FC9351399401471025A527C218A1E53BAB5A5AB765F5469B96525EACF23FA6B88CFF34456DC2A1DCE36E360F82A5202F42F062ED2BAD
310
579969AFDD8A6F504B010214000A0000080000CC70623B3DEE336E79000000790000001B00000000000000000000000000000000006175746F6465736B2D64657369676E2D7061636B6167652E786D6C504B01021400140006080800CC70623BD486FD9CA0000000F40000001300000000000000000000000000B20000005B
310
436F6E74656E745F54797065735D2E786D6C504B01021400140006080800CC70623B853B8169EB0000007C010000080000000000000000000000000083010000636F72652E786D6C504B01021400140006080800CC70623B55019EA25F0000007C000000070000000000000000000000000094020000636E782E786D6C504B
310
01021400140006080800CC70623BDBABAAF470010000D40300000C00000000000000000000000000180300006662782F636F72652E786D6C504B01021400140006080800CC70623B9C113CC27E0000009D0000000B00000000000000000000000000B20400006662782F636E782E786D6C504B01021400140006080800CC70
310
623B7DF2F77C2A010000120200003100000000000000000000000000590500006662782F41393633353835312D344632462D344230382D423046372D3739314545314133324237412F636F72652E786D6C504B01021400140006080800CC70623BAD7543B64E010000330300003000000000000000000000000000D2060000
310
6662782F41393633353835312D344632462D344230382D423046372D3739314545314133324237412F636E782E786D6C504B01021400140006080800CC70623BE75B7789680500003C10000034000000000000000000000000006E0800006662782F41393633353835312D344632462D344230382D423046372D3739314545
310
314133324237412F6F626A656374732E786D6C504B01021400140006080000CC70623B0000000000000000000000003500000000000000000000000000280E00006662782F41393633353835312D344632462D344230382D423046372D3739314545314133324237412F76657274696365732E62696E504B01021400140006
310
080800CC70623BF270F133060000000400000036000000000000000000000000007B0E00006662782F41393633353835312D344632462D344230382D423046372D3739314545314133324237412F747269616E676C65732E62696E504B01021400140006080000CC70623B0000000000000000000000003700000000000000
310
000000000000D50E00006662782F41393633353835312D344632462D344230382D423046372D3739314545314133324237412F617474726962757465732E62696E504B01021400140006080800CC70623B08DA0BD1900000004101000036000000000000000000000000002A0F00006662782F41393633353835312D344632
310
462D344230382D423046372D3739314545314133324237412F6469726563746F72792E786D6C504B01021400140006080800CC70623BEDD1DC58FD000000A00100003B000000000000000000000000000E1000006662782F41393633353835312D344632462D344230382D423046372D3739314545314133324237412F7265
310
736F75726365732F636F72652E786D6C504B0506000000000E000E0080040000641100000000
  0
XRECORD
  5
1F8
102
{ACAD_REACTORS
330
1F7
102
}
330
1F7
100
AcDbXrecord
280
     1
 70
     1
 90
429727718
  1
30362254-06B7-45E0-A893-8CFA70E3D6BC
310
504B03040A0000080000CC70623B3DEE336E79000000790000001B0000006175746F6465736B2D64657369676E2D7061636B6167652E786D6C3C3F786D6C2076657273696F6E3D22312E302220656E636F64696E673D227574662D3822203F3E3C666F726D6174733E3C666F726D61743E687474703A2F2F736368656D612E
310
6175746F6465736B2E636F6D2F64657369676E2D7061636B6167652F323030393C2F666F726D61743E3C2F666F726D6174733E504B0304140006080800CC70623BD486FD9CA0000000F4000000130000005B436F6E74656E745F54797065735D2E786D6C7D8EC10E82300C865F65E91D8A1E8C310C0EEA1BF002731658846E
310
D98AC1B77784ABF1D8FE5FBFBF75BBCE937A534CCEB38643598122B6FEE978D0B0485F9C41B54DDD7D022595594E1A469170414C76A4D9A4D207E29CF43ECE46F218070CC6BECC4078ACAA135ACF422C856C0E68EA1BF5669944DDD7BCDE7B1F8E415D77AECB980613C2E4AC91FC167A2B244592486606FC29C8FD7F045B9A
310
EF7053A7E60B504B0304140006080800CC70623B1EC5D7A3EB0000007C01000008000000636F72652E786D6C8D90416EC3201045AF82665B6103C6756C6122AB4D4ED00B204C5C94182C03558F5F9C3852BBEB6A467FFE9B197D71FC9E6FE8CBACC17AD7032D0820E3B41FAD9B7A48F1820F808E52ACDEC75F36404ECDA687
310
4D0629A6D5A76597B477D1B89855E747B38B2A041301E95B6E7A08FAD3CCAA50296647B8168BD2573599823EBB0CA76447F43862C7BCCF5EAC59410E4DDD9C7973C2755553CCCFA4C603E3040F1565ED3B1FDE4E432BCA0D9622DAF9795FAF464533826484B498524CD807E51D79ED187F21878E10516EF63F505AC67F42C9
310
BA58B1FDDD071640D2FCC87D2045B96591CB3DA85CB7DCE40F504B0304140006080800CC70623B55019EA25F0000007C00000007000000636E782E786D6C4DCB3B0E80201045D1AD90E915ED2CF8AC45050C11660C8261F98AB1B07AC9C97D42D718D865D3E909258CFD00CCE24AC6E326A164D74DC0B4128928FF32603847
310
2BA13128B1252AC747C6BAB984FC68F0B87FE8960A5C09FE86CFB69FBA01504B0304140006080800CC70623B8C9102E971010000D40300000C0000006662782F636F72652E786D6CC5535B6E833010BC8AE5DF0A6C08340F1947A84D4ED00B38C6A128602363A31CBFCB234A53A551FA553EC09AD9F5CE8C31DB9E9B1AF5CA
310
7695D1198E428A91D2D214952E33ECDD315861B4E5CC1AE3BE9561A445A3323CC098B3D21ADFCE9034DA29ED00D5A6503328BA4E398C640D8B0C77F253352214DE4145770A5B214FA2546114020D759C75CE8200340D19DE981F0F6746269C33EFAB6266AB02A655C74A59CCF365BADC27CB5D902ED22848F6340DF238A141
310
BE88E2F57B92BFEDF23523433367AE6A2EEAA455C2A902F398D2751045018D3FA264435F3771F242571B4A1919CA6F9A7C5B3CD9E42BED16F12C776AEB308F40C848FC700B1139D4891EF410CEC810227CC6846F8386402064270EF5C5C709A05E49676C024C61FC95EA45ED154CA5211D1FF4FB8291A913A68E9B83EBBB33
310
E2A7673CDE118E5AE8124C0807CB8377834E366998436B950D7A7746DAD846D4CFD978E0F04FD455FC5D49D2D4C6FE9722321F10997F0F32DC47FE05504B0304140006080800CC70623BFFEA85907E0000009D0000000B0000006662782F636E782E786D6C4DCCD10A83201886E15B91FFDC95D95A811AB6F23E625948A6C3
310
E9D8E5AF46073BFAE0E1E365ED67B3E8ADC3CB78C7815C7240DA3DFC64DCC221C519D7805AC182F7F1EF06C88D9BE6703008B6049F9E274D7A1E938DBB5AE3D6131B2589BA0D3D965551E0B2EA732C9B9A624AAEB41E3A557677029960D9AFB4EF11165F504B0304140006080800CC70623B4FEEA4082C0100001202000031
310
0000006662782F39464131463745442D413632322D343644302D413938332D3331353338454246344243312F636F72652E786D6C8D515B6EC32010BC0AE2AB55850DD871ED0813254D72825EC00192A2C460F1A872FC42ED48ED5F7E00CDCECCCEB26C731F6FE05B39AFADE921293004CA082BB5B9F43086336A21D870E6AC
310
0D7F68109861543DCC30E4ECE26C9C164858139409093556AA051CBC570102714B8F1E7AF1A5C6A11862480C7F2DA6415C878B2A4891CA89C7990F2E050073937C42DE1DB7E4F87ED8A36D4329AA9B3D46DBAEAD504556557BD81DEBDD0761E52CE42C462D17B996298E3E6BE59E35C962CE821E1FF18553435012728A7187
310
0841987E927A8D9B35ADDF70BBC6989599FE4F1427F9A4286A132ABAC49D651EF234CD5CE04CDA78BA3DC2A8FB645D00B9DF8B57E215725C60BCA2A463E54C4CE327C7A65E1C7DB02E7DEFCBF594B864C5CA6CDBD49C957943E9FA5D5FBAF336F90F504B0304140006080800CC70623BAD7543B64E01000033030000300000
310
006662782F39464131463745442D413632322D343644302D413938332D3331353338454246344243312F636E782E786D6CD593CD6EC32010845F0571AD6CE3D48AD20813A9873E410FBD12D82434182C7EAAE6EDBB2424CD25871E7B41D6EC30B3FA84F9E67BB2E40B4234DE8DB46F1925E094D7C6ED479AD3AE5951B2113C
310
789FEE6C943839C1488B4C05DF079FE72A69D8C96C13AAD6B8631503449F83828872B949AC57D26200B826A308D316B4064D6E46FCDA41C05550DC9E483A00797BFD207EFB092A45DE9514C1BBD22178396BD39D891265658C238DEA00936C654E5E433CB65A26D9F6EDB5EBC14EBF49A45CB856E66048291F6939A9A81BB5
310
C8917738143CA680F4AA299D66A042CEB3354A2684DC9D8D178FE0D9B8B41CAAD720F880EE7EF93C0C18769E099ECC04D5A102C8049A8A05632F4DDF376CF1DE0F6BB65C2F8627B65A33C6BB62177CEBBDAD973006829F89F22E814B54F4BC2BE347F8AA8F681390B50FA73F804400B5F542E796F19FF974E7F78DB802FE05
310
E207504B0304140006080800CC70623B16AB87BA640500003C100000340000006662782F39464131463745442D413632322D343644302D413938332D3331353338454246344243312F6F626A656374732E786D6CAD575B6FA33818FD2B887DE6924B3BED8A326A92B68A663B534DD4D13E548A0C38942D60649B369D5FBFC7
310
600890A493BDE42160637FD7F31D7FF63E6FB3D478A55C242CBF3247B66B1A340F5994E4F19559CA8D75611A9F7D8F33263BCB4C232719BD32D5B4E97B316765A1A722BA21652A07B3B7B33F0D11D29C9A46981221AE4C113ED38CD8A4942CA2E2C58E882476BCD9DA23BB5ED8171B73523C0F841684D35CC252CCE79062D4
310
468DFA43D7747CCF51DF7D4FFDEB5593E3AB9CCA9FBEFE241792E4E19EB28198C968BAB8199F5D5A67D3E9C49A9E8F47D6EC76B6B0469F26EEFC7C3EBFBCBEB98462213924694B38DD98FE1D62C393D073EA4FADC5DAF04326852CCF6958F90F0F2B9BB5C48816348F90C7840A68EB78EDF68723159BCEE7891A6B95DDE9D3
310
BCEAEEE8086A6C6F9E5D4B59F0175C10A7A0820BAA5055C7473B5AE3CFDD452D602CD5DF12616444529E90D448938013FE6EFA58AA96F85E4F8C42275708571E98FE6827AF6B2B4AE3D7D83D64E5A64C53054DD3AF90BD06FEA9149565C94FCA0F6B834DC85599E4F2423B24DF0B6AFA979E534DFA9E7A4CC6FA631D486393
310
921829879BF5D781A373557BCB85E97FB90DB62B558F8795179C15944B051F40AB495CF35451D26A4727654E6D8033BD98EF82F21D91FF8AF2DD9982BCF1643BDD4EB516C9492E368C67C88DED563FC36D5EACF66DFF057C3658BDBFA69DF9578B3DA735B64F18C7F20770A9D45CFCF7FCF563D6456A277DBEF78A02637CA2
310
43B90A490AEAB94F72244481D24819A6C0E59B606BFA4B3025981DBB48EAB701D97BF19C577CC77F2D1B6C55A9EF3C732474C0B727303F625995056C3B02963D9EAC146BE78EC5FCEC7FA999EBC5EACBAAE41B12D27B4D2C0BBA49F244E2ECDC81B76B502F113D8F5EE8FB1BE3111CDD4FC2AA9B844CAB1288B68AB90A7CDC
310
1C166AB0D3DC5310625FCC14E779BFD0709F8890A629C9292B1B2DED31A4B0DA928CEE135085754027E3018A397D4D5427D15BD1330B677DC8934285AC3DF45A9EB68FF8F2B8FC0A509AFEECFD0FF2DE25CC6047F7214B195F07EFEB9A094D800F7BFAE8FED187B78EA8A3A400F115961BCAD1215E47C966530AF0EE8128FE
310
58CEBB996A8964FFA529A046635D9353B0336A8F700DDF46271A024E70B0B37C9DE01847591E54DED53D54202AB947E4076556AC49C6CA5C9E1226B7F1A7B1BE15DEED62C41B91E1B3E9AFAAA735036547343A925075041DF0A9979E893B391F8FCFA6967B3EFB644DCF6E5CEBFAE272625DCC6FAF3FB93793C5F90CE1EF57
310
407342756B10D1C489E8953CD1617E5CEECAD6F4EF8914CE5D5D504E5C3F1F9736DA62CFC11E00BCDDB8CC8A9466349744C1F75EBDA4DF09BA8A9E8C7A7E9991989E20E5DBDD6A6003664ED8F7A04A8DBE0DF6EAD9B9AA858342E47399053949D2C146EDB85DE4B176BB0965FBAC19BD19AA918E27FA50C1D22402E144464C
310
59462568E704B6E71915404CB72B8FF4EDE184DDAF753F284990D2C6926782963815403548A70C657FDEF80D2D9CEAA2AE4C1C76F60BFE74219A06527D6582DF6412526107381E55E353090704D085B52408D0933C4ED159D79BDA71BB4BC506F4831350EB6F979CD22D69BF7AC49B91A2C0A9DDA3D5CA36AD20FC478E37E6
310
1844E2352865EBCB6EA275A652E3836BE04EFB400BF1A2556F515F1FBB35B2AB35BD889C744FFA1004B5544B121E57F70215746DD2F5E2C1412B602CBF19455AC6C8E5E9922C4E01E65215385004546899059180EAFCF7A707CE7017CD8CDB0410789AB32C63B91E5CEBBBACB17AC6CD347A022D5075FD106377347AAABA7E
310
7D11590744509B44E205134DC1290F06580320F78E537D3D73540E06CB970B431F185308AD40BBD794D6D77003C5A36E8EAA54BA64597CD8F83BD552A080A365F7FF06504B0304140006080000CC70623B000000000000000000000000350000006662782F39464131463745442D413632322D343644302D413938332D3331
310
353338454246344243312F76657274696365732E62696E504B0304140006080800CC70623BF270F1330600000004000000360000006662782F39464131463745442D413632322D343644302D413938332D3331353338454246344243312F747269616E676C65732E62696E636660600000504B0304140006080000CC70623B
310
000000000000000000000000370000006662782F39464131463745442D413632322D343644302D413938332D3331353338454246344243312F617474726962757465732E62696E504B0304140006080800CC70623B08DA0BD19000000041010000360000006662782F39464131463745442D413632322D343644302D413938
310
332D3331353338454246344243312F6469726563746F72792E786D6C858F410AC3201045AF22B36F53E9A60B35CBEEBAE80D244E44489C6234F4F835464A48035D0DF398FF9F8AF63D0E6CC63039F212F8F9020C7D47C6792B21C5FE7403D62A1188E2E60C98D7234A5830286103A55745067B9D86B8A3CF9C7F90C11DE607
310
FB144396D7B6A82D282E9A152AD114D5EF2CB866EEE831B8EEA07A7BB5A8D7D61A2BAAEB7FD5F70921FF497D00504B0304140006080800CC70623B0D6EF93BFE000000A00100003B0000006662782F39464131463745442D413632322D343644302D413938332D3331353338454246344243312F7265736F75726365732F63
310
6F72652E786D6C8D50596E833010BD0A9ADFCA60B334011947A8694ED00B586642AC041B79A97AFC9A40A5F6AF3F33A3B7689E1E3F7DCD8FEC139DD7D6F4C0720A191A65476DA61E62B892236427C19DB5E1970C322367EC618541F0C9D9B8EC90B226A009093576C41D94DE63804C3DD2D18357379C652E63480A7FCF17A9
310
EE72C29CE5894E3AC17D702940B63D59270887DE46A7D0F36263058F518FBB468FE9A7BE6A7420864373B8D4873369AA8691FA421B3294352543C5CAF65C0F6FEF43CB8BD52C78D0F34F46E550061C419494B6843142CB0F5677F4B52BEB177AEC28E5C52AFF638ACBF84F53D42654E51E77B379102C05791282176B5F693D
310
CB4C7BED567C03504B010214000A0000080000CC70623B3DEE336E79000000790000001B00000000000000000000000000000000006175746F6465736B2D64657369676E2D7061636B6167652E786D6C504B01021400140006080800CC70623BD486FD9CA0000000F40000001300000000000000000000000000B20000005B
310
436F6E74656E745F54797065735D2E786D6C504B01021400140006080800CC70623B1EC5D7A3EB0000007C010000080000000000000000000000000083010000636F72652E786D6C504B01021400140006080800CC70623B55019EA25F0000007C000000070000000000000000000000000094020000636E782E786D6C504B
310
01021400140006080800CC70623B8C9102E971010000D40300000C00000000000000000000000000180300006662782F636F72652E786D6C504B01021400140006080800CC70623BFFEA85907E0000009D0000000B00000000000000000000000000B30400006662782F636E782E786D6C504B01021400140006080800CC70
310
623B4FEEA4082C0100001202000031000000000000000000000000005A0500006662782F39464131463745442D413632322D343644302D413938332D3331353338454246344243312F636F72652E786D6C504B01021400140006080800CC70623BAD7543B64E010000330300003000000000000000000000000000D5060000
310
6662782F39464131463745442D413632322D343644302D413938332D3331353338454246344243312F636E782E786D6C504B01021400140006080800CC70623B16AB87BA640500003C1000003400000000000000000000000000710800006662782F39464131463745442D413632322D343644302D413938332D3331353338
310
454246344243312F6F626A656374732E786D6C504B01021400140006080000CC70623B0000000000000000000000003500000000000000000000000000270E00006662782F39464131463745442D413632322D343644302D413938332D3331353338454246344243312F76657274696365732E62696E504B01021400140006
310
080800CC70623BF270F133060000000400000036000000000000000000000000007A0E00006662782F39464131463745442D413632322D343644302D413938332D3331353338454246344243312F747269616E676C65732E62696E504B01021400140006080000CC70623B0000000000000000000000003700000000000000
310
000000000000D40E00006662782F39464131463745442D413632322D343644302D413938332D3331353338454246344243312F617474726962757465732E62696E504B01021400140006080800CC70623B08DA0BD190000000410100003600000000000000000000000000290F00006662782F39464131463745442D413632
310
322D343644302D413938332D3331353338454246344243312F6469726563746F72792E786D6C504B01021400140006080800CC70623B0D6EF93BFE000000A00100003B000000000000000000000000000D1000006662782F39464131463745442D413632322D343644302D413938332D3331353338454246344243312F7265
310
736F75726365732F636F72652E786D6C504B0506000000000E000E0080040000641100000000
  0
XRECORD
  5
175
102
{ACAD_REACTORS
330
173
102
}
330
173
100
AcDbXrecord
280
     1
270
     1
271
     1
  0
XRECORD
  5
174
102
{ACAD_REACTORS
330
173
102
}
330
173
100
AcDbXrecord
280
     1
270
     1
271
     1
  0
XRECORD
  5
1FB
102
{ACAD_REACTORS
330
173
102
}
330
173
100
AcDbXrecord
280
     1
 70
     0
 90
1673772943
  1
ECE7A1D2-D628-4531-984C-D00F80459256
310
504B03040A0000080000CC70623B3DEE336E79000000790000001B0000006175746F6465736B2D64657369676E2D7061636B6167652E786D6C3C3F786D6C2076657273696F6E3D22312E302220656E636F64696E673D227574662D3822203F3E3C666F726D6174733E3C666F726D61743E687474703A2F2F736368656D612E
310
6175746F6465736B2E636F6D2F64657369676E2D7061636B6167652F323030393C2F666F726D61743E3C2F666F726D6174733E504B0304140006080800CC70623BD486FD9CA0000000F4000000130000005B436F6E74656E745F54797065735D2E786D6C7D8EC10E82300C865F65E91D8A1E8C310C0EEA1BF002731658846E
310
D98AC1B77784ABF1D8FE5FBFBF75BBCE937A534CCEB38643598122B6FEE978D0B0485F9C41B54DDD7D022595594E1A469170414C76A4D9A4D207E29CF43ECE46F218070CC6BECC4078ACAA135ACF422C856C0E68EA1BF5669944DDD7BCDE7B1F8E415D77AECB980613C2E4AC91FC167A2B244592486606FC29C8FD7F045B9A
310
EF7053A7E60B504B0304140006080800CC70623BD9DDAED0EC0000007C01000008000000636F72652E786D6C8D90416EC3201045AF82665B61836D9CD8C2444DD39CA01740405C94182C03558F5F9C3852BBEB6A467FFE9B197D7EF89E6EE8CB2CC17A37002D0820E394D7D68D03A478C17B4007C117EFE32F1B20272733C0
310
2A83E0E3E2D3BC49CABB685CCCAAF3DA6CA20CC14440EA969B0182FA34932C648AD911AEC52CD5558EA6A0CF2EC329598D1E47ACCEFBECC59A050463A7EA5833865FEBDD0E37353BE3EE8DBDE3F6786A48D375FBF6CC78B9C282473B3DEFABC5C86834888A900E538A49F5419B9EB47DD5BC907D4F082F57FB1F28CDFA9F50
310
B22ED6D5F6EE030B20687EE43E10BC5CB3C8E51E54AE6B6EE207504B0304140006080800CC70623B55019EA25F0000007C00000007000000636E782E786D6C4DCB3B0E80201045D1AD90E915ED2CF8AC45050C11660C8261F98AB1B07AC9C97D42D718D865D3E909258CFD00CCE24AC6E326A164D74DC0B4128928FF326038
310
472BA13128B1252AC747C6BAB984FC68F0B87FE8960A5C09FE86CFB69FBA01504B0304140006080800CC70623BA24EB22D72010000D40300000C0000006662782F636F72652E786D6CC5535B6E833010BC8AE5DF0A6C5E49888CA3A6694ED00B38E05014B091B1518EDFE511A5A9D228FD2A1F60CDEC7A67C6986DCE4D8D7A
310
69BA4AAB0C073EC548AA5C17952A33ECECD15B61B4E1CC686DBF9561A44423333CC098B3D268D7CE50AE9595CA02AA74216750749DB418E5352C32DCE59FB211BE70162ABA93DF8AFC244AE9073ED050C759670D0840D390E18DF9F1706664C23973AE2A66B62A605A75ACA4C13C4976E1364A12EF355A2EBD384AF65EFA96
310
BC7B8BED2EA6719AAE16FB8491A199335B351775B991C2CA02F390D2D40B028F861F41BCA68B7518BFD0D59A524686F29B26D7164F36B94AD9289CE54E6D1DE6010819891F6E21228B3AD1831EC219194284CF98F06DD01008846CC5A1BEF83801D4CBDC6A1303536877A57A513B0953A94FC707FDBE6064EA84A9E3E6E0FA
310
EE8CF0E9198F7784A316AA0413C2C2F2E0ECA0934D1AE6D05A69BCDE9E91D2A611F573361E38FC1375157F5752AE6B6DFE4B11990F88CCBF0719EE23FF02504B0304140006080800CC70623B408A7D3B7C0000009D0000000B0000006662782F636E782E786D6C4DCCD10A83201886E15B91FFDC552A92A0064DBC8F581632
310
D3703A76F9ABD1C18E3E78F878E5F0D9027ABBFCF2292AE86E2D20171F69F6715550CB827B40839639A5F2770314A7CD293819B45C73AAFB45B35BA61ACAA1C1C7E7855C58C15BC331339661262CC762340413D68D77DA5B42298546CBE6573AF60CEB2F504B0304140006080800CC70623B449FB9BD290100001202000031
310
0000006662782F36394639363044362D344446342D343946362D394244322D3234314243333846323333332F636F72652E786D6C8D515B6EC32010BC0AE22B55850D98B871848994463E412FE002495162B07854397EA176A4F62F3F2C9A9D991D587EB84F37F0AD7D30CEF6905418026DA553C65E7A98E219ED203808EE9D
310
8B7F6810D871D23D2C3014FCE25D9A57483A1BB58D19B54EE9151C43D0110279CB971E06F9A5A7B11A53CC8C70ADE6515EC78BAE4895DB992778883E0700CB907242D17643D7E2538BD869608875438BBAE38922CAC8F1BDD90DB4691A5E2F42C153326A951B95E398B3D1FE599322163C9AE9115F7A3D46ADA0A018778810
310
84E907617BDCEE297BC5BB3DC6BC2EF47FA234AB2745C9D8D8D035EE220B50105E2F0DC1954B9FB747187D9F9D8FA0CCDB042D5FA0C015C65B42DF78BD10F3F3B363CB56C7109DCFDFBBB97E662ED92EB62D13BC2E1BCAE5777DB9966D8A1F504B0304140006080800CC70623BAD7543B64E01000033030000300000006662
310
782F36394639363044362D344446342D343946362D394244322D3234314243333846323333332F636E782E786D6CD593CD6EC32010845F0571AD6CE3D48AD20813A9873E410FBD12D82434182C7EAAE6EDBB2424CD25871E7B41D6EC30B3FA84F9E67BB2E40B4234DE8DB46F1925E094D7C6ED479AD3AE5951B2113C789FEE
310
6C943839C1488B4C05DF079FE72A69D8C96C13AAD6B8631503449F83828872B949AC57D26200B826A308D316B4064D6E46FCDA41C05550DC9E483A00797BFD207EFB092A45DE9514C1BBD22178396BD39D891265658C238DEA00936C654E5E433CB65A26D9F6EDB5EBC14EBF49A45CB856E66048291F6939A9A81BB5C89177
310
38143CA680F4AA299D66A042CEB3354A2684DC9D8D178FE0D9B8B41CAAD720F880EE7EF93C0C18769E099ECC04D5A102C8049A8A05632F4DDF376CF1DE0F6BB65C2F8627B65A33C6BB62177CEBBDAD973006829F89F22E814B54F4BC2BE347F8AA8F681390B50FA73F804400B5F542E796F19FF974E7F78DB802FE05E20750
310
4B0304140006080800CC70623B8D05915C650500003B100000340000006662782F36394639363044362D344446342D343946362D394244322D3234314243333846323333332F6F626A656374732E786D6CAD575B6FA33814FE2B887D06429276DA1565D4266D158D3A339A6846FB502932E050B66023DB74D2FDF5FB190C01
310
9276B2973C046C8ECFF53B17071F77456EBD502133CEAE6CDF9DD81665314F32965ED995DA3A17B6F5310C04E7AA47665B8C14F4CAD6DB7618A48257A5D94AE89654B91AEDDEDDFC61C998326A5B714EA4BCB265FC440BE2924AF184CA6737218AB8E976E7FA6E4338649B0A523E8D98964450A6A029F619B8588D52FE7039
310
B1BD30F0F4F730D0FF866AF6369557DB33949F31A9088B0F848DD8CCFCF9F2767A76E99CCDE733677E3EF59D9BBB9BA5E37F984D16E78BC5E5F5ED25044B25C0C96822E8D60EEFE11B91C581D77CEA34368A1F5329E68CD1B8B61F16D63A1B8E092D294B10C78C4A48EB593D192E7DED9BDEE7995E1B91FDEDD3ACEA9FE831
310
6A756F9F7D4D79F4274C90A7A04248AA51D5F8C718DAE06FB2F75AC4796EBE65D22A88A22223B995679120E2D50E41AA49C260C046A35368846B0BECD0DFF3EBEB8AD4F835768F69B9ADF25C43D30E6B646F807FAA64AD59F61715C7A54127C4AACA98BA3006A9D792DAE165E0D59B61A01FB3A9F9D838D2DAE62445C86166
310
F37564E842E7DE6A69879FEEA2DD5AE7E371E1A5E025154AC307D06A03D73EB5978C58FFA4C8E9033066E0F3BD53BEC1F39F91BE7B55103791EDE6BBB991A2046172CB4581D8B893FA674DDA17A77B3B7C413D1B511FD2743BFF8A38F03A658705E3ADF8015C3A3417FF3D7E439FF591DA0B5F18BC20C1B8981957AE6392A3
310
F43C640C01D1A0B4728E2DD4F26DB4B3C3152A252A3B4E913CEC1C72F012782FF88EFF8637AA552DBEF76408E8A8DE9E50F9E1CB3A2DA0DB1B6039A893B56063DC5B3E3FFB5F72E67AB9FEB4AEC496C4F4C1149625DD662C53E89D7BF0F6151A046260D1337DFDC94502430F83B0EE07A130A224BCAD7DAE1D9FB6CD422FF6
310
920702629C4BB9AE79C12F243C6432A6794E18E5552BA56B431AAB5D91317302B2B071E86C3A42B1A02F999E24061403B5D0EB639195DA655DD3EBEAB4FB862DDF579F014AD0E73C22F99E28DA57FB98E75C6CA2D74D53086D600F4786E0FE3144B771A8A7B900F03594DB8A633CBC49B2EDB69228BB479CF863B5E807AAAB
310
23872F6DFEB4129B949CA33823F58830E86D65621E10047D9DB34D862E8EAC3C2ABC2F7B2C40D67CDFE01F5545B92105AF983AC54D93D69E56FB8E797F88913F898A9FEC705D3F9D1B54EC8426FB500D40A03BD0119B06E1B95DDC7EB8F6975367793EBD70E66733DFB9BC982F9CE564727731999F5D4ECFCE3B8D6A4DC2A0
310
6D50FD148437D110834A64C6CDDF57FBACB5C307A2A477DFE4939736CFEF2B175371E0E10CF0DD1D5C15654E0BCA14D1E87DD02FF93782A162C0A3D95F1524A52770F972BF1EE9809D13CE7DD599467F8ECE9ADD85CE85A34CD45355448C64F9E8A031DC2D596ACC6E5DD93D9B82DE2EF5CAF81363A8E47996A0DE24564A79
310
4115AACE09C55E14540231FDA13C319787134EBF34E3A022514E5B4D9E0826E25C02D5805B15ABE1BEF51B26383D445DD9E875EE33FE4C22DA16427D65A3BCA92CA6D28DD01DF5DC53330704308475351050232CCD31583787BA75774AFB06E5070DD0C8EF484E19968C5D83BA5B90B244D31E54D55A372320FE4786B7EA58
310
44E135AA5467CB7EA333A61683CC6A8C3257034C10CF46F40EF9F5BE59BE5BD30C3C72D235E95D10345C1D45445A5F0BB47E46A5EBE5570F9380B5FA629579952296A773720405982B9DE04011506178964401AA8BDF1FBF0A8EAB6861DD6580C0E38217056766716DAEB2D6FA0917D3E4116581EADB879C4E7CFFB11EFACD
310
3D641311495D92C8676CB409A72D18610D803CE8A626049E8EC1887CB5B44CC39883690DDA8399B4B9855B481E7D71D4A9D22F96E5BB73BF5793020C02137BF837504B0304140006080000CC70623B000000000000000000000000350000006662782F36394639363044362D344446342D343946362D394244322D32343142
310
43333846323333332F76657274696365732E62696E504B0304140006080800CC70623BF270F1330600000004000000360000006662782F36394639363044362D344446342D343946362D394244322D3234314243333846323333332F747269616E676C65732E62696E636660600000504B0304140006080000CC70623B0000
310
00000000000000000000370000006662782F36394639363044362D344446342D343946362D394244322D3234314243333846323333332F617474726962757465732E62696E504B0304140006080800CC70623B08DA0BD19000000041010000360000006662782F36394639363044362D344446342D343946362D394244322D
310
3234314243333846323333332F6469726563746F72792E786D6C858F410AC3201045AF22B36F53E9A60B35CBEEBAE80D244E44489C6234F4F835464A48035D0DF398FF9F8AF63D0E6CC63039F212F8F9020C7D47C6792B21C5FE7403D62A1188E2E60C98D7234A5830286103A55745067B9D86B8A3CF9C7F90C11DE607FB14
310
4396D7B6A82D282E9A152AD114D5EF2CB866EEE831B8EEA07A7BB5A8D7D61A2BAAEB7FD5F70921FF497D00504B0304140006080800CC70623BCA768048FE000000A00100003B0000006662782F36394639363044362D344446342D343946362D394244322D3234314243333846323333332F7265736F75726365732F636F72
310
652E786D6C8D50596E833010BD0A9ADFCA60D600328E9AA639412F609909B1126CE4A5EAF16B0295DABFFECC8CDEA2797AECF8353F924FB44E193D409E5248504B332A3D0D10FC95B4901C39B3C6F85F3248B49871801506CE266BC2B243D2688FDA47549B11775038871E12F988C7004EDE7016A9083E2ADC3D5D84BC8B09
310
D33C8D74D471E6BC8D0192EDC93A815B742658898E651BCB59086ADC356A8C3FD555A1055ED7E7E254D615792D0F075295F585746FF53B694EE78A565DD736979A65AB9933AFE69F8CD2A2F038022F28ED489E135A7CE4554F9BBEA85E68DB53CAB255FEC71496F19FA6A0B42F8B3DEE6673C0F318E4497096AD7DC5F52C33
310
EEB55BFE0D504B010214000A0000080000CC70623B3DEE336E79000000790000001B00000000000000000000000000000000006175746F6465736B2D64657369676E2D7061636B6167652E786D6C504B01021400140006080800CC70623BD486FD9CA0000000F40000001300000000000000000000000000B20000005B436F
310
6E74656E745F54797065735D2E786D6C504B01021400140006080800CC70623BD9DDAED0EC0000007C010000080000000000000000000000000083010000636F72652E786D6C504B01021400140006080800CC70623B55019EA25F0000007C000000070000000000000000000000000095020000636E782E786D6C504B0102
310
1400140006080800CC70623BA24EB22D72010000D40300000C00000000000000000000000000190300006662782F636F72652E786D6C504B01021400140006080800CC70623B408A7D3B7C0000009D0000000B00000000000000000000000000B50400006662782F636E782E786D6C504B01021400140006080800CC70623B
310
449FB9BD290100001202000031000000000000000000000000005A0500006662782F36394639363044362D344446342D343946362D394244322D3234314243333846323333332F636F72652E786D6C504B01021400140006080800CC70623BAD7543B64E010000330300003000000000000000000000000000D20600006662
310
782F36394639363044362D344446342D343946362D394244322D3234314243333846323333332F636E782E786D6C504B01021400140006080800CC70623B8D05915C650500003B10000034000000000000000000000000006E0800006662782F36394639363044362D344446342D343946362D394244322D32343142433338
310
46323333332F6F626A656374732E786D6C504B01021400140006080000CC70623B0000000000000000000000003500000000000000000000000000250E00006662782F36394639363044362D344446342D343946362D394244322D3234314243333846323333332F76657274696365732E62696E504B010214001400060808
310
00CC70623BF270F13306000000040000003600000000000000000000000000780E00006662782F36394639363044362D344446342D343946362D394244322D3234314243333846323333332F747269616E676C65732E62696E504B01021400140006080000CC70623B00000000000000000000000037000000000000000000
310
00000000D20E00006662782F36394639363044362D344446342D343946362D394244322D3234314243333846323333332F617474726962757465732E62696E504B01021400140006080800CC70623B08DA0BD190000000410100003600000000000000000000000000270F00006662782F36394639363044362D344446342D
310
343946362D394244322D3234314243333846323333332F6469726563746F72792E786D6C504B01021400140006080800CC70623BCA768048FE000000A00100003B000000000000000000000000000B1000006662782F36394639363044362D344446342D343946362D394244322D3234314243333846323333332F7265736F
310
75726365732F636F72652E786D6C504B0506000000000E000E0080040000621100000000
  0
XRECORD
  5
176
102
{ACAD_REACTORS
330
173
102
}
330
173
100
AcDbXrecord
280
     1
270
     1
271
     1
  0
XRECORD
  5
177
102
{ACAD_REACTORS
330
173
102
}
330
173
100
AcDbXrecord
280
     1
270
     1
271
     1
  0
XRECORD
  5
290
102
{ACAD_REACTORS
330
234
102
}
330
234
100
AcDbXrecord
280
     1
102
DISPLAYNAME
  1
Metric50
102
FLAGS
 90
        0
  0
CELLSTYLEMAP
  5
256
102
{ACAD_REACTORS
330
162
102
}
330
162
100
AcDbCellStyleMap
 90
        3
300
CELLSTYLE
  1
TABLEFORMAT_BEGIN
 90
        5
170
     1
 91
        0
 92
    32768
 62
   257
 93
        1
300
CONTENTFORMAT
  1
CONTENTFORMAT_BEGIN
 90
        0
 91
        0
 92
      512
 93
        0
300

 40
0.0
140
1.0
 94
        5
 62
     0
340
11
144
6.0
309
CONTENTFORMAT_END
171
     1
301
MARGIN
  1
CELLMARGIN_BEGIN
 40
1.5
 40
1.5
 40
1.5
 40
1.5
 40
4.5
 40
4.5
309
CELLMARGIN_END
 94
        6
 95
        1
302
GRIDFORMAT
  1
GRIDFORMAT_BEGIN
 90
        0
 91
        1
 62
     0
 92
       -2
340
14
 93
        0
 40
1.125
309
GRIDFORMAT_END
 95
        2
302
GRIDFORMAT
  1
GRIDFORMAT_BEGIN
 90
        0
 91
        1
 62
     0
 92
       -2
340
14
 93
        0
 40
1.125
309
GRIDFORMAT_END
 95
        4
302
GRIDFORMAT
  1
GRIDFORMAT_BEGIN
 90
        0
 91
        1
 62
     0
 92
       -2
340
14
 93
        0
 40
1.125
309
GRIDFORMAT_END
 95
        8
302
GRIDFORMAT
  1
GRIDFORMAT_BEGIN
 90
        0
 91
        1
 62
     0
 92
       -2
340
14
 93
        0
 40
1.125
309
GRIDFORMAT_END
 95
       16
302
GRIDFORMAT
  1
GRIDFORMAT_BEGIN
 90
        0
 91
        1
 62
     0
 92
       -2
340
14
 93
        0
 40
1.125
309
GRIDFORMAT_END
 95
       32
302
GRIDFORMAT
  1
GRIDFORMAT_BEGIN
 90
        0
 91
        1
 62
     0
 92
       -2
340
14
 93
        0
 40
1.125
309
GRIDFORMAT_END
309
TABLEFORMAT_END
  1
CELLSTYLE_BEGIN
 90
        1
 91
        1
300
_TITLE
309
CELLSTYLE_END
300
CELLSTYLE
  1
TABLEFORMAT_BEGIN
 90
        5
170
     1
 91
        0
 92
        0
 62
   257
 93
        1
300
CONTENTFORMAT
  1
CONTENTFORMAT_BEGIN
 90
        0
 91
        0
 92
      512
 93
        0
300

 40
0.0
140
1.0
 94
        5
 62
     0
340
11
144
4.5
309
CONTENTFORMAT_END
171
     1
301
MARGIN
  1
CELLMARGIN_BEGIN
 40
1.5
 40
1.5
 40
1.5
 40
1.5
 40
4.5
 40
4.5
309
CELLMARGIN_END
 94
        6
 95
        1
302
GRIDFORMAT
  1
GRIDFORMAT_BEGIN
 90
        0
 91
        1
 62
     0
 92
       -2
340
14
 93
        0
 40
1.125
309
GRIDFORMAT_END
 95
        2
302
GRIDFORMAT
  1
GRIDFORMAT_BEGIN
 90
        0
 91
        1
 62
     0
 92
       -2
340
14
 93
        0
 40
1.125
309
GRIDFORMAT_END
 95
        4
302
GRIDFORMAT
  1
GRIDFORMAT_BEGIN
 90
        0
 91
        1
 62
     0
 92
       -2
340
14
 93
        0
 40
1.125
309
GRIDFORMAT_END
 95
        8
302
GRIDFORMAT
  1
GRIDFORMAT_BEGIN
 90
        0
 91
        1
 62
     0
 92
       -2
340
14
 93
        0
 40
1.125
309
GRIDFORMAT_END
 95
       16
302
GRIDFORMAT
  1
GRIDFORMAT_BEGIN
 90
        0
 91
        1
 62
     0
 92
       -2
340
14
 93
        0
 40
1.125
309
GRIDFORMAT_END
 95
       32
302
GRIDFORMAT
  1
GRIDFORMAT_BEGIN
 90
        0
 91
        1
 62
     0
 92
       -2
340
14
 93
        0
 40
1.125
309
GRIDFORMAT_END
309
TABLEFORMAT_END
  1
CELLSTYLE_BEGIN
 90
        2
 91
        1
300
_HEADER
309
CELLSTYLE_END
300
CELLSTYLE
  1
TABLEFORMAT_BEGIN
 90
        5
170
     1
 91
        0
 92
        0
 62
   257
 93
        1
300
CONTENTFORMAT
  1
CONTENTFORMAT_BEGIN
 90
        0
 91
        0
 92
      512
 93
        0
300

 40
0.0
140
1.0
 94
        2
 62
     0
340
11
144
4.5
309
CONTENTFORMAT_END
171
     1
301
MARGIN
  1
CELLMARGIN_BEGIN
 40
1.5
 40
1.5
 40
1.5
 40
1.5
 40
4.5
 40
4.5
309
CELLMARGIN_END
 94
        6
 95
        1
302
GRIDFORMAT
  1
GRIDFORMAT_BEGIN
 90
        0
 91
        1
 62
     0
 92
       -2
340
14
 93
        0
 40
1.125
309
GRIDFORMAT_END
 95
        2
302
GRIDFORMAT
  1
GRIDFORMAT_BEGIN
 90
        0
 91
        1
 62
     0
 92
       -2
340
14
 93
        0
 40
1.125
309
GRIDFORMAT_END
 95
        4
302
GRIDFORMAT
  1
GRIDFORMAT_BEGIN
 90
        0
 91
        1
 62
     0
 92
       -2
340
14
 93
        0
 40
1.125
309
GRIDFORMAT_END
 95
        8
302
GRIDFORMAT
  1
GRIDFORMAT_BEGIN
 90
        0
 91
        1
 62
     0
 92
       -2
340
14
 93
        0
 40
1.125
309
GRIDFORMAT_END
 95
       16
302
GRIDFORMAT
  1
GRIDFORMAT_BEGIN
 90
        0
 91
        1
 62
     0
 92
       -2
340
14
 93
        0
 40
1.125
309
GRIDFORMAT_END
 95
       32
302
GRIDFORMAT
  1
GRIDFORMAT_BEGIN
 90
        0
 91
        1
 62
     0
 92
       -2
340
14
 93
        0
 40
1.125
309
GRIDFORMAT_END
309
TABLEFORMAT_END
  1
CELLSTYLE_BEGIN
 90
        3
 91
        2
300
_DATA
309
CELLSTYLE_END
  0
XRECORD
  5
26B
102
{ACAD_REACTORS
330
26A
102
}
330
26A
100
AcDbXrecord
280
     1
102
RTVSPost2010Prop28
280
     1
102
RTVSPost2010PropOp28
 70
     1
102
RTVSPost2010Prop29
280
     1
102
RTVSPost2010PropOp29
 70
     1
102
RTVSPost2010Prop30
280
     0
102
RTVSPost2010PropOp30
 70
     1
102
RTVSPost2010Prop31
280
     0
102
RTVSPost2010PropOp31
 70
     1
102
RTVSPost2010Prop32
280
     0
102
RTVSPost2010PropOp32
 70
     1
102
RTVSPost2010Prop33
280
     0
102
RTVSPost2010PropOp33
 70
     1
102
RTVSPost2010Prop34
280
     0
102
RTVSPost2010PropOp34
 70
     1
102
RTVSPost2010Prop35
280
     0
102
RTVSPost2010PropOp35
 70
     1
102
RTVSPost2010Prop36
280
     0
102
RTVSPost2010PropOp36
 70
     1
102
RTVSPost2010Prop37
 90
       50
102
RTVSPost2010PropOp37
 70
     1
102
RTVSPost2010Prop38
140
0.0
102
RTVSPost2010PropOp38
 70
     1
102
RTVSPost2010Prop39
140
1.0
102
RTVSPost2010PropOp39
 70
     1
102
RTVSPost2010Prop40
 90
        0
102
RTVSPost2010PropOp40
 70
     1
102
RTVSPost2010Prop41ColorIndex
 90
       18
102
RTVSPost2010Prop41ColorRGB
 90
        0
102
RTVSPost2010PropOp41
 70
     1
102
RTVSPost2010Prop42
 90
       50
102
RTVSPost2010PropOp42
 70
     1
102
RTVSPost2010Prop43
 90
        3
102
RTVSPost2010PropOp43
 70
     1
102
RTVSPost2010Prop44ColorIndex
 90
        5
102
RTVSPost2010Prop44ColorRGB
 90
      255
102
RTVSPost2010PropOp44
 70
     1
102
RTVSPost2010Prop45
280
     0
102
RTVSPost2010PropOp45
 70
     1
102
RTVSPost2010Prop46
 90
       50
102
RTVSPost2010PropOp46
 70
     1
102
RTVSPost2010Prop47
 90
       50
102
RTVSPost2010PropOp47
 70
     1
102
RTVSPost2010Prop48
 90
       50
102
RTVSPost2010PropOp48
 70
     1
102
RTVSPost2010Prop49
280
     0
102
RTVSPost2010PropOp49
 70
     1
102
RTVSPost2010Prop50
 90
       50
102
RTVSPost2010PropOp50
 70
     1
102
RTVSPost2010Prop51ColorIndex
 90
      256
102
RTVSPost2010Prop51ColorRGB
 90
-16777216
102
RTVSPost2010PropOp51
 70
     0
102
RTVSPost2010Prop52
140
1.0
102
RTVSPost2010PropOp52
 70
     0
102
RTVSPost2010Prop53
 90
        2
102
RTVSPost2010PropOp53
 70
     1
102
RTVSPost2010Prop54
  1
strokes_ogs.tif
102
RTVSPost2010PropOp54
 70
     1
102
RTVSPost2010Prop55
280
     0
102
RTVSPost2010PropOp55
 70
     1
102
RTVSPost2010Prop56
140
1.0
102
RTVSPost2010PropOp56
 70
     1
102
RTVSPost2010Prop57
140
1.0
102
RTVSPost2010PropOp57
 70
     1
102
RTVSPropertyOp0
 70
     1
102
RTVSPropertyOp1
 70
     1
102
RTVSPropertyOp2
 70
     1
102
RTVSPropertyOp3
 70
     1
102
RTVSPropertyOp4
 70
     1
102
RTVSPropertyOp5
 70
     1
102
RTVSPropertyOp6
 70
     1
102
RTVSPropertyOp7
 70
     1
102
RTVSPropertyOp8
 70
     1
102
RTVSPropertyOp9
 70
     1
102
RTVSPropertyOp10
 70
     1
102
RTVSPropertyOp11
 70
     1
102
RTVSPropertyOp12
 70
     1
102
RTVSPropertyOp13
 70
     1
102
RTVSPropertyOp14
 70
     1
102
RTVSPropertyOp15
 70
     1
102
RTVSPropertyOp16
 70
     1
102
RTVSPropertyOp17
 70
     1
102
RTVSPropertyOp18
 70
     1
102
RTVSPropertyOp19
 70
     1
102
RTVSPropertyOp20
 70
     1
102
RTVSPropertyOp21
 70
     1
102
RTVSPropertyOp22
 70
     1
102
RTVSPropertyOp23
 70
     1
102
RTVSPropertyOp24
 70
     1
102
RTVSPropertyOp25
 70
     1
102
RTVSPropertyOp26
 70
     1
102
RTVSPropertyOp27
 70
     1
102
RTVSPropertyOp28
 70
     1
102
RTVSPropertyOp29
 70
     1
102
RTVSPropertyOp30
 70
     1
102
RTVSPropertyOp31
 70
     1
102
RTVSPropertyOp32
 70
     1
102
RTVSPropertyOp33
 70
     1
102
RTVSPropertyOp34
 70
     1
102
RTVSPropertyOp35
 70
     1
102
RTVSPropertyOp36
 70
     1
102
RTVSPropertyOp37
 70
     1
102
RTVSPropertyOp38
 70
     1
102
RTVSPropertyOp39
 70
     1
102
RTVSPropertyOp40
 70
     1
102
RTVSPropertyOp41
 70
     1
102
RTVSPropertyOp42
 70
     1
102
RTVSPropertyOp43
 70
     1
102
RTVSPropertyOp44
 70
     1
102
RTVSPropertyOp45
 70
     1
102
RTVSPropertyOp46
 70
     1
102
RTVSPropertyOp47
 70
     1
102
RTVSPropertyOp48
 70
     1
102
RTVSPropertyOp49
 70
     1
102
RTVSPropertyOp50
 70
     1
102
RTVSPropertyOp51
 70
     0
102
RTVSPropertyOp52
 70
     0
102
RTVSPropertyOp53
 70
     1
102
RTVSPropertyOp54
 70
     1
102
RTVSPropertyOp55
 70
     1
102
RTVSPropertyOp56
 70
     1
102
RTVSPropertyOp57
 70
     1
102
RTVSPropertyOp58
 70
     1
102
RTVSPropertyOp59
 70
     1
102
RTVSPropertyOp60
 70
     1
102
RTVSPropertyOp61
 70
     1
102
RTVSPropertyOp62
 70
     1
  0
XRECORD
  5
269
102
{ACAD_REACTORS
330
268
102
}
330
268
100
AcDbXrecord
280
     1
102
RTVSPost2010Prop28
280
     0
102
RTVSPost2010PropOp28
 70
     1
102
RTVSPost2010Prop29
280
     1
102
RTVSPost2010PropOp29
 70
     1
102
RTVSPost2010Prop30
280
     1
102
RTVSPost2010PropOp30
 70
     1
102
RTVSPost2010Prop31
280
     0
102
RTVSPost2010PropOp31
 70
     1
102
RTVSPost2010Prop32
280
     0
102
RTVSPost2010PropOp32
 70
     1
102
RTVSPost2010Prop33
280
     0
102
RTVSPost2010PropOp33
 70
     1
102
RTVSPost2010Prop34
280
     0
102
RTVSPost2010PropOp34
 70
     1
102
RTVSPost2010Prop35
280
     0
102
RTVSPost2010PropOp35
 70
     1
102
RTVSPost2010Prop36
280
     0
102
RTVSPost2010PropOp36
 70
     1
102
RTVSPost2010Prop37
 90
       50
102
RTVSPost2010PropOp37
 70
     1
102
RTVSPost2010Prop38
140
0.0
102
RTVSPost2010PropOp38
 70
     1
102
RTVSPost2010Prop39
140
1.0
102
RTVSPost2010PropOp39
 70
     1
102
RTVSPost2010Prop40
 90
        0
102
RTVSPost2010PropOp40
 70
     1
102
RTVSPost2010Prop41ColorIndex
 90
       18
102
RTVSPost2010Prop41ColorRGB
 90
        0
102
RTVSPost2010PropOp41
 70
     1
102
RTVSPost2010Prop42
 90
       50
102
RTVSPost2010PropOp42
 70
     1
102
RTVSPost2010Prop43
 90
        3
102
RTVSPost2010PropOp43
 70
     1
102
RTVSPost2010Prop44ColorIndex
 90
        5
102
RTVSPost2010Prop44ColorRGB
 90
      255
102
RTVSPost2010PropOp44
 70
     1
102
RTVSPost2010Prop45
280
     0
102
RTVSPost2010PropOp45
 70
     1
102
RTVSPost2010Prop46
 90
       50
102
RTVSPost2010PropOp46
 70
     1
102
RTVSPost2010Prop47
 90
       50
102
RTVSPost2010PropOp47
 70
     1
102
RTVSPost2010Prop48
 90
       50
102
RTVSPost2010PropOp48
 70
     1
102
RTVSPost2010Prop49
280
     0
102
RTVSPost2010PropOp49
 70
     1
102
RTVSPost2010Prop50
 90
       50
102
RTVSPost2010PropOp50
 70
     1
102
RTVSPost2010Prop51ColorIndex
 90
      256
102
RTVSPost2010Prop51ColorRGB
 90
-16777216
102
RTVSPost2010PropOp51
 70
     0
102
RTVSPost2010Prop52
140
1.0
102
RTVSPost2010PropOp52
 70
     0
102
RTVSPost2010Prop53
 90
        2
102
RTVSPost2010PropOp53
 70
     1
102
RTVSPost2010Prop54
  1
strokes_ogs.tif
102
RTVSPost2010PropOp54
 70
     1
102
RTVSPost2010Prop55
280
     0
102
RTVSPost2010PropOp55
 70
     1
102
RTVSPost2010Prop56
140
1.0
102
RTVSPost2010PropOp56
 70
     1
102
RTVSPost2010Prop57
140
1.0
102
RTVSPost2010PropOp57
 70
     1
102
RTVSPropertyOp0
 70
     1
102
RTVSPropertyOp1
 70
     1
102
RTVSPropertyOp2
 70
     1
102
RTVSPropertyOp3
 70
     1
102
RTVSPropertyOp4
 70
     1
102
RTVSPropertyOp5
 70
     1
102
RTVSPropertyOp6
 70
     1
102
RTVSPropertyOp7
 70
     1
102
RTVSPropertyOp8
 70
     1
102
RTVSPropertyOp9
 70
     1
102
RTVSPropertyOp10
 70
     1
102
RTVSPropertyOp11
 70
     1
102
RTVSPropertyOp12
 70
     1
102
RTVSPropertyOp13
 70
     1
102
RTVSPropertyOp14
 70
     1
102
RTVSPropertyOp15
 70
     1
102
RTVSPropertyOp16
 70
     1
102
RTVSPropertyOp17
 70
     1
102
RTVSPropertyOp18
 70
     1
102
RTVSPropertyOp19
 70
     1
102
RTVSPropertyOp20
 70
     1
102
RTVSPropertyOp21
 70
     1
102
RTVSPropertyOp22
 70
     1
102
RTVSPropertyOp23
 70
     1
102
RTVSPropertyOp24
 70
     1
102
RTVSPropertyOp25
 70
     1
102
RTVSPropertyOp26
 70
     1
102
RTVSPropertyOp27
 70
     1
102
RTVSPropertyOp28
 70
     1
102
RTVSPropertyOp29
 70
     1
102
RTVSPropertyOp30
 70
     1
102
RTVSPropertyOp31
 70
     1
102
RTVSPropertyOp32
 70
     1
102
RTVSPropertyOp33
 70
     1
102
RTVSPropertyOp34
 70
     1
102
RTVSPropertyOp35
 70
     1
102
RTVSPropertyOp36
 70
     1
102
RTVSPropertyOp37
 70
     1
102
RTVSPropertyOp38
 70
     1
102
RTVSPropertyOp39
 70
     1
102
RTVSPropertyOp40
 70
     1
102
RTVSPropertyOp41
 70
     1
102
RTVSPropertyOp42
 70
     1
102
RTVSPropertyOp43
 70
     1
102
RTVSPropertyOp44
 70
     1
102
RTVSPropertyOp45
 70
     1
102
RTVSPropertyOp46
 70
     1
102
RTVSPropertyOp47
 70
     1
102
RTVSPropertyOp48
 70
     1
102
RTVSPropertyOp49
 70
     1
102
RTVSPropertyOp50
 70
     1
102
RTVSPropertyOp51
 70
     0
102
RTVSPropertyOp52
 70
     0
102
RTVSPropertyOp53
 70
     1
102
RTVSPropertyOp54
 70
     1
102
RTVSPropertyOp55
 70
     1
102
RTVSPropertyOp56
 70
     1
102
RTVSPropertyOp57
 70
     1
102
RTVSPropertyOp58
 70
     1
102
RTVSPropertyOp59
 70
     1
102
RTVSPropertyOp60
 70
     1
102
RTVSPropertyOp61
 70
     1
102
RTVSPropertyOp62
 70
     1
  0
XRECORD
  5
277
102
{ACAD_REACTORS
330
276
102
}
330
276
100
AcDbXrecord
280
     1
102
RTVSPost2010Prop28
280
     0
102
RTVSPost2010PropOp28
 70
     1
102
RTVSPost2010Prop29
280
     1
102
RTVSPost2010PropOp29
 70
     1
102
RTVSPost2010Prop30
280
     1
102
RTVSPost2010PropOp30
 70
     1
102
RTVSPost2010Prop31
280
     0
102
RTVSPost2010PropOp31
 70
     1
102
RTVSPost2010Prop32
280
     0
102
RTVSPost2010PropOp32
 70
     1
102
RTVSPost2010Prop33
280
     0
102
RTVSPost2010PropOp33
 70
     1
102
RTVSPost2010Prop34
280
     0
102
RTVSPost2010PropOp34
 70
     1
102
RTVSPost2010Prop35
280
     0
102
RTVSPost2010PropOp35
 70
     1
102
RTVSPost2010Prop36
280
     0
102
RTVSPost2010PropOp36
 70
     1
102
RTVSPost2010Prop37
 90
       50
102
RTVSPost2010PropOp37
 70
     1
102
RTVSPost2010Prop38
140
0.0
102
RTVSPost2010PropOp38
 70
     1
102
RTVSPost2010Prop39
140
1.0
102
RTVSPost2010PropOp39
 70
     1
102
RTVSPost2010Prop40
 90
        0
102
RTVSPost2010PropOp40
 70
     1
102
RTVSPost2010Prop41ColorIndex
 90
       18
102
RTVSPost2010Prop41ColorRGB
 90
        0
102
RTVSPost2010PropOp41
 70
     1
102
RTVSPost2010Prop42
 90
       50
102
RTVSPost2010PropOp42
 70
     1
102
RTVSPost2010Prop43
 90
        3
102
RTVSPost2010PropOp43
 70
     1
102
RTVSPost2010Prop44ColorIndex
 90
        5
102
RTVSPost2010Prop44ColorRGB
 90
      255
102
RTVSPost2010PropOp44
 70
     1
102
RTVSPost2010Prop45
280
     0
102
RTVSPost2010PropOp45
 70
     1
102
RTVSPost2010Prop46
 90
       50
102
RTVSPost2010PropOp46
 70
     1
102
RTVSPost2010Prop47
 90
       50
102
RTVSPost2010PropOp47
 70
     1
102
RTVSPost2010Prop48
 90
       50
102
RTVSPost2010PropOp48
 70
     1
102
RTVSPost2010Prop49
280
     0
102
RTVSPost2010PropOp49
 70
     1
102
RTVSPost2010Prop50
 90
       50
102
RTVSPost2010PropOp50
 70
     1
102
RTVSPost2010Prop51ColorIndex
 90
      256
102
RTVSPost2010Prop51ColorRGB
 90
-16777216
102
RTVSPost2010PropOp51
 70
     0
102
RTVSPost2010Prop52
140
1.0
102
RTVSPost2010PropOp52
 70
     0
102
RTVSPost2010Prop53
 90
        2
102
RTVSPost2010PropOp53
 70
     1
102
RTVSPost2010Prop54
  1
strokes_ogs.tif
102
RTVSPost2010PropOp54
 70
     1
102
RTVSPost2010Prop55
280
     0
102
RTVSPost2010PropOp55
 70
     1
102
RTVSPost2010Prop56
140
1.0
102
RTVSPost2010PropOp56
 70
     1
102
RTVSPost2010Prop57
140
1.0
102
RTVSPost2010PropOp57
 70
     1
102
RTVSPropertyOp0
 70
     1
102
RTVSPropertyOp1
 70
     1
102
RTVSPropertyOp2
 70
     1
102
RTVSPropertyOp3
 70
     1
102
RTVSPropertyOp4
 70
     1
102
RTVSPropertyOp5
 70
     1
102
RTVSPropertyOp6
 70
     1
102
RTVSPropertyOp7
 70
     1
102
RTVSPropertyOp8
 70
     1
102
RTVSPropertyOp9
 70
     1
102
RTVSPropertyOp10
 70
     1
102
RTVSPropertyOp11
 70
     1
102
RTVSPropertyOp12
 70
     1
102
RTVSPropertyOp13
 70
     1
102
RTVSPropertyOp14
 70
     1
102
RTVSPropertyOp15
 70
     1
102
RTVSPropertyOp16
 70
     1
102
RTVSPropertyOp17
 70
     1
102
RTVSPropertyOp18
 70
     1
102
RTVSPropertyOp19
 70
     1
102
RTVSPropertyOp20
 70
     1
102
RTVSPropertyOp21
 70
     1
102
RTVSPropertyOp22
 70
     1
102
RTVSPropertyOp23
 70
     1
102
RTVSPropertyOp24
 70
     1
102
RTVSPropertyOp25
 70
     1
102
RTVSPropertyOp26
 70
     1
102
RTVSPropertyOp27
 70
     1
102
RTVSPropertyOp28
 70
     1
102
RTVSPropertyOp29
 70
     1
102
RTVSPropertyOp30
 70
     1
102
RTVSPropertyOp31
 70
     1
102
RTVSPropertyOp32
 70
     1
102
RTVSPropertyOp33
 70
     1
102
RTVSPropertyOp34
 70
     1
102
RTVSPropertyOp35
 70
     1
102
RTVSPropertyOp36
 70
     1
102
RTVSPropertyOp37
 70
     1
102
RTVSPropertyOp38
 70
     1
102
RTVSPropertyOp39
 70
     1
102
RTVSPropertyOp40
 70
     1
102
RTVSPropertyOp41
 70
     1
102
RTVSPropertyOp42
 70
     1
102
RTVSPropertyOp43
 70
     1
102
RTVSPropertyOp44
 70
     1
102
RTVSPropertyOp45
 70
     1
102
RTVSPropertyOp46
 70
     1
102
RTVSPropertyOp47
 70
     1
102
RTVSPropertyOp48
 70
     1
102
RTVSPropertyOp49
 70
     1
102
RTVSPropertyOp50
 70
     1
102
RTVSPropertyOp51
 70
     0
102
RTVSPropertyOp52
 70
     0
102
RTVSPropertyOp53
 70
     1
102
RTVSPropertyOp54
 70
     1
102
RTVSPropertyOp55
 70
     1
102
RTVSPropertyOp56
 70
     1
102
RTVSPropertyOp57
 70
     1
102
RTVSPropertyOp58
 70
     1
102
RTVSPropertyOp59
 70
     1
102
RTVSPropertyOp60
 70
     1
102
RTVSPropertyOp61
 70
     1
102
RTVSPropertyOp62
 70
     1
  0
XRECORD
  5
27F
102
{ACAD_REACTORS
330
27E
102
}
330
27E
100
AcDbXrecord
280
     1
102
RTVSPost2010Prop28
280
     0
102
RTVSPost2010PropOp28
 70
     1
102
RTVSPost2010Prop29
280
     1
102
RTVSPost2010PropOp29
 70
     1
102
RTVSPost2010Prop30
280
     1
102
RTVSPost2010PropOp30
 70
     1
102
RTVSPost2010Prop31
280
     0
102
RTVSPost2010PropOp31
 70
     1
102
RTVSPost2010Prop32
280
     0
102
RTVSPost2010PropOp32
 70
     1
102
RTVSPost2010Prop33
280
     0
102
RTVSPost2010PropOp33
 70
     1
102
RTVSPost2010Prop34
280
     0
102
RTVSPost2010PropOp34
 70
     1
102
RTVSPost2010Prop35
280
     0
102
RTVSPost2010PropOp35
 70
     1
102
RTVSPost2010Prop36
280
     0
102
RTVSPost2010PropOp36
 70
     1
102
RTVSPost2010Prop37
 90
       50
102
RTVSPost2010PropOp37
 70
     1
102
RTVSPost2010Prop38
140
0.0
102
RTVSPost2010PropOp38
 70
     1
102
RTVSPost2010Prop39
140
1.0
102
RTVSPost2010PropOp39
 70
     1
102
RTVSPost2010Prop40
 90
        0
102
RTVSPost2010PropOp40
 70
     1
102
RTVSPost2010Prop41ColorIndex
 90
       18
102
RTVSPost2010Prop41ColorRGB
 90
        0
102
RTVSPost2010PropOp41
 70
     1
102
RTVSPost2010Prop42
 90
       50
102
RTVSPost2010PropOp42
 70
     1
102
RTVSPost2010Prop43
 90
        3
102
RTVSPost2010PropOp43
 70
     1
102
RTVSPost2010Prop44ColorIndex
 90
        5
102
RTVSPost2010Prop44ColorRGB
 90
      255
102
RTVSPost2010PropOp44
 70
     1
102
RTVSPost2010Prop45
280
     0
102
RTVSPost2010PropOp45
 70
     1
102
RTVSPost2010Prop46
 90
       50
102
RTVSPost2010PropOp46
 70
     1
102
RTVSPost2010Prop47
 90
       50
102
RTVSPost2010PropOp47
 70
     1
102
RTVSPost2010Prop48
 90
       50
102
RTVSPost2010PropOp48
 70
     1
102
RTVSPost2010Prop49
280
     0
102
RTVSPost2010PropOp49
 70
     1
102
RTVSPost2010Prop50
 90
       50
102
RTVSPost2010PropOp50
 70
     1
102
RTVSPost2010Prop51ColorIndex
 90
      256
102
RTVSPost2010Prop51ColorRGB
 90
-16777216
102
RTVSPost2010PropOp51
 70
     0
102
RTVSPost2010Prop52
140
1.0
102
RTVSPost2010PropOp52
 70
     0
102
RTVSPost2010Prop53
 90
        2
102
RTVSPost2010PropOp53
 70
     1
102
RTVSPost2010Prop54
  1
strokes_ogs.tif
102
RTVSPost2010PropOp54
 70
     1
102
RTVSPost2010Prop55
280
     0
102
RTVSPost2010PropOp55
 70
     1
102
RTVSPost2010Prop56
140
1.0
102
RTVSPost2010PropOp56
 70
     1
102
RTVSPost2010Prop57
140
1.0
102
RTVSPost2010PropOp57
 70
     1
102
RTVSPropertyOp0
 70
     1
102
RTVSPropertyOp1
 70
     1
102
RTVSPropertyOp2
 70
     1
102
RTVSPropertyOp3
 70
     1
102
RTVSPropertyOp4
 70
     1
102
RTVSPropertyOp5
 70
     1
102
RTVSPropertyOp6
 70
     1
102
RTVSPropertyOp7
 70
     1
102
RTVSPropertyOp8
 70
     1
102
RTVSPropertyOp9
 70
     1
102
RTVSPropertyOp10
 70
     1
102
RTVSPropertyOp11
 70
     1
102
RTVSPropertyOp12
 70
     1
102
RTVSPropertyOp13
 70
     1
102
RTVSPropertyOp14
 70
     1
102
RTVSPropertyOp15
 70
     1
102
RTVSPropertyOp16
 70
     1
102
RTVSPropertyOp17
 70
     1
102
RTVSPropertyOp18
 70
     1
102
RTVSPropertyOp19
 70
     1
102
RTVSPropertyOp20
 70
     1
102
RTVSPropertyOp21
 70
     1
102
RTVSPropertyOp22
 70
     1
102
RTVSPropertyOp23
 70
     1
102
RTVSPropertyOp24
 70
     1
102
RTVSPropertyOp25
 70
     1
102
RTVSPropertyOp26
 70
     1
102
RTVSPropertyOp27
 70
     1
102
RTVSPropertyOp28
 70
     1
102
RTVSPropertyOp29
 70
     1
102
RTVSPropertyOp30
 70
     1
102
RTVSPropertyOp31
 70
     1
102
RTVSPropertyOp32
 70
     1
102
RTVSPropertyOp33
 70
     1
102
RTVSPropertyOp34
 70
     1
102
RTVSPropertyOp35
 70
     1
102
RTVSPropertyOp36
 70
     1
102
RTVSPropertyOp37
 70
     1
102
RTVSPropertyOp38
 70
     1
102
RTVSPropertyOp39
 70
     1
102
RTVSPropertyOp40
 70
     1
102
RTVSPropertyOp41
 70
     1
102
RTVSPropertyOp42
 70
     1
102
RTVSPropertyOp43
 70
     1
102
RTVSPropertyOp44
 70
     1
102
RTVSPropertyOp45
 70
     1
102
RTVSPropertyOp46
 70
     1
102
RTVSPropertyOp47
 70
     1
102
RTVSPropertyOp48
 70
     1
102
RTVSPropertyOp49
 70
     1
102
RTVSPropertyOp50
 70
     1
102
RTVSPropertyOp51
 70
     0
102
RTVSPropertyOp52
 70
     0
102
RTVSPropertyOp53
 70
     1
102
RTVSPropertyOp54
 70
     1
102
RTVSPropertyOp55
 70
     1
102
RTVSPropertyOp56
 70
     1
102
RTVSPropertyOp57
 70
     1
102
RTVSPropertyOp58
 70
     1
102
RTVSPropertyOp59
 70
     1
102
RTVSPropertyOp60
 70
     1
102
RTVSPropertyOp61
 70
     1
102
RTVSPropertyOp62
 70
     1
  0
XRECORD
  5
271
102
{ACAD_REACTORS
330
270
102
}
330
270
100
AcDbXrecord
280
     1
102
RTVSPost2010Prop28
280
     0
102
RTVSPost2010PropOp28
 70
     1
102
RTVSPost2010Prop29
280
     1
102
RTVSPost2010PropOp29
 70
     1
102
RTVSPost2010Prop30
280
     1
102
RTVSPost2010PropOp30
 70
     1
102
RTVSPost2010Prop31
280
     0
102
RTVSPost2010PropOp31
 70
     1
102
RTVSPost2010Prop32
280
     0
102
RTVSPost2010PropOp32
 70
     1
102
RTVSPost2010Prop33
280
     0
102
RTVSPost2010PropOp33
 70
     1
102
RTVSPost2010Prop34
280
     0
102
RTVSPost2010PropOp34
 70
     1
102
RTVSPost2010Prop35
280
     0
102
RTVSPost2010PropOp35
 70
     1
102
RTVSPost2010Prop36
280
     0
102
RTVSPost2010PropOp36
 70
     1
102
RTVSPost2010Prop37
 90
       50
102
RTVSPost2010PropOp37
 70
     1
102
RTVSPost2010Prop38
140
0.0
102
RTVSPost2010PropOp38
 70
     1
102
RTVSPost2010Prop39
140
1.0
102
RTVSPost2010PropOp39
 70
     1
102
RTVSPost2010Prop40
 90
        0
102
RTVSPost2010PropOp40
 70
     1
102
RTVSPost2010Prop41ColorIndex
 90
       18
102
RTVSPost2010Prop41ColorRGB
 90
        0
102
RTVSPost2010PropOp41
 70
     1
102
RTVSPost2010Prop42
 90
       50
102
RTVSPost2010PropOp42
 70
     1
102
RTVSPost2010Prop43
 90
        3
102
RTVSPost2010PropOp43
 70
     1
102
RTVSPost2010Prop44ColorIndex
 90
        5
102
RTVSPost2010Prop44ColorRGB
 90
      255
102
RTVSPost2010PropOp44
 70
     1
102
RTVSPost2010Prop45
280
     0
102
RTVSPost2010PropOp45
 70
     1
102
RTVSPost2010Prop46
 90
       50
102
RTVSPost2010PropOp46
 70
     1
102
RTVSPost2010Prop47
 90
       50
102
RTVSPost2010PropOp47
 70
     1
102
RTVSPost2010Prop48
 90
       50
102
RTVSPost2010PropOp48
 70
     1
102
RTVSPost2010Prop49
280
     0
102
RTVSPost2010PropOp49
 70
     1
102
RTVSPost2010Prop50
 90
       50
102
RTVSPost2010PropOp50
 70
     1
102
RTVSPost2010Prop51ColorIndex
 90
      256
102
RTVSPost2010Prop51ColorRGB
 90
-16777216
102
RTVSPost2010PropOp51
 70
     0
102
RTVSPost2010Prop52
140
1.0
102
RTVSPost2010PropOp52
 70
     0
102
RTVSPost2010Prop53
 90
        2
102
RTVSPost2010PropOp53
 70
     1
102
RTVSPost2010Prop54
  1
strokes_ogs.tif
102
RTVSPost2010PropOp54
 70
     1
102
RTVSPost2010Prop55
280
     0
102
RTVSPost2010PropOp55
 70
     1
102
RTVSPost2010Prop56
140
1.0
102
RTVSPost2010PropOp56
 70
     1
102
RTVSPost2010Prop57
140
1.0
102
RTVSPost2010PropOp57
 70
     1
102
RTVSPropertyOp0
 70
     1
102
RTVSPropertyOp1
 70
     1
102
RTVSPropertyOp2
 70
     1
102
RTVSPropertyOp3
 70
     1
102
RTVSPropertyOp4
 70
     1
102
RTVSPropertyOp5
 70
     1
102
RTVSPropertyOp6
 70
     1
102
RTVSPropertyOp7
 70
     1
102
RTVSPropertyOp8
 70
     1
102
RTVSPropertyOp9
 70
     1
102
RTVSPropertyOp10
 70
     1
102
RTVSPropertyOp11
 70
     1
102
RTVSPropertyOp12
 70
     1
102
RTVSPropertyOp13
 70
     1
102
RTVSPropertyOp14
 70
     1
102
RTVSPropertyOp15
 70
     1
102
RTVSPropertyOp16
 70
     1
102
RTVSPropertyOp17
 70
     1
102
RTVSPropertyOp18
 70
     1
102
RTVSPropertyOp19
 70
     1
102
RTVSPropertyOp20
 70
     1
102
RTVSPropertyOp21
 70
     1
102
RTVSPropertyOp22
 70
     1
102
RTVSPropertyOp23
 70
     1
102
RTVSPropertyOp24
 70
     1
102
RTVSPropertyOp25
 70
     1
102
RTVSPropertyOp26
 70
     1
102
RTVSPropertyOp27
 70
     1
102
RTVSPropertyOp28
 70
     1
102
RTVSPropertyOp29
 70
     1
102
RTVSPropertyOp30
 70
     1
102
RTVSPropertyOp31
 70
     1
102
RTVSPropertyOp32
 70
     1
102
RTVSPropertyOp33
 70
     1
102
RTVSPropertyOp34
 70
     1
102
RTVSPropertyOp35
 70
     1
102
RTVSPropertyOp36
 70
     1
102
RTVSPropertyOp37
 70
     1
102
RTVSPropertyOp38
 70
     1
102
RTVSPropertyOp39
 70
     1
102
RTVSPropertyOp40
 70
     1
102
RTVSPropertyOp41
 70
     1
102
RTVSPropertyOp42
 70
     1
102
RTVSPropertyOp43
 70
     1
102
RTVSPropertyOp44
 70
     1
102
RTVSPropertyOp45
 70
     1
102
RTVSPropertyOp46
 70
     1
102
RTVSPropertyOp47
 70
     1
102
RTVSPropertyOp48
 70
     1
102
RTVSPropertyOp49
 70
     1
102
RTVSPropertyOp50
 70
     1
102
RTVSPropertyOp51
 70
     0
102
RTVSPropertyOp52
 70
     0
102
RTVSPropertyOp53
 70
     1
102
RTVSPropertyOp54
 70
     1
102
RTVSPropertyOp55
 70
     1
102
RTVSPropertyOp56
 70
     1
102
RTVSPropertyOp57
 70
     1
102
RTVSPropertyOp58
 70
     1
102
RTVSPropertyOp59
 70
     1
102
RTVSPropertyOp60
 70
     1
102
RTVSPropertyOp61
 70
     1
102
RTVSPropertyOp62
 70
     1
  0
XRECORD
  5
275
102
{ACAD_REACTORS
330
274
102
}
330
274
100
AcDbXrecord
280
     1
102
RTVSPost2010Prop28
280
     0
102
RTVSPost2010PropOp28
 70
     1
102
RTVSPost2010Prop29
280
     1
102
RTVSPost2010PropOp29
 70
     1
102
RTVSPost2010Prop30
280
     1
102
RTVSPost2010PropOp30
 70
     1
102
RTVSPost2010Prop31
280
     0
102
RTVSPost2010PropOp31
 70
     1
102
RTVSPost2010Prop32
280
     0
102
RTVSPost2010PropOp32
 70
     1
102
RTVSPost2010Prop33
280
     0
102
RTVSPost2010PropOp33
 70
     1
102
RTVSPost2010Prop34
280
     0
102
RTVSPost2010PropOp34
 70
     1
102
RTVSPost2010Prop35
280
     0
102
RTVSPost2010PropOp35
 70
     1
102
RTVSPost2010Prop36
280
     0
102
RTVSPost2010PropOp36
 70
     1
102
RTVSPost2010Prop37
 90
       50
102
RTVSPost2010PropOp37
 70
     1
102
RTVSPost2010Prop38
140
0.0
102
RTVSPost2010PropOp38
 70
     1
102
RTVSPost2010Prop39
140
1.0
102
RTVSPost2010PropOp39
 70
     1
102
RTVSPost2010Prop40
 90
        0
102
RTVSPost2010PropOp40
 70
     1
102
RTVSPost2010Prop41ColorIndex
 90
       18
102
RTVSPost2010Prop41ColorRGB
 90
        0
102
RTVSPost2010PropOp41
 70
     1
102
RTVSPost2010Prop42
 90
       50
102
RTVSPost2010PropOp42
 70
     1
102
RTVSPost2010Prop43
 90
        3
102
RTVSPost2010PropOp43
 70
     1
102
RTVSPost2010Prop44ColorIndex
 90
        5
102
RTVSPost2010Prop44ColorRGB
 90
      255
102
RTVSPost2010PropOp44
 70
     1
102
RTVSPost2010Prop45
280
     0
102
RTVSPost2010PropOp45
 70
     1
102
RTVSPost2010Prop46
 90
       50
102
RTVSPost2010PropOp46
 70
     1
102
RTVSPost2010Prop47
 90
       50
102
RTVSPost2010PropOp47
 70
     1
102
RTVSPost2010Prop48
 90
       50
102
RTVSPost2010PropOp48
 70
     1
102
RTVSPost2010Prop49
280
     0
102
RTVSPost2010PropOp49
 70
     1
102
RTVSPost2010Prop50
 90
       50
102
RTVSPost2010PropOp50
 70
     1
102
RTVSPost2010Prop51ColorIndex
 90
      256
102
RTVSPost2010Prop51ColorRGB
 90
-16777216
102
RTVSPost2010PropOp51
 70
     0
102
RTVSPost2010Prop52
140
1.0
102
RTVSPost2010PropOp52
 70
     0
102
RTVSPost2010Prop53
 90
        2
102
RTVSPost2010PropOp53
 70
     1
102
RTVSPost2010Prop54
  1
strokes_ogs.tif
102
RTVSPost2010PropOp54
 70
     1
102
RTVSPost2010Prop55
280
     0
102
RTVSPost2010PropOp55
 70
     1
102
RTVSPost2010Prop56
140
1.0
102
RTVSPost2010PropOp56
 70
     1
102
RTVSPost2010Prop57
140
1.0
102
RTVSPost2010PropOp57
 70
     1
102
RTVSPropertyOp0
 70
     1
102
RTVSPropertyOp1
 70
     1
102
RTVSPropertyOp2
 70
     1
102
RTVSPropertyOp3
 70
     1
102
RTVSPropertyOp4
 70
     1
102
RTVSPropertyOp5
 70
     1
102
RTVSPropertyOp6
 70
     1
102
RTVSPropertyOp7
 70
     1
102
RTVSPropertyOp8
 70
     1
102
RTVSPropertyOp9
 70
     1
102
RTVSPropertyOp10
 70
     1
102
RTVSPropertyOp11
 70
     1
102
RTVSPropertyOp12
 70
     1
102
RTVSPropertyOp13
 70
     1
102
RTVSPropertyOp14
 70
     1
102
RTVSPropertyOp15
 70
     1
102
RTVSPropertyOp16
 70
     1
102
RTVSPropertyOp17
 70
     1
102
RTVSPropertyOp18
 70
     1
102
RTVSPropertyOp19
 70
     1
102
RTVSPropertyOp20
 70
     1
102
RTVSPropertyOp21
 70
     1
102
RTVSPropertyOp22
 70
     1
102
RTVSPropertyOp23
 70
     1
102
RTVSPropertyOp24
 70
     1
102
RTVSPropertyOp25
 70
     1
102
RTVSPropertyOp26
 70
     1
102
RTVSPropertyOp27
 70
     1
102
RTVSPropertyOp28
 70
     1
102
RTVSPropertyOp29
 70
     1
102
RTVSPropertyOp30
 70
     1
102
RTVSPropertyOp31
 70
     1
102
RTVSPropertyOp32
 70
     1
102
RTVSPropertyOp33
 70
     1
102
RTVSPropertyOp34
 70
     1
102
RTVSPropertyOp35
 70
     1
102
RTVSPropertyOp36
 70
     1
102
RTVSPropertyOp37
 70
     1
102
RTVSPropertyOp38
 70
     1
102
RTVSPropertyOp39
 70
     1
102
RTVSPropertyOp40
 70
     1
102
RTVSPropertyOp41
 70
     1
102
RTVSPropertyOp42
 70
     1
102
RTVSPropertyOp43
 70
     1
102
RTVSPropertyOp44
 70
     1
102
RTVSPropertyOp45
 70
     1
102
RTVSPropertyOp46
 70
     1
102
RTVSPropertyOp47
 70
     1
102
RTVSPropertyOp48
 70
     1
102
RTVSPropertyOp49
 70
     1
102
RTVSPropertyOp50
 70
     1
102
RTVSPropertyOp51
 70
     0
102
RTVSPropertyOp52
 70
     0
102
RTVSPropertyOp53
 70
     1
102
RTVSPropertyOp54
 70
     1
102
RTVSPropertyOp55
 70
     1
102
RTVSPropertyOp56
 70
     1
102
RTVSPropertyOp57
 70
     1
102
RTVSPropertyOp58
 70
     1
102
RTVSPropertyOp59
 70
     1
102
RTVSPropertyOp60
 70
     1
102
RTVSPropertyOp61
 70
     1
102
RTVSPropertyOp62
 70
     1
  0
XRECORD
  5
285
102
{ACAD_REACTORS
330
284
102
}
330
284
100
AcDbXrecord
280
     1
102
RTVSPost2010Prop28
280
     0
102
RTVSPost2010PropOp28
 70
     1
102
RTVSPost2010Prop29
280
     1
102
RTVSPost2010PropOp29
 70
     1
102
RTVSPost2010Prop30
280
     1
102
RTVSPost2010PropOp30
 70
     1
102
RTVSPost2010Prop31
280
     0
102
RTVSPost2010PropOp31
 70
     1
102
RTVSPost2010Prop32
280
     0
102
RTVSPost2010PropOp32
 70
     1
102
RTVSPost2010Prop33
280
     0
102
RTVSPost2010PropOp33
 70
     1
102
RTVSPost2010Prop34
280
     0
102
RTVSPost2010PropOp34
 70
     1
102
RTVSPost2010Prop35
280
     0
102
RTVSPost2010PropOp35
 70
     1
102
RTVSPost2010Prop36
280
     0
102
RTVSPost2010PropOp36
 70
     1
102
RTVSPost2010Prop37
 90
       50
102
RTVSPost2010PropOp37
 70
     1
102
RTVSPost2010Prop38
140
0.0
102
RTVSPost2010PropOp38
 70
     1
102
RTVSPost2010Prop39
140
1.0
102
RTVSPost2010PropOp39
 70
     1
102
RTVSPost2010Prop40
 90
        0
102
RTVSPost2010PropOp40
 70
     1
102
RTVSPost2010Prop41ColorIndex
 90
       18
102
RTVSPost2010Prop41ColorRGB
 90
        0
102
RTVSPost2010PropOp41
 70
     1
102
RTVSPost2010Prop42
 90
       50
102
RTVSPost2010PropOp42
 70
     1
102
RTVSPost2010Prop43
 90
        3
102
RTVSPost2010PropOp43
 70
     1
102
RTVSPost2010Prop44ColorIndex
 90
        5
102
RTVSPost2010Prop44ColorRGB
 90
      255
102
RTVSPost2010PropOp44
 70
     1
102
RTVSPost2010Prop45
280
     0
102
RTVSPost2010PropOp45
 70
     1
102
RTVSPost2010Prop46
 90
       50
102
RTVSPost2010PropOp46
 70
     1
102
RTVSPost2010Prop47
 90
       50
102
RTVSPost2010PropOp47
 70
     1
102
RTVSPost2010Prop48
 90
       50
102
RTVSPost2010PropOp48
 70
     1
102
RTVSPost2010Prop49
280
     0
102
RTVSPost2010PropOp49
 70
     1
102
RTVSPost2010Prop50
 90
       50
102
RTVSPost2010PropOp50
 70
     1
102
RTVSPost2010Prop51ColorIndex
 90
      256
102
RTVSPost2010Prop51ColorRGB
 90
-16777216
102
RTVSPost2010PropOp51
 70
     0
102
RTVSPost2010Prop52
140
1.0
102
RTVSPost2010PropOp52
 70
     0
102
RTVSPost2010Prop53
 90
        2
102
RTVSPost2010PropOp53
 70
     1
102
RTVSPost2010Prop54
  1
strokes_ogs.tif
102
RTVSPost2010PropOp54
 70
     1
102
RTVSPost2010Prop55
280
     0
102
RTVSPost2010PropOp55
 70
     1
102
RTVSPost2010Prop56
140
1.0
102
RTVSPost2010PropOp56
 70
     1
102
RTVSPost2010Prop57
140
1.0
102
RTVSPost2010PropOp57
 70
     1
102
RTVSPropertyOp0
 70
     0
102
RTVSPropertyOp1
 70
     0
102
RTVSPropertyOp2
 70
     0
102
RTVSPropertyOp3
 70
     0
102
RTVSPropertyOp4
 70
     0
102
RTVSPropertyOp5
 70
     0
102
RTVSPropertyOp6
 70
     0
102
RTVSPropertyOp7
 70
     0
102
RTVSPropertyOp8
 70
     0
102
RTVSPropertyOp9
 70
     0
102
RTVSPropertyOp10
 70
     0
102
RTVSPropertyOp11
 70
     0
102
RTVSPropertyOp12
 70
     0
102
RTVSPropertyOp13
 70
     0
102
RTVSPropertyOp14
 70
     2
102
RTVSPropertyOp15
 70
     0
102
RTVSPropertyOp16
 70
     0
102
RTVSPropertyOp17
 70
     0
102
RTVSPropertyOp18
 70
     0
102
RTVSPropertyOp19
 70
     0
102
RTVSPropertyOp20
 70
     0
102
RTVSPropertyOp21
 70
     0
102
RTVSPropertyOp22
 70
     0
102
RTVSPropertyOp23
 70
     0
102
RTVSPropertyOp24
 70
     0
102
RTVSPropertyOp25
 70
     0
102
RTVSPropertyOp26
 70
     0
102
RTVSPropertyOp27
 70
     0
102
RTVSPropertyOp28
 70
     1
102
RTVSPropertyOp29
 70
     1
102
RTVSPropertyOp30
 70
     1
102
RTVSPropertyOp31
 70
     1
102
RTVSPropertyOp32
 70
     1
102
RTVSPropertyOp33
 70
     1
102
RTVSPropertyOp34
 70
     1
102
RTVSPropertyOp35
 70
     1
102
RTVSPropertyOp36
 70
     1
102
RTVSPropertyOp37
 70
     1
102
RTVSPropertyOp38
 70
     1
102
RTVSPropertyOp39
 70
     1
102
RTVSPropertyOp40
 70
     1
102
RTVSPropertyOp41
 70
     1
102
RTVSPropertyOp42
 70
     1
102
RTVSPropertyOp43
 70
     1
102
RTVSPropertyOp44
 70
     1
102
RTVSPropertyOp45
 70
     1
102
RTVSPropertyOp46
 70
     1
102
RTVSPropertyOp47
 70
     1
102
RTVSPropertyOp48
 70
     1
102
RTVSPropertyOp49
 70
     1
102
RTVSPropertyOp50
 70
     1
102
RTVSPropertyOp51
 70
     0
102
RTVSPropertyOp52
 70
     0
102
RTVSPropertyOp53
 70
     1
102
RTVSPropertyOp54
 70
     1
102
RTVSPropertyOp55
 70
     1
102
RTVSPropertyOp56
 70
     1
102
RTVSPropertyOp57
 70
     1
102
RTVSPropertyOp58
 70
     1
102
RTVSPropertyOp59
 70
     1
102
RTVSPropertyOp60
 70
     1
102
RTVSPropertyOp61
 70
     1
102
RTVSPropertyOp62
 70
     1
  0
XRECORD
  5
27D
102
{ACAD_REACTORS
330
27C
102
}
330
27C
100
AcDbXrecord
280
     1
102
RTVSPost2010Prop28
280
     0
102
RTVSPost2010PropOp28
 70
     1
102
RTVSPost2010Prop29
280
     1
102
RTVSPost2010PropOp29
 70
     1
102
RTVSPost2010Prop30
280
     1
102
RTVSPost2010PropOp30
 70
     1
102
RTVSPost2010Prop31
280
     0
102
RTVSPost2010PropOp31
 70
     1
102
RTVSPost2010Prop32
280
     0
102
RTVSPost2010PropOp32
 70
     1
102
RTVSPost2010Prop33
280
     0
102
RTVSPost2010PropOp33
 70
     1
102
RTVSPost2010Prop34
280
     0
102
RTVSPost2010PropOp34
 70
     1
102
RTVSPost2010Prop35
280
     0
102
RTVSPost2010PropOp35
 70
     1
102
RTVSPost2010Prop36
280
     0
102
RTVSPost2010PropOp36
 70
     1
102
RTVSPost2010Prop37
 90
       50
102
RTVSPost2010PropOp37
 70
     1
102
RTVSPost2010Prop38
140
0.0
102
RTVSPost2010PropOp38
 70
     1
102
RTVSPost2010Prop39
140
1.0
102
RTVSPost2010PropOp39
 70
     1
102
RTVSPost2010Prop40
 90
        0
102
RTVSPost2010PropOp40
 70
     1
102
RTVSPost2010Prop41ColorIndex
 90
       18
102
RTVSPost2010Prop41ColorRGB
 90
        0
102
RTVSPost2010PropOp41
 70
     1
102
RTVSPost2010Prop42
 90
       50
102
RTVSPost2010PropOp42
 70
     1
102
RTVSPost2010Prop43
 90
        3
102
RTVSPost2010PropOp43
 70
     1
102
RTVSPost2010Prop44ColorIndex
 90
        5
102
RTVSPost2010Prop44ColorRGB
 90
      255
102
RTVSPost2010PropOp44
 70
     1
102
RTVSPost2010Prop45
280
     0
102
RTVSPost2010PropOp45
 70
     1
102
RTVSPost2010Prop46
 90
       50
102
RTVSPost2010PropOp46
 70
     1
102
RTVSPost2010Prop47
 90
       50
102
RTVSPost2010PropOp47
 70
     1
102
RTVSPost2010Prop48
 90
       50
102
RTVSPost2010PropOp48
 70
     1
102
RTVSPost2010Prop49
280
     0
102
RTVSPost2010PropOp49
 70
     1
102
RTVSPost2010Prop50
 90
       50
102
RTVSPost2010PropOp50
 70
     1
102
RTVSPost2010Prop51ColorIndex
 90
      256
102
RTVSPost2010Prop51ColorRGB
 90
-16777216
102
RTVSPost2010PropOp51
 70
     0
102
RTVSPost2010Prop52
140
1.0
102
RTVSPost2010PropOp52
 70
     0
102
RTVSPost2010Prop53
 90
        2
102
RTVSPost2010PropOp53
 70
     1
102
RTVSPost2010Prop54
  1
strokes_ogs.tif
102
RTVSPost2010PropOp54
 70
     1
102
RTVSPost2010Prop55
280
     0
102
RTVSPost2010PropOp55
 70
     1
102
RTVSPost2010Prop56
140
1.0
102
RTVSPost2010PropOp56
 70
     1
102
RTVSPost2010Prop57
140
1.0
102
RTVSPost2010PropOp57
 70
     1
102
RTVSPropertyOp0
 70
     1
102
RTVSPropertyOp1
 70
     1
102
RTVSPropertyOp2
 70
     1
102
RTVSPropertyOp3
 70
     1
102
RTVSPropertyOp4
 70
     1
102
RTVSPropertyOp5
 70
     1
102
RTVSPropertyOp6
 70
     1
102
RTVSPropertyOp7
 70
     1
102
RTVSPropertyOp8
 70
     1
102
RTVSPropertyOp9
 70
     1
102
RTVSPropertyOp10
 70
     1
102
RTVSPropertyOp11
 70
     1
102
RTVSPropertyOp12
 70
     1
102
RTVSPropertyOp13
 70
     1
102
RTVSPropertyOp14
 70
     1
102
RTVSPropertyOp15
 70
     1
102
RTVSPropertyOp16
 70
     1
102
RTVSPropertyOp17
 70
     1
102
RTVSPropertyOp18
 70
     1
102
RTVSPropertyOp19
 70
     1
102
RTVSPropertyOp20
 70
     1
102
RTVSPropertyOp21
 70
     1
102
RTVSPropertyOp22
 70
     1
102
RTVSPropertyOp23
 70
     1
102
RTVSPropertyOp24
 70
     1
102
RTVSPropertyOp25
 70
     1
102
RTVSPropertyOp26
 70
     1
102
RTVSPropertyOp27
 70
     1
102
RTVSPropertyOp28
 70
     1
102
RTVSPropertyOp29
 70
     1
102
RTVSPropertyOp30
 70
     1
102
RTVSPropertyOp31
 70
     1
102
RTVSPropertyOp32
 70
     1
102
RTVSPropertyOp33
 70
     1
102
RTVSPropertyOp34
 70
     1
102
RTVSPropertyOp35
 70
     1
102
RTVSPropertyOp36
 70
     1
102
RTVSPropertyOp37
 70
     1
102
RTVSPropertyOp38
 70
     1
102
RTVSPropertyOp39
 70
     1
102
RTVSPropertyOp40
 70
     1
102
RTVSPropertyOp41
 70
     1
102
RTVSPropertyOp42
 70
     1
102
RTVSPropertyOp43
 70
     1
102
RTVSPropertyOp44
 70
     1
102
RTVSPropertyOp45
 70
     1
102
RTVSPropertyOp46
 70
     1
102
RTVSPropertyOp47
 70
     1
102
RTVSPropertyOp48
 70
     1
102
RTVSPropertyOp49
 70
     1
102
RTVSPropertyOp50
 70
     1
102
RTVSPropertyOp51
 70
     0
102
RTVSPropertyOp52
 70
     0
102
RTVSPropertyOp53
 70
     1
102
RTVSPropertyOp54
 70
     1
102
RTVSPropertyOp55
 70
     1
102
RTVSPropertyOp56
 70
     1
102
RTVSPropertyOp57
 70
     1
102
RTVSPropertyOp58
 70
     1
102
RTVSPropertyOp59
 70
     1
102
RTVSPropertyOp60
 70
     1
102
RTVSPropertyOp61
 70
     1
102
RTVSPropertyOp62
 70
     1
  0
XRECORD
  5
261
102
{ACAD_REACTORS
330
260
102
}
330
260
100
AcDbXrecord
280
     1
102
RTVSPost2010Prop28
280
     0
102
RTVSPost2010PropOp28
 70
     1
102
RTVSPost2010Prop29
280
     1
102
RTVSPost2010PropOp29
 70
     1
102
RTVSPost2010Prop30
280
     1
102
RTVSPost2010PropOp30
 70
     1
102
RTVSPost2010Prop31
280
     0
102
RTVSPost2010PropOp31
 70
     1
102
RTVSPost2010Prop32
280
     0
102
RTVSPost2010PropOp32
 70
     1
102
RTVSPost2010Prop33
280
     0
102
RTVSPost2010PropOp33
 70
     1
102
RTVSPost2010Prop34
280
     0
102
RTVSPost2010PropOp34
 70
     1
102
RTVSPost2010Prop35
280
     0
102
RTVSPost2010PropOp35
 70
     1
102
RTVSPost2010Prop36
280
     0
102
RTVSPost2010PropOp36
 70
     1
102
RTVSPost2010Prop37
 90
       50
102
RTVSPost2010PropOp37
 70
     1
102
RTVSPost2010Prop38
140
0.0
102
RTVSPost2010PropOp38
 70
     1
102
RTVSPost2010Prop39
140
1.0
102
RTVSPost2010PropOp39
 70
     1
102
RTVSPost2010Prop40
 90
        0
102
RTVSPost2010PropOp40
 70
     1
102
RTVSPost2010Prop41ColorIndex
 90
       18
102
RTVSPost2010Prop41ColorRGB
 90
        0
102
RTVSPost2010PropOp41
 70
     1
102
RTVSPost2010Prop42
 90
       50
102
RTVSPost2010PropOp42
 70
     1
102
RTVSPost2010Prop43
 90
        3
102
RTVSPost2010PropOp43
 70
     1
102
RTVSPost2010Prop44ColorIndex
 90
        5
102
RTVSPost2010Prop44ColorRGB
 90
      255
102
RTVSPost2010PropOp44
 70
     1
102
RTVSPost2010Prop45
280
     0
102
RTVSPost2010PropOp45
 70
     1
102
RTVSPost2010Prop46
 90
       50
102
RTVSPost2010PropOp46
 70
     1
102
RTVSPost2010Prop47
 90
       50
102
RTVSPost2010PropOp47
 70
     1
102
RTVSPost2010Prop48
 90
       50
102
RTVSPost2010PropOp48
 70
     1
102
RTVSPost2010Prop49
280
     0
102
RTVSPost2010PropOp49
 70
     1
102
RTVSPost2010Prop50
 90
       50
102
RTVSPost2010PropOp50
 70
     1
102
RTVSPost2010Prop51ColorIndex
 90
      256
102
RTVSPost2010Prop51ColorRGB
 90
-16777216
102
RTVSPost2010PropOp51
 70
     0
102
RTVSPost2010Prop52
140
1.0
102
RTVSPost2010PropOp52
 70
     0
102
RTVSPost2010Prop53
 90
        2
102
RTVSPost2010PropOp53
 70
     1
102
RTVSPost2010Prop54
  1
strokes_ogs.tif
102
RTVSPost2010PropOp54
 70
     1
102
RTVSPost2010Prop55
280
     0
102
RTVSPost2010PropOp55
 70
     1
102
RTVSPost2010Prop56
140
1.0
102
RTVSPost2010PropOp56
 70
     1
102
RTVSPost2010Prop57
140
1.0
102
RTVSPost2010PropOp57
 70
     1
102
RTVSPropertyOp0
 70
     1
102
RTVSPropertyOp1
 70
     1
102
RTVSPropertyOp2
 70
     1
102
RTVSPropertyOp3
 70
     1
102
RTVSPropertyOp4
 70
     1
102
RTVSPropertyOp5
 70
     1
102
RTVSPropertyOp6
 70
     1
102
RTVSPropertyOp7
 70
     1
102
RTVSPropertyOp8
 70
     1
102
RTVSPropertyOp9
 70
     1
102
RTVSPropertyOp10
 70
     1
102
RTVSPropertyOp11
 70
     1
102
RTVSPropertyOp12
 70
     1
102
RTVSPropertyOp13
 70
     1
102
RTVSPropertyOp14
 70
     1
102
RTVSPropertyOp15
 70
     1
102
RTVSPropertyOp16
 70
     1
102
RTVSPropertyOp17
 70
     1
102
RTVSPropertyOp18
 70
     1
102
RTVSPropertyOp19
 70
     1
102
RTVSPropertyOp20
 70
     1
102
RTVSPropertyOp21
 70
     1
102
RTVSPropertyOp22
 70
     1
102
RTVSPropertyOp23
 70
     1
102
RTVSPropertyOp24
 70
     1
102
RTVSPropertyOp25
 70
     1
102
RTVSPropertyOp26
 70
     1
102
RTVSPropertyOp27
 70
     1
102
RTVSPropertyOp28
 70
     1
102
RTVSPropertyOp29
 70
     1
102
RTVSPropertyOp30
 70
     1
102
RTVSPropertyOp31
 70
     1
102
RTVSPropertyOp32
 70
     1
102
RTVSPropertyOp33
 70
     1
102
RTVSPropertyOp34
 70
     1
102
RTVSPropertyOp35
 70
     1
102
RTVSPropertyOp36
 70
     1
102
RTVSPropertyOp37
 70
     1
102
RTVSPropertyOp38
 70
     1
102
RTVSPropertyOp39
 70
     1
102
RTVSPropertyOp40
 70
     1
102
RTVSPropertyOp41
 70
     1
102
RTVSPropertyOp42
 70
     1
102
RTVSPropertyOp43
 70
     1
102
RTVSPropertyOp44
 70
     1
102
RTVSPropertyOp45
 70
     1
102
RTVSPropertyOp46
 70
     1
102
RTVSPropertyOp47
 70
     1
102
RTVSPropertyOp48
 70
     1
102
RTVSPropertyOp49
 70
     1
102
RTVSPropertyOp50
 70
     1
102
RTVSPropertyOp51
 70
     0
102
RTVSPropertyOp52
 70
     0
102
RTVSPropertyOp53
 70
     1
102
RTVSPropertyOp54
 70
     1
102
RTVSPropertyOp55
 70
     1
102
RTVSPropertyOp56
 70
     1
102
RTVSPropertyOp57
 70
     1
102
RTVSPropertyOp58
 70
     1
102
RTVSPropertyOp59
 70
     1
102
RTVSPropertyOp60
 70
     1
102
RTVSPropertyOp61
 70
     1
102
RTVSPropertyOp62
 70
     1
  0
XRECORD
  5
263
102
{ACAD_REACTORS
330
262
102
}
330
262
100
AcDbXrecord
280
     1
102
RTVSPost2010Prop28
280
     0
102
RTVSPost2010PropOp28
 70
     1
102
RTVSPost2010Prop29
280
     1
102
RTVSPost2010PropOp29
 70
     1
102
RTVSPost2010Prop30
280
     1
102
RTVSPost2010PropOp30
 70
     1
102
RTVSPost2010Prop31
280
     0
102
RTVSPost2010PropOp31
 70
     1
102
RTVSPost2010Prop32
280
     0
102
RTVSPost2010PropOp32
 70
     1
102
RTVSPost2010Prop33
280
     0
102
RTVSPost2010PropOp33
 70
     1
102
RTVSPost2010Prop34
280
     0
102
RTVSPost2010PropOp34
 70
     1
102
RTVSPost2010Prop35
280
     0
102
RTVSPost2010PropOp35
 70
     1
102
RTVSPost2010Prop36
280
     0
102
RTVSPost2010PropOp36
 70
     1
102
RTVSPost2010Prop37
 90
       50
102
RTVSPost2010PropOp37
 70
     1
102
RTVSPost2010Prop38
140
0.0
102
RTVSPost2010PropOp38
 70
     1
102
RTVSPost2010Prop39
140
1.0
102
RTVSPost2010PropOp39
 70
     1
102
RTVSPost2010Prop40
 90
        0
102
RTVSPost2010PropOp40
 70
     1
102
RTVSPost2010Prop41ColorIndex
 90
       18
102
RTVSPost2010Prop41ColorRGB
 90
        0
102
RTVSPost2010PropOp41
 70
     1
102
RTVSPost2010Prop42
 90
       50
102
RTVSPost2010PropOp42
 70
     1
102
RTVSPost2010Prop43
 90
        3
102
RTVSPost2010PropOp43
 70
     1
102
RTVSPost2010Prop44ColorIndex
 90
        5
102
RTVSPost2010Prop44ColorRGB
 90
      255
102
RTVSPost2010PropOp44
 70
     1
102
RTVSPost2010Prop45
280
     0
102
RTVSPost2010PropOp45
 70
     1
102
RTVSPost2010Prop46
 90
       50
102
RTVSPost2010PropOp46
 70
     1
102
RTVSPost2010Prop47
 90
       50
102
RTVSPost2010PropOp47
 70
     1
102
RTVSPost2010Prop48
 90
       50
102
RTVSPost2010PropOp48
 70
     1
102
RTVSPost2010Prop49
280
     0
102
RTVSPost2010PropOp49
 70
     1
102
RTVSPost2010Prop50
 90
       50
102
RTVSPost2010PropOp50
 70
     1
102
RTVSPost2010Prop51ColorIndex
 90
      256
102
RTVSPost2010Prop51ColorRGB
 90
-16777216
102
RTVSPost2010PropOp51
 70
     0
102
RTVSPost2010Prop52
140
1.0
102
RTVSPost2010PropOp52
 70
     0
102
RTVSPost2010Prop53
 90
        2
102
RTVSPost2010PropOp53
 70
     1
102
RTVSPost2010Prop54
  1
strokes_ogs.tif
102
RTVSPost2010PropOp54
 70
     1
102
RTVSPost2010Prop55
280
     0
102
RTVSPost2010PropOp55
 70
     1
102
RTVSPost2010Prop56
140
1.0
102
RTVSPost2010PropOp56
 70
     1
102
RTVSPost2010Prop57
140
1.0
102
RTVSPost2010PropOp57
 70
     1
102
RTVSPropertyOp0
 70
     1
102
RTVSPropertyOp1
 70
     1
102
RTVSPropertyOp2
 70
     1
102
RTVSPropertyOp3
 70
     1
102
RTVSPropertyOp4
 70
     1
102
RTVSPropertyOp5
 70
     1
102
RTVSPropertyOp6
 70
     1
102
RTVSPropertyOp7
 70
     1
102
RTVSPropertyOp8
 70
     1
102
RTVSPropertyOp9
 70
     1
102
RTVSPropertyOp10
 70
     1
102
RTVSPropertyOp11
 70
     1
102
RTVSPropertyOp12
 70
     1
102
RTVSPropertyOp13
 70
     1
102
RTVSPropertyOp14
 70
     1
102
RTVSPropertyOp15
 70
     1
102
RTVSPropertyOp16
 70
     1
102
RTVSPropertyOp17
 70
     1
102
RTVSPropertyOp18
 70
     1
102
RTVSPropertyOp19
 70
     1
102
RTVSPropertyOp20
 70
     1
102
RTVSPropertyOp21
 70
     1
102
RTVSPropertyOp22
 70
     1
102
RTVSPropertyOp23
 70
     1
102
RTVSPropertyOp24
 70
     1
102
RTVSPropertyOp25
 70
     1
102
RTVSPropertyOp26
 70
     1
102
RTVSPropertyOp27
 70
     1
102
RTVSPropertyOp28
 70
     1
102
RTVSPropertyOp29
 70
     1
102
RTVSPropertyOp30
 70
     1
102
RTVSPropertyOp31
 70
     1
102
RTVSPropertyOp32
 70
     1
102
RTVSPropertyOp33
 70
     1
102
RTVSPropertyOp34
 70
     1
102
RTVSPropertyOp35
 70
     1
102
RTVSPropertyOp36
 70
     1
102
RTVSPropertyOp37
 70
     1
102
RTVSPropertyOp38
 70
     1
102
RTVSPropertyOp39
 70
     1
102
RTVSPropertyOp40
 70
     1
102
RTVSPropertyOp41
 70
     1
102
RTVSPropertyOp42
 70
     1
102
RTVSPropertyOp43
 70
     1
102
RTVSPropertyOp44
 70
     1
102
RTVSPropertyOp45
 70
     1
102
RTVSPropertyOp46
 70
     1
102
RTVSPropertyOp47
 70
     1
102
RTVSPropertyOp48
 70
     1
102
RTVSPropertyOp49
 70
     1
102
RTVSPropertyOp50
 70
     1
102
RTVSPropertyOp51
 70
     0
102
RTVSPropertyOp52
 70
     0
102
RTVSPropertyOp53
 70
     1
102
RTVSPropertyOp54
 70
     1
102
RTVSPropertyOp55
 70
     1
102
RTVSPropertyOp56
 70
     1
102
RTVSPropertyOp57
 70
     1
102
RTVSPropertyOp58
 70
     1
102
RTVSPropertyOp59
 70
     1
102
RTVSPropertyOp60
 70
     1
102
RTVSPropertyOp61
 70
     1
102
RTVSPropertyOp62
 70
     1
  0
XRECORD
  5
265
102
{ACAD_REACTORS
330
264
102
}
330
264
100
AcDbXrecord
280
     1
102
RTVSPost2010Prop28
280
     0
102
RTVSPost2010PropOp28
 70
     1
102
RTVSPost2010Prop29
280
     1
102
RTVSPost2010PropOp29
 70
     1
102
RTVSPost2010Prop30
280
     1
102
RTVSPost2010PropOp30
 70
     1
102
RTVSPost2010Prop31
280
     0
102
RTVSPost2010PropOp31
 70
     1
102
RTVSPost2010Prop32
280
     0
102
RTVSPost2010PropOp32
 70
     1
102
RTVSPost2010Prop33
280
     0
102
RTVSPost2010PropOp33
 70
     1
102
RTVSPost2010Prop34
280
     0
102
RTVSPost2010PropOp34
 70
     1
102
RTVSPost2010Prop35
280
     0
102
RTVSPost2010PropOp35
 70
     1
102
RTVSPost2010Prop36
280
     0
102
RTVSPost2010PropOp36
 70
     1
102
RTVSPost2010Prop37
 90
       50
102
RTVSPost2010PropOp37
 70
     1
102
RTVSPost2010Prop38
140
0.0
102
RTVSPost2010PropOp38
 70
     1
102
RTVSPost2010Prop39
140
1.0
102
RTVSPost2010PropOp39
 70
     1
102
RTVSPost2010Prop40
 90
        0
102
RTVSPost2010PropOp40
 70
     1
102
RTVSPost2010Prop41ColorIndex
 90
       18
102
RTVSPost2010Prop41ColorRGB
 90
        0
102
RTVSPost2010PropOp41
 70
     1
102
RTVSPost2010Prop42
 90
       50
102
RTVSPost2010PropOp42
 70
     1
102
RTVSPost2010Prop43
 90
        3
102
RTVSPost2010PropOp43
 70
     1
102
RTVSPost2010Prop44ColorIndex
 90
        5
102
RTVSPost2010Prop44ColorRGB
 90
      255
102
RTVSPost2010PropOp44
 70
     1
102
RTVSPost2010Prop45
280
     0
102
RTVSPost2010PropOp45
 70
     1
102
RTVSPost2010Prop46
 90
       50
102
RTVSPost2010PropOp46
 70
     1
102
RTVSPost2010Prop47
 90
       50
102
RTVSPost2010PropOp47
 70
     1
102
RTVSPost2010Prop48
 90
       50
102
RTVSPost2010PropOp48
 70
     1
102
RTVSPost2010Prop49
280
     0
102
RTVSPost2010PropOp49
 70
     1
102
RTVSPost2010Prop50
 90
       50
102
RTVSPost2010PropOp50
 70
     1
102
RTVSPost2010Prop51ColorIndex
 90
      256
102
RTVSPost2010Prop51ColorRGB
 90
-16777216
102
RTVSPost2010PropOp51
 70
     0
102
RTVSPost2010Prop52
140
1.0
102
RTVSPost2010PropOp52
 70
     0
102
RTVSPost2010Prop53
 90
        2
102
RTVSPost2010PropOp53
 70
     1
102
RTVSPost2010Prop54
  1
strokes_ogs.tif
102
RTVSPost2010PropOp54
 70
     1
102
RTVSPost2010Prop55
280
     0
102
RTVSPost2010PropOp55
 70
     1
102
RTVSPost2010Prop56
140
1.0
102
RTVSPost2010PropOp56
 70
     1
102
RTVSPost2010Prop57
140
1.0
102
RTVSPost2010PropOp57
 70
     1
102
RTVSPropertyOp0
 70
     1
102
RTVSPropertyOp1
 70
     1
102
RTVSPropertyOp2
 70
     1
102
RTVSPropertyOp3
 70
     1
102
RTVSPropertyOp4
 70
     1
102
RTVSPropertyOp5
 70
     1
102
RTVSPropertyOp6
 70
     1
102
RTVSPropertyOp7
 70
     1
102
RTVSPropertyOp8
 70
     1
102
RTVSPropertyOp9
 70
     1
102
RTVSPropertyOp10
 70
     1
102
RTVSPropertyOp11
 70
     1
102
RTVSPropertyOp12
 70
     1
102
RTVSPropertyOp13
 70
     1
102
RTVSPropertyOp14
 70
     1
102
RTVSPropertyOp15
 70
     1
102
RTVSPropertyOp16
 70
     1
102
RTVSPropertyOp17
 70
     1
102
RTVSPropertyOp18
 70
     1
102
RTVSPropertyOp19
 70
     1
102
RTVSPropertyOp20
 70
     1
102
RTVSPropertyOp21
 70
     1
102
RTVSPropertyOp22
 70
     1
102
RTVSPropertyOp23
 70
     1
102
RTVSPropertyOp24
 70
     1
102
RTVSPropertyOp25
 70
     1
102
RTVSPropertyOp26
 70
     1
102
RTVSPropertyOp27
 70
     1
102
RTVSPropertyOp28
 70
     1
102
RTVSPropertyOp29
 70
     1
102
RTVSPropertyOp30
 70
     1
102
RTVSPropertyOp31
 70
     1
102
RTVSPropertyOp32
 70
     1
102
RTVSPropertyOp33
 70
     1
102
RTVSPropertyOp34
 70
     1
102
RTVSPropertyOp35
 70
     1
102
RTVSPropertyOp36
 70
     1
102
RTVSPropertyOp37
 70
     1
102
RTVSPropertyOp38
 70
     1
102
RTVSPropertyOp39
 70
     1
102
RTVSPropertyOp40
 70
     1
102
RTVSPropertyOp41
 70
     1
102
RTVSPropertyOp42
 70
     1
102
RTVSPropertyOp43
 70
     1
102
RTVSPropertyOp44
 70
     1
102
RTVSPropertyOp45
 70
     1
102
RTVSPropertyOp46
 70
     1
102
RTVSPropertyOp47
 70
     1
102
RTVSPropertyOp48
 70
     1
102
RTVSPropertyOp49
 70
     1
102
RTVSPropertyOp50
 70
     1
102
RTVSPropertyOp51
 70
     0
102
RTVSPropertyOp52
 70
     0
102
RTVSPropertyOp53
 70
     1
102
RTVSPropertyOp54
 70
     1
102
RTVSPropertyOp55
 70
     1
102
RTVSPropertyOp56
 70
     1
102
RTVSPropertyOp57
 70
     1
102
RTVSPropertyOp58
 70
     1
102
RTVSPropertyOp59
 70
     1
102
RTVSPropertyOp60
 70
     1
102
RTVSPropertyOp61
 70
     1
102
RTVSPropertyOp62
 70
     1
  0
XRECORD
  5
267
102
{ACAD_REACTORS
330
266
102
}
330
266
100
AcDbXrecord
280
     1
102
RTVSPost2010Prop28
280
     0
102
RTVSPost2010PropOp28
 70
     1
102
RTVSPost2010Prop29
280
     1
102
RTVSPost2010PropOp29
 70
     1
102
RTVSPost2010Prop30
280
     1
102
RTVSPost2010PropOp30
 70
     1
102
RTVSPost2010Prop31
280
     0
102
RTVSPost2010PropOp31
 70
     1
102
RTVSPost2010Prop32
280
     0
102
RTVSPost2010PropOp32
 70
     1
102
RTVSPost2010Prop33
280
     0
102
RTVSPost2010PropOp33
 70
     1
102
RTVSPost2010Prop34
280
     0
102
RTVSPost2010PropOp34
 70
     1
102
RTVSPost2010Prop35
280
     0
102
RTVSPost2010PropOp35
 70
     1
102
RTVSPost2010Prop36
280
     0
102
RTVSPost2010PropOp36
 70
     1
102
RTVSPost2010Prop37
 90
       50
102
RTVSPost2010PropOp37
 70
     1
102
RTVSPost2010Prop38
140
0.0
102
RTVSPost2010PropOp38
 70
     1
102
RTVSPost2010Prop39
140
1.0
102
RTVSPost2010PropOp39
 70
     1
102
RTVSPost2010Prop40
 90
        0
102
RTVSPost2010PropOp40
 70
     1
102
RTVSPost2010Prop41ColorIndex
 90
       18
102
RTVSPost2010Prop41ColorRGB
 90
        0
102
RTVSPost2010PropOp41
 70
     1
102
RTVSPost2010Prop42
 90
       50
102
RTVSPost2010PropOp42
 70
     1
102
RTVSPost2010Prop43
 90
        3
102
RTVSPost2010PropOp43
 70
     1
102
RTVSPost2010Prop44ColorIndex
 90
        5
102
RTVSPost2010Prop44ColorRGB
 90
      255
102
RTVSPost2010PropOp44
 70
     1
102
RTVSPost2010Prop45
280
     0
102
RTVSPost2010PropOp45
 70
     1
102
RTVSPost2010Prop46
 90
       50
102
RTVSPost2010PropOp46
 70
     1
102
RTVSPost2010Prop47
 90
       50
102
RTVSPost2010PropOp47
 70
     1
102
RTVSPost2010Prop48
 90
       50
102
RTVSPost2010PropOp48
 70
     1
102
RTVSPost2010Prop49
280
     0
102
RTVSPost2010PropOp49
 70
     1
102
RTVSPost2010Prop50
 90
       50
102
RTVSPost2010PropOp50
 70
     1
102
RTVSPost2010Prop51ColorIndex
 90
      256
102
RTVSPost2010Prop51ColorRGB
 90
-16777216
102
RTVSPost2010PropOp51
 70
     0
102
RTVSPost2010Prop52
140
1.0
102
RTVSPost2010PropOp52
 70
     0
102
RTVSPost2010Prop53
 90
        2
102
RTVSPost2010PropOp53
 70
     1
102
RTVSPost2010Prop54
  1
strokes_ogs.tif
102
RTVSPost2010PropOp54
 70
     1
102
RTVSPost2010Prop55
280
     0
102
RTVSPost2010PropOp55
 70
     1
102
RTVSPost2010Prop56
140
1.0
102
RTVSPost2010PropOp56
 70
     1
102
RTVSPost2010Prop57
140
1.0
102
RTVSPost2010PropOp57
 70
     1
102
RTVSPropertyOp0
 70
     1
102
RTVSPropertyOp1
 70
     1
102
RTVSPropertyOp2
 70
     1
102
RTVSPropertyOp3
 70
     1
102
RTVSPropertyOp4
 70
     1
102
RTVSPropertyOp5
 70
     1
102
RTVSPropertyOp6
 70
     1
102
RTVSPropertyOp7
 70
     1
102
RTVSPropertyOp8
 70
     1
102
RTVSPropertyOp9
 70
     1
102
RTVSPropertyOp10
 70
     1
102
RTVSPropertyOp11
 70
     1
102
RTVSPropertyOp12
 70
     1
102
RTVSPropertyOp13
 70
     1
102
RTVSPropertyOp14
 70
     1
102
RTVSPropertyOp15
 70
     1
102
RTVSPropertyOp16
 70
     1
102
RTVSPropertyOp17
 70
     1
102
RTVSPropertyOp18
 70
     1
102
RTVSPropertyOp19
 70
     1
102
RTVSPropertyOp20
 70
     1
102
RTVSPropertyOp21
 70
     1
102
RTVSPropertyOp22
 70
     1
102
RTVSPropertyOp23
 70
     1
102
RTVSPropertyOp24
 70
     1
102
RTVSPropertyOp25
 70
     1
102
RTVSPropertyOp26
 70
     1
102
RTVSPropertyOp27
 70
     1
102
RTVSPropertyOp28
 70
     1
102
RTVSPropertyOp29
 70
     1
102
RTVSPropertyOp30
 70
     1
102
RTVSPropertyOp31
 70
     1
102
RTVSPropertyOp32
 70
     1
102
RTVSPropertyOp33
 70
     1
102
RTVSPropertyOp34
 70
     1
102
RTVSPropertyOp35
 70
     1
102
RTVSPropertyOp36
 70
     1
102
RTVSPropertyOp37
 70
     1
102
RTVSPropertyOp38
 70
     1
102
RTVSPropertyOp39
 70
     1
102
RTVSPropertyOp40
 70
     1
102
RTVSPropertyOp41
 70
     1
102
RTVSPropertyOp42
 70
     1
102
RTVSPropertyOp43
 70
     1
102
RTVSPropertyOp44
 70
     1
102
RTVSPropertyOp45
 70
     1
102
RTVSPropertyOp46
 70
     1
102
RTVSPropertyOp47
 70
     1
102
RTVSPropertyOp48
 70
     1
102
RTVSPropertyOp49
 70
     1
102
RTVSPropertyOp50
 70
     1
102
RTVSPropertyOp51
 70
     0
102
RTVSPropertyOp52
 70
     0
102
RTVSPropertyOp53
 70
     1
102
RTVSPropertyOp54
 70
     1
102
RTVSPropertyOp55
 70
     1
102
RTVSPropertyOp56
 70
     1
102
RTVSPropertyOp57
 70
     1
102
RTVSPropertyOp58
 70
     1
102
RTVSPropertyOp59
 70
     1
102
RTVSPropertyOp60
 70
     1
102
RTVSPropertyOp61
 70
     1
102
RTVSPropertyOp62
 70
     1
  0
XRECORD
  5
26F
102
{ACAD_REACTORS
330
26E
102
}
330
26E
100
AcDbXrecord
280
     1
102
RTVSPost2010Prop28
280
     0
102
RTVSPost2010PropOp28
 70
     1
102
RTVSPost2010Prop29
280
     1
102
RTVSPost2010PropOp29
 70
     1
102
RTVSPost2010Prop30
280
     1
102
RTVSPost2010PropOp30
 70
     1
102
RTVSPost2010Prop31
280
     0
102
RTVSPost2010PropOp31
 70
     1
102
RTVSPost2010Prop32
280
     0
102
RTVSPost2010PropOp32
 70
     1
102
RTVSPost2010Prop33
280
     0
102
RTVSPost2010PropOp33
 70
     1
102
RTVSPost2010Prop34
280
     0
102
RTVSPost2010PropOp34
 70
     1
102
RTVSPost2010Prop35
280
     0
102
RTVSPost2010PropOp35
 70
     1
102
RTVSPost2010Prop36
280
     0
102
RTVSPost2010PropOp36
 70
     1
102
RTVSPost2010Prop37
 90
       50
102
RTVSPost2010PropOp37
 70
     1
102
RTVSPost2010Prop38
140
0.0
102
RTVSPost2010PropOp38
 70
     1
102
RTVSPost2010Prop39
140
1.0
102
RTVSPost2010PropOp39
 70
     1
102
RTVSPost2010Prop40
 90
        0
102
RTVSPost2010PropOp40
 70
     1
102
RTVSPost2010Prop41ColorIndex
 90
       18
102
RTVSPost2010Prop41ColorRGB
 90
        0
102
RTVSPost2010PropOp41
 70
     1
102
RTVSPost2010Prop42
 90
       50
102
RTVSPost2010PropOp42
 70
     1
102
RTVSPost2010Prop43
 90
        3
102
RTVSPost2010PropOp43
 70
     1
102
RTVSPost2010Prop44ColorIndex
 90
        5
102
RTVSPost2010Prop44ColorRGB
 90
      255
102
RTVSPost2010PropOp44
 70
     1
102
RTVSPost2010Prop45
280
     0
102
RTVSPost2010PropOp45
 70
     1
102
RTVSPost2010Prop46
 90
       50
102
RTVSPost2010PropOp46
 70
     1
102
RTVSPost2010Prop47
 90
       50
102
RTVSPost2010PropOp47
 70
     1
102
RTVSPost2010Prop48
 90
       50
102
RTVSPost2010PropOp48
 70
     1
102
RTVSPost2010Prop49
280
     0
102
RTVSPost2010PropOp49
 70
     1
102
RTVSPost2010Prop50
 90
       50
102
RTVSPost2010PropOp50
 70
     1
102
RTVSPost2010Prop51ColorIndex
 90
      256
102
RTVSPost2010Prop51ColorRGB
 90
-16777216
102
RTVSPost2010PropOp51
 70
     0
102
RTVSPost2010Prop52
140
1.0
102
RTVSPost2010PropOp52
 70
     0
102
RTVSPost2010Prop53
 90
        2
102
RTVSPost2010PropOp53
 70
     1
102
RTVSPost2010Prop54
  1
strokes_ogs.tif
102
RTVSPost2010PropOp54
 70
     1
102
RTVSPost2010Prop55
280
     0
102
RTVSPost2010PropOp55
 70
     1
102
RTVSPost2010Prop56
140
1.0
102
RTVSPost2010PropOp56
 70
     1
102
RTVSPost2010Prop57
140
1.0
102
RTVSPost2010PropOp57
 70
     1
102
RTVSPropertyOp0
 70
     1
102
RTVSPropertyOp1
 70
     1
102
RTVSPropertyOp2
 70
     1
102
RTVSPropertyOp3
 70
     1
102
RTVSPropertyOp4
 70
     1
102
RTVSPropertyOp5
 70
     1
102
RTVSPropertyOp6
 70
     1
102
RTVSPropertyOp7
 70
     1
102
RTVSPropertyOp8
 70
     1
102
RTVSPropertyOp9
 70
     1
102
RTVSPropertyOp10
 70
     1
102
RTVSPropertyOp11
 70
     1
102
RTVSPropertyOp12
 70
     1
102
RTVSPropertyOp13
 70
     1
102
RTVSPropertyOp14
 70
     1
102
RTVSPropertyOp15
 70
     1
102
RTVSPropertyOp16
 70
     1
102
RTVSPropertyOp17
 70
     1
102
RTVSPropertyOp18
 70
     1
102
RTVSPropertyOp19
 70
     1
102
RTVSPropertyOp20
 70
     1
102
RTVSPropertyOp21
 70
     1
102
RTVSPropertyOp22
 70
     1
102
RTVSPropertyOp23
 70
     1
102
RTVSPropertyOp24
 70
     1
102
RTVSPropertyOp25
 70
     1
102
RTVSPropertyOp26
 70
     1
102
RTVSPropertyOp27
 70
     1
102
RTVSPropertyOp28
 70
     1
102
RTVSPropertyOp29
 70
     1
102
RTVSPropertyOp30
 70
     1
102
RTVSPropertyOp31
 70
     1
102
RTVSPropertyOp32
 70
     1
102
RTVSPropertyOp33
 70
     1
102
RTVSPropertyOp34
 70
     1
102
RTVSPropertyOp35
 70
     1
102
RTVSPropertyOp36
 70
     1
102
RTVSPropertyOp37
 70
     1
102
RTVSPropertyOp38
 70
     1
102
RTVSPropertyOp39
 70
     1
102
RTVSPropertyOp40
 70
     1
102
RTVSPropertyOp41
 70
     1
102
RTVSPropertyOp42
 70
     1
102
RTVSPropertyOp43
 70
     1
102
RTVSPropertyOp44
 70
     1
102
RTVSPropertyOp45
 70
     1
102
RTVSPropertyOp46
 70
     1
102
RTVSPropertyOp47
 70
     1
102
RTVSPropertyOp48
 70
     1
102
RTVSPropertyOp49
 70
     1
102
RTVSPropertyOp50
 70
     1
102
RTVSPropertyOp51
 70
     0
102
RTVSPropertyOp52
 70
     0
102
RTVSPropertyOp53
 70
     1
102
RTVSPropertyOp54
 70
     1
102
RTVSPropertyOp55
 70
     1
102
RTVSPropertyOp56
 70
     1
102
RTVSPropertyOp57
 70
     1
102
RTVSPropertyOp58
 70
     1
102
RTVSPropertyOp59
 70
     1
102
RTVSPropertyOp60
 70
     1
102
RTVSPropertyOp61
 70
     1
102
RTVSPropertyOp62
 70
     1
  0
XRECORD
  5
281
102
{ACAD_REACTORS
330
280
102
}
330
280
100
AcDbXrecord
280
     1
102
RTVSPost2010Prop28
280
     0
102
RTVSPost2010PropOp28
 70
     1
102
RTVSPost2010Prop29
280
     1
102
RTVSPost2010PropOp29
 70
     1
102
RTVSPost2010Prop30
280
     1
102
RTVSPost2010PropOp30
 70
     1
102
RTVSPost2010Prop31
280
     0
102
RTVSPost2010PropOp31
 70
     1
102
RTVSPost2010Prop32
280
     0
102
RTVSPost2010PropOp32
 70
     1
102
RTVSPost2010Prop33
280
     0
102
RTVSPost2010PropOp33
 70
     1
102
RTVSPost2010Prop34
280
     0
102
RTVSPost2010PropOp34
 70
     1
102
RTVSPost2010Prop35
280
     0
102
RTVSPost2010PropOp35
 70
     1
102
RTVSPost2010Prop36
280
     0
102
RTVSPost2010PropOp36
 70
     1
102
RTVSPost2010Prop37
 90
       50
102
RTVSPost2010PropOp37
 70
     1
102
RTVSPost2010Prop38
140
0.0
102
RTVSPost2010PropOp38
 70
     1
102
RTVSPost2010Prop39
140
1.0
102
RTVSPost2010PropOp39
 70
     1
102
RTVSPost2010Prop40
 90
        0
102
RTVSPost2010PropOp40
 70
     1
102
RTVSPost2010Prop41ColorIndex
 90
       18
102
RTVSPost2010Prop41ColorRGB
 90
        0
102
RTVSPost2010PropOp41
 70
     1
102
RTVSPost2010Prop42
 90
       50
102
RTVSPost2010PropOp42
 70
     1
102
RTVSPost2010Prop43
 90
        3
102
RTVSPost2010PropOp43
 70
     1
102
RTVSPost2010Prop44ColorIndex
 90
        5
102
RTVSPost2010Prop44ColorRGB
 90
      255
102
RTVSPost2010PropOp44
 70
     1
102
RTVSPost2010Prop45
280
     0
102
RTVSPost2010PropOp45
 70
     1
102
RTVSPost2010Prop46
 90
       50
102
RTVSPost2010PropOp46
 70
     1
102
RTVSPost2010Prop47
 90
       50
102
RTVSPost2010PropOp47
 70
     1
102
RTVSPost2010Prop48
 90
       50
102
RTVSPost2010PropOp48
 70
     1
102
RTVSPost2010Prop49
280
     0
102
RTVSPost2010PropOp49
 70
     1
102
RTVSPost2010Prop50
 90
       50
102
RTVSPost2010PropOp50
 70
     1
102
RTVSPost2010Prop51ColorIndex
 90
      256
102
RTVSPost2010Prop51ColorRGB
 90
-16777216
102
RTVSPost2010PropOp51
 70
     0
102
RTVSPost2010Prop52
140
1.0
102
RTVSPost2010PropOp52
 70
     0
102
RTVSPost2010Prop53
 90
        2
102
RTVSPost2010PropOp53
 70
     1
102
RTVSPost2010Prop54
  1
strokes_ogs.tif
102
RTVSPost2010PropOp54
 70
     1
102
RTVSPost2010Prop55
280
     0
102
RTVSPost2010PropOp55
 70
     1
102
RTVSPost2010Prop56
140
1.0
102
RTVSPost2010PropOp56
 70
     1
102
RTVSPost2010Prop57
140
1.0
102
RTVSPost2010PropOp57
 70
     1
102
RTVSPropertyOp0
 70
     0
102
RTVSPropertyOp1
 70
     0
102
RTVSPropertyOp2
 70
     0
102
RTVSPropertyOp3
 70
     0
102
RTVSPropertyOp4
 70
     0
102
RTVSPropertyOp5
 70
     0
102
RTVSPropertyOp6
 70
     0
102
RTVSPropertyOp7
 70
     0
102
RTVSPropertyOp8
 70
     0
102
RTVSPropertyOp9
 70
     0
102
RTVSPropertyOp10
 70
     0
102
RTVSPropertyOp11
 70
     0
102
RTVSPropertyOp12
 70
     0
102
RTVSPropertyOp13
 70
     0
102
RTVSPropertyOp14
 70
     2
102
RTVSPropertyOp15
 70
     0
102
RTVSPropertyOp16
 70
     0
102
RTVSPropertyOp17
 70
     0
102
RTVSPropertyOp18
 70
     0
102
RTVSPropertyOp19
 70
     0
102
RTVSPropertyOp20
 70
     0
102
RTVSPropertyOp21
 70
     0
102
RTVSPropertyOp22
 70
     0
102
RTVSPropertyOp23
 70
     0
102
RTVSPropertyOp24
 70
     0
102
RTVSPropertyOp25
 70
     0
102
RTVSPropertyOp26
 70
     0
102
RTVSPropertyOp27
 70
     0
102
RTVSPropertyOp28
 70
     1
102
RTVSPropertyOp29
 70
     1
102
RTVSPropertyOp30
 70
     1
102
RTVSPropertyOp31
 70
     1
102
RTVSPropertyOp32
 70
     1
102
RTVSPropertyOp33
 70
     1
102
RTVSPropertyOp34
 70
     1
102
RTVSPropertyOp35
 70
     1
102
RTVSPropertyOp36
 70
     1
102
RTVSPropertyOp37
 70
     1
102
RTVSPropertyOp38
 70
     1
102
RTVSPropertyOp39
 70
     1
102
RTVSPropertyOp40
 70
     1
102
RTVSPropertyOp41
 70
     1
102
RTVSPropertyOp42
 70
     1
102
RTVSPropertyOp43
 70
     1
102
RTVSPropertyOp44
 70
     1
102
RTVSPropertyOp45
 70
     1
102
RTVSPropertyOp46
 70
     1
102
RTVSPropertyOp47
 70
     1
102
RTVSPropertyOp48
 70
     1
102
RTVSPropertyOp49
 70
     1
102
RTVSPropertyOp50
 70
     1
102
RTVSPropertyOp51
 70
     0
102
RTVSPropertyOp52
 70
     0
102
RTVSPropertyOp53
 70
     1
102
RTVSPropertyOp54
 70
     1
102
RTVSPropertyOp55
 70
     1
102
RTVSPropertyOp56
 70
     1
102
RTVSPropertyOp57
 70
     1
102
RTVSPropertyOp58
 70
     1
102
RTVSPropertyOp59
 70
     1
102
RTVSPropertyOp60
 70
     1
102
RTVSPropertyOp61
 70
     1
102
RTVSPropertyOp62
 70
     1
  0
XRECORD
  5
27B
102
{ACAD_REACTORS
330
27A
102
}
330
27A
100
AcDbXrecord
280
     1
102
RTVSPost2010Prop28
280
     0
102
RTVSPost2010PropOp28
 70
     1
102
RTVSPost2010Prop29
280
     1
102
RTVSPost2010PropOp29
 70
     1
102
RTVSPost2010Prop30
280
     1
102
RTVSPost2010PropOp30
 70
     1
102
RTVSPost2010Prop31
280
     0
102
RTVSPost2010PropOp31
 70
     1
102
RTVSPost2010Prop32
280
     0
102
RTVSPost2010PropOp32
 70
     1
102
RTVSPost2010Prop33
280
     0
102
RTVSPost2010PropOp33
 70
     1
102
RTVSPost2010Prop34
280
     0
102
RTVSPost2010PropOp34
 70
     1
102
RTVSPost2010Prop35
280
     0
102
RTVSPost2010PropOp35
 70
     1
102
RTVSPost2010Prop36
280
     0
102
RTVSPost2010PropOp36
 70
     1
102
RTVSPost2010Prop37
 90
       50
102
RTVSPost2010PropOp37
 70
     1
102
RTVSPost2010Prop38
140
0.0
102
RTVSPost2010PropOp38
 70
     1
102
RTVSPost2010Prop39
140
1.0
102
RTVSPost2010PropOp39
 70
     1
102
RTVSPost2010Prop40
 90
        0
102
RTVSPost2010PropOp40
 70
     1
102
RTVSPost2010Prop41ColorIndex
 90
       18
102
RTVSPost2010Prop41ColorRGB
 90
        0
102
RTVSPost2010PropOp41
 70
     1
102
RTVSPost2010Prop42
 90
       50
102
RTVSPost2010PropOp42
 70
     1
102
RTVSPost2010Prop43
 90
        3
102
RTVSPost2010PropOp43
 70
     1
102
RTVSPost2010Prop44ColorIndex
 90
        5
102
RTVSPost2010Prop44ColorRGB
 90
      255
102
RTVSPost2010PropOp44
 70
     1
102
RTVSPost2010Prop45
280
     0
102
RTVSPost2010PropOp45
 70
     1
102
RTVSPost2010Prop46
 90
       50
102
RTVSPost2010PropOp46
 70
     1
102
RTVSPost2010Prop47
 90
       50
102
RTVSPost2010PropOp47
 70
     1
102
RTVSPost2010Prop48
 90
       50
102
RTVSPost2010PropOp48
 70
     1
102
RTVSPost2010Prop49
280
     0
102
RTVSPost2010PropOp49
 70
     1
102
RTVSPost2010Prop50
 90
       50
102
RTVSPost2010PropOp50
 70
     1
102
RTVSPost2010Prop51ColorIndex
 90
      256
102
RTVSPost2010Prop51ColorRGB
 90
-16777216
102
RTVSPost2010PropOp51
 70
     0
102
RTVSPost2010Prop52
140
1.0
102
RTVSPost2010PropOp52
 70
     0
102
RTVSPost2010Prop53
 90
        2
102
RTVSPost2010PropOp53
 70
     1
102
RTVSPost2010Prop54
  1
strokes_ogs.tif
102
RTVSPost2010PropOp54
 70
     1
102
RTVSPost2010Prop55
280
     0
102
RTVSPost2010PropOp55
 70
     1
102
RTVSPost2010Prop56
140
1.0
102
RTVSPost2010PropOp56
 70
     1
102
RTVSPost2010Prop57
140
1.0
102
RTVSPost2010PropOp57
 70
     1
102
RTVSPropertyOp0
 70
     1
102
RTVSPropertyOp1
 70
     1
102
RTVSPropertyOp2
 70
     1
102
RTVSPropertyOp3
 70
     1
102
RTVSPropertyOp4
 70
     1
102
RTVSPropertyOp5
 70
     1
102
RTVSPropertyOp6
 70
     1
102
RTVSPropertyOp7
 70
     1
102
RTVSPropertyOp8
 70
     1
102
RTVSPropertyOp9
 70
     1
102
RTVSPropertyOp10
 70
     1
102
RTVSPropertyOp11
 70
     1
102
RTVSPropertyOp12
 70
     1
102
RTVSPropertyOp13
 70
     1
102
RTVSPropertyOp14
 70
     1
102
RTVSPropertyOp15
 70
     1
102
RTVSPropertyOp16
 70
     1
102
RTVSPropertyOp17
 70
     1
102
RTVSPropertyOp18
 70
     1
102
RTVSPropertyOp19
 70
     1
102
RTVSPropertyOp20
 70
     1
102
RTVSPropertyOp21
 70
     1
102
RTVSPropertyOp22
 70
     1
102
RTVSPropertyOp23
 70
     1
102
RTVSPropertyOp24
 70
     1
102
RTVSPropertyOp25
 70
     1
102
RTVSPropertyOp26
 70
     1
102
RTVSPropertyOp27
 70
     1
102
RTVSPropertyOp28
 70
     1
102
RTVSPropertyOp29
 70
     1
102
RTVSPropertyOp30
 70
     1
102
RTVSPropertyOp31
 70
     1
102
RTVSPropertyOp32
 70
     1
102
RTVSPropertyOp33
 70
     1
102
RTVSPropertyOp34
 70
     1
102
RTVSPropertyOp35
 70
     1
102
RTVSPropertyOp36
 70
     1
102
RTVSPropertyOp37
 70
     1
102
RTVSPropertyOp38
 70
     1
102
RTVSPropertyOp39
 70
     1
102
RTVSPropertyOp40
 70
     1
102
RTVSPropertyOp41
 70
     1
102
RTVSPropertyOp42
 70
     1
102
RTVSPropertyOp43
 70
     1
102
RTVSPropertyOp44
 70
     1
102
RTVSPropertyOp45
 70
     1
102
RTVSPropertyOp46
 70
     1
102
RTVSPropertyOp47
 70
     1
102
RTVSPropertyOp48
 70
     1
102
RTVSPropertyOp49
 70
     1
102
RTVSPropertyOp50
 70
     1
102
RTVSPropertyOp51
 70
     0
102
RTVSPropertyOp52
 70
     0
102
RTVSPropertyOp53
 70
     1
102
RTVSPropertyOp54
 70
     1
102
RTVSPropertyOp55
 70
     1
102
RTVSPropertyOp56
 70
     1
102
RTVSPropertyOp57
 70
     1
102
RTVSPropertyOp58
 70
     1
102
RTVSPropertyOp59
 70
     1
102
RTVSPropertyOp60
 70
     1
102
RTVSPropertyOp61
 70
     1
102
RTVSPropertyOp62
 70
     1
  0
XRECORD
  5
283
102
{ACAD_REACTORS
330
282
102
}
330
282
100
AcDbXrecord
280
     1
102
RTVSPost2010Prop28
280
     0
102
RTVSPost2010PropOp28
 70
     1
102
RTVSPost2010Prop29
280
     1
102
RTVSPost2010PropOp29
 70
     1
102
RTVSPost2010Prop30
280
     1
102
RTVSPost2010PropOp30
 70
     1
102
RTVSPost2010Prop31
280
     0
102
RTVSPost2010PropOp31
 70
     1
102
RTVSPost2010Prop32
280
     0
102
RTVSPost2010PropOp32
 70
     1
102
RTVSPost2010Prop33
280
     0
102
RTVSPost2010PropOp33
 70
     1
102
RTVSPost2010Prop34
280
     0
102
RTVSPost2010PropOp34
 70
     1
102
RTVSPost2010Prop35
280
     0
102
RTVSPost2010PropOp35
 70
     1
102
RTVSPost2010Prop36
280
     0
102
RTVSPost2010PropOp36
 70
     1
102
RTVSPost2010Prop37
 90
       50
102
RTVSPost2010PropOp37
 70
     1
102
RTVSPost2010Prop38
140
0.0
102
RTVSPost2010PropOp38
 70
     1
102
RTVSPost2010Prop39
140
1.0
102
RTVSPost2010PropOp39
 70
     1
102
RTVSPost2010Prop40
 90
        0
102
RTVSPost2010PropOp40
 70
     1
102
RTVSPost2010Prop41ColorIndex
 90
       18
102
RTVSPost2010Prop41ColorRGB
 90
        0
102
RTVSPost2010PropOp41
 70
     1
102
RTVSPost2010Prop42
 90
       50
102
RTVSPost2010PropOp42
 70
     1
102
RTVSPost2010Prop43
 90
        3
102
RTVSPost2010PropOp43
 70
     1
102
RTVSPost2010Prop44ColorIndex
 90
        5
102
RTVSPost2010Prop44ColorRGB
 90
      255
102
RTVSPost2010PropOp44
 70
     1
102
RTVSPost2010Prop45
280
     0
102
RTVSPost2010PropOp45
 70
     1
102
RTVSPost2010Prop46
 90
       50
102
RTVSPost2010PropOp46
 70
     1
102
RTVSPost2010Prop47
 90
       50
102
RTVSPost2010PropOp47
 70
     1
102
RTVSPost2010Prop48
 90
       50
102
RTVSPost2010PropOp48
 70
     1
102
RTVSPost2010Prop49
280
     0
102
RTVSPost2010PropOp49
 70
     1
102
RTVSPost2010Prop50
 90
       50
102
RTVSPost2010PropOp50
 70
     1
102
RTVSPost2010Prop51ColorIndex
 90
      256
102
RTVSPost2010Prop51ColorRGB
 90
-16777216
102
RTVSPost2010PropOp51
 70
     0
102
RTVSPost2010Prop52
140
1.0
102
RTVSPost2010PropOp52
 70
     0
102
RTVSPost2010Prop53
 90
        2
102
RTVSPost2010PropOp53
 70
     1
102
RTVSPost2010Prop54
  1
strokes_ogs.tif
102
RTVSPost2010PropOp54
 70
     1
102
RTVSPost2010Prop55
280
     0
102
RTVSPost2010PropOp55
 70
     1
102
RTVSPost2010Prop56
140
1.0
102
RTVSPost2010PropOp56
 70
     1
102
RTVSPost2010Prop57
140
1.0
102
RTVSPost2010PropOp57
 70
     1
102
RTVSPropertyOp0
 70
     0
102
RTVSPropertyOp1
 70
     0
102
RTVSPropertyOp2
 70
     0
102
RTVSPropertyOp3
 70
     0
102
RTVSPropertyOp4
 70
     0
102
RTVSPropertyOp5
 70
     0
102
RTVSPropertyOp6
 70
     0
102
RTVSPropertyOp7
 70
     0
102
RTVSPropertyOp8
 70
     0
102
RTVSPropertyOp9
 70
     0
102
RTVSPropertyOp10
 70
     0
102
RTVSPropertyOp11
 70
     0
102
RTVSPropertyOp12
 70
     0
102
RTVSPropertyOp13
 70
     0
102
RTVSPropertyOp14
 70
     2
102
RTVSPropertyOp15
 70
     0
102
RTVSPropertyOp16
 70
     0
102
RTVSPropertyOp17
 70
     0
102
RTVSPropertyOp18
 70
     0
102
RTVSPropertyOp19
 70
     0
102
RTVSPropertyOp20
 70
     0
102
RTVSPropertyOp21
 70
     0
102
RTVSPropertyOp22
 70
     0
102
RTVSPropertyOp23
 70
     0
102
RTVSPropertyOp24
 70
     0
102
RTVSPropertyOp25
 70
     0
102
RTVSPropertyOp26
 70
     0
102
RTVSPropertyOp27
 70
     0
102
RTVSPropertyOp28
 70
     1
102
RTVSPropertyOp29
 70
     1
102
RTVSPropertyOp30
 70
     1
102
RTVSPropertyOp31
 70
     1
102
RTVSPropertyOp32
 70
     1
102
RTVSPropertyOp33
 70
     1
102
RTVSPropertyOp34
 70
     1
102
RTVSPropertyOp35
 70
     1
102
RTVSPropertyOp36
 70
     1
102
RTVSPropertyOp37
 70
     1
102
RTVSPropertyOp38
 70
     1
102
RTVSPropertyOp39
 70
     1
102
RTVSPropertyOp40
 70
     1
102
RTVSPropertyOp41
 70
     1
102
RTVSPropertyOp42
 70
     1
102
RTVSPropertyOp43
 70
     1
102
RTVSPropertyOp44
 70
     1
102
RTVSPropertyOp45
 70
     1
102
RTVSPropertyOp46
 70
     1
102
RTVSPropertyOp47
 70
     1
102
RTVSPropertyOp48
 70
     1
102
RTVSPropertyOp49
 70
     1
102
RTVSPropertyOp50
 70
     1
102
RTVSPropertyOp51
 70
     0
102
RTVSPropertyOp52
 70
     0
102
RTVSPropertyOp53
 70
     1
102
RTVSPropertyOp54
 70
     1
102
RTVSPropertyOp55
 70
     1
102
RTVSPropertyOp56
 70
     1
102
RTVSPropertyOp57
 70
     1
102
RTVSPropertyOp58
 70
     1
102
RTVSPropertyOp59
 70
     1
102
RTVSPropertyOp60
 70
     1
102
RTVSPropertyOp61
 70
     1
102
RTVSPropertyOp62
 70
     1
  0
XRECORD
  5
273
102
{ACAD_REACTORS
330
272
102
}
330
272
100
AcDbXrecord
280
     1
102
RTVSPost2010Prop28
280
     0
102
RTVSPost2010PropOp28
 70
     1
102
RTVSPost2010Prop29
280
     1
102
RTVSPost2010PropOp29
 70
     1
102
RTVSPost2010Prop30
280
     1
102
RTVSPost2010PropOp30
 70
     1
102
RTVSPost2010Prop31
280
     0
102
RTVSPost2010PropOp31
 70
     1
102
RTVSPost2010Prop32
280
     0
102
RTVSPost2010PropOp32
 70
     1
102
RTVSPost2010Prop33
280
     0
102
RTVSPost2010PropOp33
 70
     1
102
RTVSPost2010Prop34
280
     0
102
RTVSPost2010PropOp34
 70
     1
102
RTVSPost2010Prop35
280
     0
102
RTVSPost2010PropOp35
 70
     1
102
RTVSPost2010Prop36
280
     0
102
RTVSPost2010PropOp36
 70
     1
102
RTVSPost2010Prop37
 90
       50
102
RTVSPost2010PropOp37
 70
     1
102
RTVSPost2010Prop38
140
0.0
102
RTVSPost2010PropOp38
 70
     1
102
RTVSPost2010Prop39
140
1.0
102
RTVSPost2010PropOp39
 70
     1
102
RTVSPost2010Prop40
 90
        0
102
RTVSPost2010PropOp40
 70
     1
102
RTVSPost2010Prop41ColorIndex
 90
       18
102
RTVSPost2010Prop41ColorRGB
 90
        0
102
RTVSPost2010PropOp41
 70
     1
102
RTVSPost2010Prop42
 90
       50
102
RTVSPost2010PropOp42
 70
     1
102
RTVSPost2010Prop43
 90
        3
102
RTVSPost2010PropOp43
 70
     1
102
RTVSPost2010Prop44ColorIndex
 90
        5
102
RTVSPost2010Prop44ColorRGB
 90
      255
102
RTVSPost2010PropOp44
 70
     1
102
RTVSPost2010Prop45
280
     0
102
RTVSPost2010PropOp45
 70
     1
102
RTVSPost2010Prop46
 90
       50
102
RTVSPost2010PropOp46
 70
     1
102
RTVSPost2010Prop47
 90
       50
102
RTVSPost2010PropOp47
 70
     1
102
RTVSPost2010Prop48
 90
       50
102
RTVSPost2010PropOp48
 70
     1
102
RTVSPost2010Prop49
280
     0
102
RTVSPost2010PropOp49
 70
     1
102
RTVSPost2010Prop50
 90
       50
102
RTVSPost2010PropOp50
 70
     1
102
RTVSPost2010Prop51ColorIndex
 90
      256
102
RTVSPost2010Prop51ColorRGB
 90
-16777216
102
RTVSPost2010PropOp51
 70
     0
102
RTVSPost2010Prop52
140
1.0
102
RTVSPost2010PropOp52
 70
     0
102
RTVSPost2010Prop53
 90
        2
102
RTVSPost2010PropOp53
 70
     1
102
RTVSPost2010Prop54
  1
strokes_ogs.tif
102
RTVSPost2010PropOp54
 70
     1
102
RTVSPost2010Prop55
280
     0
102
RTVSPost2010PropOp55
 70
     1
102
RTVSPost2010Prop56
140
1.0
102
RTVSPost2010PropOp56
 70
     1
102
RTVSPost2010Prop57
140
1.0
102
RTVSPost2010PropOp57
 70
     1
102
RTVSPropertyOp0
 70
     1
102
RTVSPropertyOp1
 70
     1
102
RTVSPropertyOp2
 70
     1
102
RTVSPropertyOp3
 70
     1
102
RTVSPropertyOp4
 70
     1
102
RTVSPropertyOp5
 70
     1
102
RTVSPropertyOp6
 70
     1
102
RTVSPropertyOp7
 70
     1
102
RTVSPropertyOp8
 70
     1
102
RTVSPropertyOp9
 70
     1
102
RTVSPropertyOp10
 70
     1
102
RTVSPropertyOp11
 70
     1
102
RTVSPropertyOp12
 70
     1
102
RTVSPropertyOp13
 70
     1
102
RTVSPropertyOp14
 70
     1
102
RTVSPropertyOp15
 70
     1
102
RTVSPropertyOp16
 70
     1
102
RTVSPropertyOp17
 70
     1
102
RTVSPropertyOp18
 70
     1
102
RTVSPropertyOp19
 70
     1
102
RTVSPropertyOp20
 70
     1
102
RTVSPropertyOp21
 70
     1
102
RTVSPropertyOp22
 70
     1
102
RTVSPropertyOp23
 70
     1
102
RTVSPropertyOp24
 70
     1
102
RTVSPropertyOp25
 70
     1
102
RTVSPropertyOp26
 70
     1
102
RTVSPropertyOp27
 70
     1
102
RTVSPropertyOp28
 70
     1
102
RTVSPropertyOp29
 70
     1
102
RTVSPropertyOp30
 70
     1
102
RTVSPropertyOp31
 70
     1
102
RTVSPropertyOp32
 70
     1
102
RTVSPropertyOp33
 70
     1
102
RTVSPropertyOp34
 70
     1
102
RTVSPropertyOp35
 70
     1
102
RTVSPropertyOp36
 70
     1
102
RTVSPropertyOp37
 70
     1
102
RTVSPropertyOp38
 70
     1
102
RTVSPropertyOp39
 70
     1
102
RTVSPropertyOp40
 70
     1
102
RTVSPropertyOp41
 70
     1
102
RTVSPropertyOp42
 70
     1
102
RTVSPropertyOp43
 70
     1
102
RTVSPropertyOp44
 70
     1
102
RTVSPropertyOp45
 70
     1
102
RTVSPropertyOp46
 70
     1
102
RTVSPropertyOp47
 70
     1
102
RTVSPropertyOp48
 70
     1
102
RTVSPropertyOp49
 70
     1
102
RTVSPropertyOp50
 70
     1
102
RTVSPropertyOp51
 70
     0
102
RTVSPropertyOp52
 70
     0
102
RTVSPropertyOp53
 70
     1
102
RTVSPropertyOp54
 70
     1
102
RTVSPropertyOp55
 70
     1
102
RTVSPropertyOp56
 70
     1
102
RTVSPropertyOp57
 70
     1
102
RTVSPropertyOp58
 70
     1
102
RTVSPropertyOp59
 70
     1
102
RTVSPropertyOp60
 70
     1
102
RTVSPropertyOp61
 70
     1
102
RTVSPropertyOp62
 70
     1
  0
XRECORD
  5
28F
102
{ACAD_REACTORS
330
28E
102
}
330
28E
100
AcDbXrecord
280
     1
102
RTVSPost2010Prop28
280
     0
102
RTVSPost2010PropOp28
 70
     1
102
RTVSPost2010Prop29
280
     1
102
RTVSPost2010PropOp29
 70
     1
102
RTVSPost2010Prop30
280
     1
102
RTVSPost2010PropOp30
 70
     1
102
RTVSPost2010Prop31
280
     0
102
RTVSPost2010PropOp31
 70
     1
102
RTVSPost2010Prop32
280
     0
102
RTVSPost2010PropOp32
 70
     1
102
RTVSPost2010Prop33
280
     0
102
RTVSPost2010PropOp33
 70
     1
102
RTVSPost2010Prop34
280
     0
102
RTVSPost2010PropOp34
 70
     1
102
RTVSPost2010Prop35
280
     0
102
RTVSPost2010PropOp35
 70
     1
102
RTVSPost2010Prop36
280
     0
102
RTVSPost2010PropOp36
 70
     1
102
RTVSPost2010Prop37
 90
       50
102
RTVSPost2010PropOp37
 70
     1
102
RTVSPost2010Prop38
140
0.0
102
RTVSPost2010PropOp38
 70
     1
102
RTVSPost2010Prop39
140
1.0
102
RTVSPost2010PropOp39
 70
     1
102
RTVSPost2010Prop40
 90
        0
102
RTVSPost2010PropOp40
 70
     1
102
RTVSPost2010Prop41ColorIndex
 90
       18
102
RTVSPost2010Prop41ColorRGB
 90
        0
102
RTVSPost2010PropOp41
 70
     1
102
RTVSPost2010Prop42
 90
       50
102
RTVSPost2010PropOp42
 70
     1
102
RTVSPost2010Prop43
 90
        3
102
RTVSPost2010PropOp43
 70
     1
102
RTVSPost2010Prop44ColorIndex
 90
        5
102
RTVSPost2010Prop44ColorRGB
 90
      255
102
RTVSPost2010PropOp44
 70
     1
102
RTVSPost2010Prop45
280
     0
102
RTVSPost2010PropOp45
 70
     1
102
RTVSPost2010Prop46
 90
       50
102
RTVSPost2010PropOp46
 70
     1
102
RTVSPost2010Prop47
 90
       50
102
RTVSPost2010PropOp47
 70
     1
102
RTVSPost2010Prop48
 90
       50
102
RTVSPost2010PropOp48
 70
     1
102
RTVSPost2010Prop49
280
     0
102
RTVSPost2010PropOp49
 70
     1
102
RTVSPost2010Prop50
 90
       50
102
RTVSPost2010PropOp50
 70
     1
102
RTVSPost2010Prop51ColorIndex
 90
      256
102
RTVSPost2010Prop51ColorRGB
 90
-16777216
102
RTVSPost2010PropOp51
 70
     0
102
RTVSPost2010Prop52
140
1.0
102
RTVSPost2010PropOp52
 70
     0
102
RTVSPost2010Prop53
 90
        2
102
RTVSPost2010PropOp53
 70
     1
102
RTVSPost2010Prop54
  1
strokes_ogs.tif
102
RTVSPost2010PropOp54
 70
     1
102
RTVSPost2010Prop55
280
     0
102
RTVSPost2010PropOp55
 70
     1
102
RTVSPost2010Prop56
140
1.0
102
RTVSPost2010PropOp56
 70
     1
102
RTVSPost2010Prop57
140
1.0
102
RTVSPost2010PropOp57
 70
     1
102
RTVSPropertyOp0
 70
     1
102
RTVSPropertyOp1
 70
     1
102
RTVSPropertyOp2
 70
     1
102
RTVSPropertyOp3
 70
     1
102
RTVSPropertyOp4
 70
     1
102
RTVSPropertyOp5
 70
     1
102
RTVSPropertyOp6
 70
     1
102
RTVSPropertyOp7
 70
     1
102
RTVSPropertyOp8
 70
     1
102
RTVSPropertyOp9
 70
     1
102
RTVSPropertyOp10
 70
     1
102
RTVSPropertyOp11
 70
     1
102
RTVSPropertyOp12
 70
     1
102
RTVSPropertyOp13
 70
     1
102
RTVSPropertyOp14
 70
     1
102
RTVSPropertyOp15
 70
     1
102
RTVSPropertyOp16
 70
     1
102
RTVSPropertyOp17
 70
     1
102
RTVSPropertyOp18
 70
     1
102
RTVSPropertyOp19
 70
     1
102
RTVSPropertyOp20
 70
     1
102
RTVSPropertyOp21
 70
     1
102
RTVSPropertyOp22
 70
     1
102
RTVSPropertyOp23
 70
     1
102
RTVSPropertyOp24
 70
     1
102
RTVSPropertyOp25
 70
     1
102
RTVSPropertyOp26
 70
     1
102
RTVSPropertyOp27
 70
     1
102
RTVSPropertyOp28
 70
     1
102
RTVSPropertyOp29
 70
     1
102
RTVSPropertyOp30
 70
     1
102
RTVSPropertyOp31
 70
     1
102
RTVSPropertyOp32
 70
     1
102
RTVSPropertyOp33
 70
     1
102
RTVSPropertyOp34
 70
     1
102
RTVSPropertyOp35
 70
     1
102
RTVSPropertyOp36
 70
     1
102
RTVSPropertyOp37
 70
     1
102
RTVSPropertyOp38
 70
     1
102
RTVSPropertyOp39
 70
     1
102
RTVSPropertyOp40
 70
     1
102
RTVSPropertyOp41
 70
     1
102
RTVSPropertyOp42
 70
     1
102
RTVSPropertyOp43
 70
     1
102
RTVSPropertyOp44
 70
     1
102
RTVSPropertyOp45
 70
     1
102
RTVSPropertyOp46
 70
     1
102
RTVSPropertyOp47
 70
     1
102
RTVSPropertyOp48
 70
     1
102
RTVSPropertyOp49
 70
     1
102
RTVSPropertyOp50
 70
     1
102
RTVSPropertyOp51
 70
     0
102
RTVSPropertyOp52
 70
     0
102
RTVSPropertyOp53
 70
     1
102
RTVSPropertyOp54
 70
     1
102
RTVSPropertyOp55
 70
     1
102
RTVSPropertyOp56
 70
     1
102
RTVSPropertyOp57
 70
     1
102
RTVSPropertyOp58
 70
     1
102
RTVSPropertyOp59
 70
     1
102
RTVSPropertyOp60
 70
     1
102
RTVSPropertyOp61
 70
     1
102
RTVSPropertyOp62
 70
     1
  0
XRECORD
  5
28D
102
{ACAD_REACTORS
330
28C
102
}
330
28C
100
AcDbXrecord
280
     1
102
RTVSPost2010Prop28
280
     0
102
RTVSPost2010PropOp28
 70
     1
102
RTVSPost2010Prop29
280
     1
102
RTVSPost2010PropOp29
 70
     1
102
RTVSPost2010Prop30
280
     1
102
RTVSPost2010PropOp30
 70
     1
102
RTVSPost2010Prop31
280
     0
102
RTVSPost2010PropOp31
 70
     1
102
RTVSPost2010Prop32
280
     0
102
RTVSPost2010PropOp32
 70
     1
102
RTVSPost2010Prop33
280
     0
102
RTVSPost2010PropOp33
 70
     1
102
RTVSPost2010Prop34
280
     0
102
RTVSPost2010PropOp34
 70
     1
102
RTVSPost2010Prop35
280
     0
102
RTVSPost2010PropOp35
 70
     1
102
RTVSPost2010Prop36
280
     0
102
RTVSPost2010PropOp36
 70
     1
102
RTVSPost2010Prop37
 90
       50
102
RTVSPost2010PropOp37
 70
     1
102
RTVSPost2010Prop38
140
0.0
102
RTVSPost2010PropOp38
 70
     1
102
RTVSPost2010Prop39
140
1.0
102
RTVSPost2010PropOp39
 70
     1
102
RTVSPost2010Prop40
 90
        0
102
RTVSPost2010PropOp40
 70
     1
102
RTVSPost2010Prop41ColorIndex
 90
       18
102
RTVSPost2010Prop41ColorRGB
 90
        0
102
RTVSPost2010PropOp41
 70
     1
102
RTVSPost2010Prop42
 90
       50
102
RTVSPost2010PropOp42
 70
     1
102
RTVSPost2010Prop43
 90
        3
102
RTVSPost2010PropOp43
 70
     1
102
RTVSPost2010Prop44ColorIndex
 90
        5
102
RTVSPost2010Prop44ColorRGB
 90
      255
102
RTVSPost2010PropOp44
 70
     1
102
RTVSPost2010Prop45
280
     0
102
RTVSPost2010PropOp45
 70
     1
102
RTVSPost2010Prop46
 90
       50
102
RTVSPost2010PropOp46
 70
     1
102
RTVSPost2010Prop47
 90
       50
102
RTVSPost2010PropOp47
 70
     1
102
RTVSPost2010Prop48
 90
       50
102
RTVSPost2010PropOp48
 70
     1
102
RTVSPost2010Prop49
280
     0
102
RTVSPost2010PropOp49
 70
     1
102
RTVSPost2010Prop50
 90
       50
102
RTVSPost2010PropOp50
 70
     1
102
RTVSPost2010Prop51ColorIndex
 90
      256
102
RTVSPost2010Prop51ColorRGB
 90
-16777216
102
RTVSPost2010PropOp51
 70
     0
102
RTVSPost2010Prop52
140
1.0
102
RTVSPost2010PropOp52
 70
     0
102
RTVSPost2010Prop53
 90
        2
102
RTVSPost2010PropOp53
 70
     1
102
RTVSPost2010Prop54
  1
strokes_ogs.tif
102
RTVSPost2010PropOp54
 70
     1
102
RTVSPost2010Prop55
280
     0
102
RTVSPost2010PropOp55
 70
     1
102
RTVSPost2010Prop56
140
1.0
102
RTVSPost2010PropOp56
 70
     1
102
RTVSPost2010Prop57
140
1.0
102
RTVSPost2010PropOp57
 70
     1
102
RTVSPropertyOp0
 70
     1
102
RTVSPropertyOp1
 70
     1
102
RTVSPropertyOp2
 70
     1
102
RTVSPropertyOp3
 70
     1
102
RTVSPropertyOp4
 70
     1
102
RTVSPropertyOp5
 70
     1
102
RTVSPropertyOp6
 70
     1
102
RTVSPropertyOp7
 70
     1
102
RTVSPropertyOp8
 70
     1
102
RTVSPropertyOp9
 70
     1
102
RTVSPropertyOp10
 70
     1
102
RTVSPropertyOp11
 70
     1
102
RTVSPropertyOp12
 70
     1
102
RTVSPropertyOp13
 70
     1
102
RTVSPropertyOp14
 70
     1
102
RTVSPropertyOp15
 70
     1
102
RTVSPropertyOp16
 70
     1
102
RTVSPropertyOp17
 70
     1
102
RTVSPropertyOp18
 70
     1
102
RTVSPropertyOp19
 70
     1
102
RTVSPropertyOp20
 70
     1
102
RTVSPropertyOp21
 70
     1
102
RTVSPropertyOp22
 70
     1
102
RTVSPropertyOp23
 70
     1
102
RTVSPropertyOp24
 70
     1
102
RTVSPropertyOp25
 70
     1
102
RTVSPropertyOp26
 70
     1
102
RTVSPropertyOp27
 70
     1
102
RTVSPropertyOp28
 70
     1
102
RTVSPropertyOp29
 70
     1
102
RTVSPropertyOp30
 70
     1
102
RTVSPropertyOp31
 70
     1
102
RTVSPropertyOp32
 70
     1
102
RTVSPropertyOp33
 70
     1
102
RTVSPropertyOp34
 70
     1
102
RTVSPropertyOp35
 70
     1
102
RTVSPropertyOp36
 70
     1
102
RTVSPropertyOp37
 70
     1
102
RTVSPropertyOp38
 70
     1
102
RTVSPropertyOp39
 70
     1
102
RTVSPropertyOp40
 70
     1
102
RTVSPropertyOp41
 70
     1
102
RTVSPropertyOp42
 70
     1
102
RTVSPropertyOp43
 70
     1
102
RTVSPropertyOp44
 70
     1
102
RTVSPropertyOp45
 70
     1
102
RTVSPropertyOp46
 70
     1
102
RTVSPropertyOp47
 70
     1
102
RTVSPropertyOp48
 70
     1
102
RTVSPropertyOp49
 70
     1
102
RTVSPropertyOp50
 70
     1
102
RTVSPropertyOp51
 70
     0
102
RTVSPropertyOp52
 70
     0
102
RTVSPropertyOp53
 70
     1
102
RTVSPropertyOp54
 70
     1
102
RTVSPropertyOp55
 70
     1
102
RTVSPropertyOp56
 70
     1
102
RTVSPropertyOp57
 70
     1
102
RTVSPropertyOp58
 70
     1
102
RTVSPropertyOp59
 70
     1
102
RTVSPropertyOp60
 70
     1
102
RTVSPropertyOp61
 70
     1
102
RTVSPropertyOp62
 70
     1
  0
XRECORD
  5
287
102
{ACAD_REACTORS
330
286
102
}
330
286
100
AcDbXrecord
280
     1
102
RTVSPost2010Prop28
280
     0
102
RTVSPost2010PropOp28
 70
     1
102
RTVSPost2010Prop29
280
     1
102
RTVSPost2010PropOp29
 70
     1
102
RTVSPost2010Prop30
280
     1
102
RTVSPost2010PropOp30
 70
     1
102
RTVSPost2010Prop31
280
     0
102
RTVSPost2010PropOp31
 70
     1
102
RTVSPost2010Prop32
280
     0
102
RTVSPost2010PropOp32
 70
     1
102
RTVSPost2010Prop33
280
     0
102
RTVSPost2010PropOp33
 70
     1
102
RTVSPost2010Prop34
280
     0
102
RTVSPost2010PropOp34
 70
     1
102
RTVSPost2010Prop35
280
     0
102
RTVSPost2010PropOp35
 70
     1
102
RTVSPost2010Prop36
280
     0
102
RTVSPost2010PropOp36
 70
     1
102
RTVSPost2010Prop37
 90
       50
102
RTVSPost2010PropOp37
 70
     1
102
RTVSPost2010Prop38
140
0.0
102
RTVSPost2010PropOp38
 70
     1
102
RTVSPost2010Prop39
140
1.0
102
RTVSPost2010PropOp39
 70
     1
102
RTVSPost2010Prop40
 90
        0
102
RTVSPost2010PropOp40
 70
     1
102
RTVSPost2010Prop41ColorIndex
 90
       18
102
RTVSPost2010Prop41ColorRGB
 90
        0
102
RTVSPost2010PropOp41
 70
     1
102
RTVSPost2010Prop42
 90
       50
102
RTVSPost2010PropOp42
 70
     1
102
RTVSPost2010Prop43
 90
        3
102
RTVSPost2010PropOp43
 70
     1
102
RTVSPost2010Prop44ColorIndex
 90
        5
102
RTVSPost2010Prop44ColorRGB
 90
      255
102
RTVSPost2010PropOp44
 70
     1
102
RTVSPost2010Prop45
280
     0
102
RTVSPost2010PropOp45
 70
     1
102
RTVSPost2010Prop46
 90
       50
102
RTVSPost2010PropOp46
 70
     1
102
RTVSPost2010Prop47
 90
       50
102
RTVSPost2010PropOp47
 70
     1
102
RTVSPost2010Prop48
 90
       50
102
RTVSPost2010PropOp48
 70
     1
102
RTVSPost2010Prop49
280
     0
102
RTVSPost2010PropOp49
 70
     1
102
RTVSPost2010Prop50
 90
       50
102
RTVSPost2010PropOp50
 70
     1
102
RTVSPost2010Prop51ColorIndex
 90
      256
102
RTVSPost2010Prop51ColorRGB
 90
-16777216
102
RTVSPost2010PropOp51
 70
     0
102
RTVSPost2010Prop52
140
1.0
102
RTVSPost2010PropOp52
 70
     0
102
RTVSPost2010Prop53
 90
        2
102
RTVSPost2010PropOp53
 70
     1
102
RTVSPost2010Prop54
  1
strokes_ogs.tif
102
RTVSPost2010PropOp54
 70
     1
102
RTVSPost2010Prop55
280
     0
102
RTVSPost2010PropOp55
 70
     1
102
RTVSPost2010Prop56
140
1.0
102
RTVSPost2010PropOp56
 70
     1
102
RTVSPost2010Prop57
140
1.0
102
RTVSPost2010PropOp57
 70
     1
102
RTVSPropertyOp0
 70
     1
102
RTVSPropertyOp1
 70
     1
102
RTVSPropertyOp2
 70
     1
102
RTVSPropertyOp3
 70
     1
102
RTVSPropertyOp4
 70
     1
102
RTVSPropertyOp5
 70
     1
102
RTVSPropertyOp6
 70
     1
102
RTVSPropertyOp7
 70
     1
102
RTVSPropertyOp8
 70
     1
102
RTVSPropertyOp9
 70
     1
102
RTVSPropertyOp10
 70
     1
102
RTVSPropertyOp11
 70
     1
102
RTVSPropertyOp12
 70
     1
102
RTVSPropertyOp13
 70
     1
102
RTVSPropertyOp14
 70
     1
102
RTVSPropertyOp15
 70
     1
102
RTVSPropertyOp16
 70
     1
102
RTVSPropertyOp17
 70
     1
102
RTVSPropertyOp18
 70
     1
102
RTVSPropertyOp19
 70
     1
102
RTVSPropertyOp20
 70
     1
102
RTVSPropertyOp21
 70
     1
102
RTVSPropertyOp22
 70
     1
102
RTVSPropertyOp23
 70
     1
102
RTVSPropertyOp24
 70
     1
102
RTVSPropertyOp25
 70
     1
102
RTVSPropertyOp26
 70
     1
102
RTVSPropertyOp27
 70
     1
102
RTVSPropertyOp28
 70
     1
102
RTVSPropertyOp29
 70
     1
102
RTVSPropertyOp30
 70
     1
102
RTVSPropertyOp31
 70
     1
102
RTVSPropertyOp32
 70
     1
102
RTVSPropertyOp33
 70
     1
102
RTVSPropertyOp34
 70
     1
102
RTVSPropertyOp35
 70
     1
102
RTVSPropertyOp36
 70
     1
102
RTVSPropertyOp37
 70
     1
102
RTVSPropertyOp38
 70
     1
102
RTVSPropertyOp39
 70
     1
102
RTVSPropertyOp40
 70
     1
102
RTVSPropertyOp41
 70
     1
102
RTVSPropertyOp42
 70
     1
102
RTVSPropertyOp43
 70
     1
102
RTVSPropertyOp44
 70
     1
102
RTVSPropertyOp45
 70
     1
102
RTVSPropertyOp46
 70
     1
102
RTVSPropertyOp47
 70
     1
102
RTVSPropertyOp48
 70
     1
102
RTVSPropertyOp49
 70
     1
102
RTVSPropertyOp50
 70
     1
102
RTVSPropertyOp51
 70
     0
102
RTVSPropertyOp52
 70
     0
102
RTVSPropertyOp53
 70
     1
102
RTVSPropertyOp54
 70
     1
102
RTVSPropertyOp55
 70
     1
102
RTVSPropertyOp56
 70
     1
102
RTVSPropertyOp57
 70
     1
102
RTVSPropertyOp58
 70
     1
102
RTVSPropertyOp59
 70
     1
102
RTVSPropertyOp60
 70
     1
102
RTVSPropertyOp61
 70
     1
102
RTVSPropertyOp62
 70
     1
  0
XRECORD
  5
289
102
{ACAD_REACTORS
330
288
102
}
330
288
100
AcDbXrecord
280
     1
102
RTVSPost2010Prop28
280
     0
102
RTVSPost2010PropOp28
 70
     1
102
RTVSPost2010Prop29
280
     1
102
RTVSPost2010PropOp29
 70
     1
102
RTVSPost2010Prop30
280
     1
102
RTVSPost2010PropOp30
 70
     1
102
RTVSPost2010Prop31
280
     0
102
RTVSPost2010PropOp31
 70
     1
102
RTVSPost2010Prop32
280
     0
102
RTVSPost2010PropOp32
 70
     1
102
RTVSPost2010Prop33
280
     0
102
RTVSPost2010PropOp33
 70
     1
102
RTVSPost2010Prop34
280
     0
102
RTVSPost2010PropOp34
 70
     1
102
RTVSPost2010Prop35
280
     0
102
RTVSPost2010PropOp35
 70
     1
102
RTVSPost2010Prop36
280
     0
102
RTVSPost2010PropOp36
 70
     1
102
RTVSPost2010Prop37
 90
       50
102
RTVSPost2010PropOp37
 70
     1
102
RTVSPost2010Prop38
140
0.0
102
RTVSPost2010PropOp38
 70
     1
102
RTVSPost2010Prop39
140
1.0
102
RTVSPost2010PropOp39
 70
     1
102
RTVSPost2010Prop40
 90
        0
102
RTVSPost2010PropOp40
 70
     1
102
RTVSPost2010Prop41ColorIndex
 90
       18
102
RTVSPost2010Prop41ColorRGB
 90
        0
102
RTVSPost2010PropOp41
 70
     1
102
RTVSPost2010Prop42
 90
       50
102
RTVSPost2010PropOp42
 70
     1
102
RTVSPost2010Prop43
 90
        3
102
RTVSPost2010PropOp43
 70
     1
102
RTVSPost2010Prop44ColorIndex
 90
        5
102
RTVSPost2010Prop44ColorRGB
 90
      255
102
RTVSPost2010PropOp44
 70
     1
102
RTVSPost2010Prop45
280
     0
102
RTVSPost2010PropOp45
 70
     1
102
RTVSPost2010Prop46
 90
       50
102
RTVSPost2010PropOp46
 70
     1
102
RTVSPost2010Prop47
 90
       50
102
RTVSPost2010PropOp47
 70
     1
102
RTVSPost2010Prop48
 90
       50
102
RTVSPost2010PropOp48
 70
     1
102
RTVSPost2010Prop49
280
     0
102
RTVSPost2010PropOp49
 70
     1
102
RTVSPost2010Prop50
 90
       50
102
RTVSPost2010PropOp50
 70
     1
102
RTVSPost2010Prop51ColorIndex
 90
      256
102
RTVSPost2010Prop51ColorRGB
 90
-16777216
102
RTVSPost2010PropOp51
 70
     0
102
RTVSPost2010Prop52
140
1.0
102
RTVSPost2010PropOp52
 70
     0
102
RTVSPost2010Prop53
 90
        2
102
RTVSPost2010PropOp53
 70
     1
102
RTVSPost2010Prop54
  1
strokes_ogs.tif
102
RTVSPost2010PropOp54
 70
     1
102
RTVSPost2010Prop55
280
     0
102
RTVSPost2010PropOp55
 70
     1
102
RTVSPost2010Prop56
140
1.0
102
RTVSPost2010PropOp56
 70
     1
102
RTVSPost2010Prop57
140
1.0
102
RTVSPost2010PropOp57
 70
     1
102
RTVSPropertyOp0
 70
     1
102
RTVSPropertyOp1
 70
     1
102
RTVSPropertyOp2
 70
     1
102
RTVSPropertyOp3
 70
     1
102
RTVSPropertyOp4
 70
     1
102
RTVSPropertyOp5
 70
     1
102
RTVSPropertyOp6
 70
     1
102
RTVSPropertyOp7
 70
     1
102
RTVSPropertyOp8
 70
     1
102
RTVSPropertyOp9
 70
     1
102
RTVSPropertyOp10
 70
     1
102
RTVSPropertyOp11
 70
     1
102
RTVSPropertyOp12
 70
     1
102
RTVSPropertyOp13
 70
     1
102
RTVSPropertyOp14
 70
     1
102
RTVSPropertyOp15
 70
     1
102
RTVSPropertyOp16
 70
     1
102
RTVSPropertyOp17
 70
     1
102
RTVSPropertyOp18
 70
     1
102
RTVSPropertyOp19
 70
     1
102
RTVSPropertyOp20
 70
     1
102
RTVSPropertyOp21
 70
     1
102
RTVSPropertyOp22
 70
     1
102
RTVSPropertyOp23
 70
     1
102
RTVSPropertyOp24
 70
     1
102
RTVSPropertyOp25
 70
     1
102
RTVSPropertyOp26
 70
     1
102
RTVSPropertyOp27
 70
     1
102
RTVSPropertyOp28
 70
     1
102
RTVSPropertyOp29
 70
     1
102
RTVSPropertyOp30
 70
     1
102
RTVSPropertyOp31
 70
     1
102
RTVSPropertyOp32
 70
     1
102
RTVSPropertyOp33
 70
     1
102
RTVSPropertyOp34
 70
     1
102
RTVSPropertyOp35
 70
     1
102
RTVSPropertyOp36
 70
     1
102
RTVSPropertyOp37
 70
     1
102
RTVSPropertyOp38
 70
     1
102
RTVSPropertyOp39
 70
     1
102
RTVSPropertyOp40
 70
     1
102
RTVSPropertyOp41
 70
     1
102
RTVSPropertyOp42
 70
     1
102
RTVSPropertyOp43
 70
     1
102
RTVSPropertyOp44
 70
     1
102
RTVSPropertyOp45
 70
     1
102
RTVSPropertyOp46
 70
     1
102
RTVSPropertyOp47
 70
     1
102
RTVSPropertyOp48
 70
     1
102
RTVSPropertyOp49
 70
     1
102
RTVSPropertyOp50
 70
     1
102
RTVSPropertyOp51
 70
     0
102
RTVSPropertyOp52
 70
     0
102
RTVSPropertyOp53
 70
     1
102
RTVSPropertyOp54
 70
     1
102
RTVSPropertyOp55
 70
     1
102
RTVSPropertyOp56
 70
     1
102
RTVSPropertyOp57
 70
     1
102
RTVSPropertyOp58
 70
     1
102
RTVSPropertyOp59
 70
     1
102
RTVSPropertyOp60
 70
     1
102
RTVSPropertyOp61
 70
     1
102
RTVSPropertyOp62
 70
     1
  0
XRECORD
  5
279
102
{ACAD_REACTORS
330
278
102
}
330
278
100
AcDbXrecord
280
     1
102
RTVSPost2010Prop28
280
     0
102
RTVSPost2010PropOp28
 70
     1
102
RTVSPost2010Prop29
280
     1
102
RTVSPost2010PropOp29
 70
     1
102
RTVSPost2010Prop30
280
     1
102
RTVSPost2010PropOp30
 70
     1
102
RTVSPost2010Prop31
280
     0
102
RTVSPost2010PropOp31
 70
     1
102
RTVSPost2010Prop32
280
     0
102
RTVSPost2010PropOp32
 70
     1
102
RTVSPost2010Prop33
280
     0
102
RTVSPost2010PropOp33
 70
     1
102
RTVSPost2010Prop34
280
     0
102
RTVSPost2010PropOp34
 70
     1
102
RTVSPost2010Prop35
280
     0
102
RTVSPost2010PropOp35
 70
     1
102
RTVSPost2010Prop36
280
     0
102
RTVSPost2010PropOp36
 70
     1
102
RTVSPost2010Prop37
 90
       50
102
RTVSPost2010PropOp37
 70
     1
102
RTVSPost2010Prop38
140
0.0
102
RTVSPost2010PropOp38
 70
     1
102
RTVSPost2010Prop39
140
1.0
102
RTVSPost2010PropOp39
 70
     1
102
RTVSPost2010Prop40
 90
        0
102
RTVSPost2010PropOp40
 70
     1
102
RTVSPost2010Prop41ColorIndex
 90
       18
102
RTVSPost2010Prop41ColorRGB
 90
        0
102
RTVSPost2010PropOp41
 70
     1
102
RTVSPost2010Prop42
 90
       50
102
RTVSPost2010PropOp42
 70
     1
102
RTVSPost2010Prop43
 90
        3
102
RTVSPost2010PropOp43
 70
     1
102
RTVSPost2010Prop44ColorIndex
 90
        5
102
RTVSPost2010Prop44ColorRGB
 90
      255
102
RTVSPost2010PropOp44
 70
     1
102
RTVSPost2010Prop45
280
     0
102
RTVSPost2010PropOp45
 70
     1
102
RTVSPost2010Prop46
 90
       50
102
RTVSPost2010PropOp46
 70
     1
102
RTVSPost2010Prop47
 90
       50
102
RTVSPost2010PropOp47
 70
     1
102
RTVSPost2010Prop48
 90
       50
102
RTVSPost2010PropOp48
 70
     1
102
RTVSPost2010Prop49
280
     0
102
RTVSPost2010PropOp49
 70
     1
102
RTVSPost2010Prop50
 90
       50
102
RTVSPost2010PropOp50
 70
     1
102
RTVSPost2010Prop51ColorIndex
 90
      256
102
RTVSPost2010Prop51ColorRGB
 90
-16777216
102
RTVSPost2010PropOp51
 70
     0
102
RTVSPost2010Prop52
140
1.0
102
RTVSPost2010PropOp52
 70
     0
102
RTVSPost2010Prop53
 90
        2
102
RTVSPost2010PropOp53
 70
     1
102
RTVSPost2010Prop54
  1
strokes_ogs.tif
102
RTVSPost2010PropOp54
 70
     1
102
RTVSPost2010Prop55
280
     0
102
RTVSPost2010PropOp55
 70
     1
102
RTVSPost2010Prop56
140
1.0
102
RTVSPost2010PropOp56
 70
     1
102
RTVSPost2010Prop57
140
1.0
102
RTVSPost2010PropOp57
 70
     1
102
RTVSPropertyOp0
 70
     1
102
RTVSPropertyOp1
 70
     1
102
RTVSPropertyOp2
 70
     1
102
RTVSPropertyOp3
 70
     1
102
RTVSPropertyOp4
 70
     1
102
RTVSPropertyOp5
 70
     1
102
RTVSPropertyOp6
 70
     1
102
RTVSPropertyOp7
 70
     1
102
RTVSPropertyOp8
 70
     1
102
RTVSPropertyOp9
 70
     1
102
RTVSPropertyOp10
 70
     1
102
RTVSPropertyOp11
 70
     1
102
RTVSPropertyOp12
 70
     1
102
RTVSPropertyOp13
 70
     1
102
RTVSPropertyOp14
 70
     1
102
RTVSPropertyOp15
 70
     1
102
RTVSPropertyOp16
 70
     1
102
RTVSPropertyOp17
 70
     1
102
RTVSPropertyOp18
 70
     1
102
RTVSPropertyOp19
 70
     1
102
RTVSPropertyOp20
 70
     1
102
RTVSPropertyOp21
 70
     1
102
RTVSPropertyOp22
 70
     1
102
RTVSPropertyOp23
 70
     1
102
RTVSPropertyOp24
 70
     1
102
RTVSPropertyOp25
 70
     1
102
RTVSPropertyOp26
 70
     1
102
RTVSPropertyOp27
 70
     1
102
RTVSPropertyOp28
 70
     1
102
RTVSPropertyOp29
 70
     1
102
RTVSPropertyOp30
 70
     1
102
RTVSPropertyOp31
 70
     1
102
RTVSPropertyOp32
 70
     1
102
RTVSPropertyOp33
 70
     1
102
RTVSPropertyOp34
 70
     1
102
RTVSPropertyOp35
 70
     1
102
RTVSPropertyOp36
 70
     1
102
RTVSPropertyOp37
 70
     1
102
RTVSPropertyOp38
 70
     1
102
RTVSPropertyOp39
 70
     1
102
RTVSPropertyOp40
 70
     1
102
RTVSPropertyOp41
 70
     1
102
RTVSPropertyOp42
 70
     1
102
RTVSPropertyOp43
 70
     1
102
RTVSPropertyOp44
 70
     1
102
RTVSPropertyOp45
 70
     1
102
RTVSPropertyOp46
 70
     1
102
RTVSPropertyOp47
 70
     1
102
RTVSPropertyOp48
 70
     1
102
RTVSPropertyOp49
 70
     1
102
RTVSPropertyOp50
 70
     1
102
RTVSPropertyOp51
 70
     0
102
RTVSPropertyOp52
 70
     0
102
RTVSPropertyOp53
 70
     1
102
RTVSPropertyOp54
 70
     1
102
RTVSPropertyOp55
 70
     1
102
RTVSPropertyOp56
 70
     1
102
RTVSPropertyOp57
 70
     1
102
RTVSPropertyOp58
 70
     1
102
RTVSPropertyOp59
 70
     1
102
RTVSPropertyOp60
 70
     1
102
RTVSPropertyOp61
 70
     1
102
RTVSPropertyOp62
 70
     1
  0
XRECORD
  5
26D
102
{ACAD_REACTORS
330
26C
102
}
330
26C
100
AcDbXrecord
280
     1
102
RTVSPost2010Prop28
280
     0
102
RTVSPost2010PropOp28
 70
     1
102
RTVSPost2010Prop29
280
     1
102
RTVSPost2010PropOp29
 70
     1
102
RTVSPost2010Prop30
280
     1
102
RTVSPost2010PropOp30
 70
     1
102
RTVSPost2010Prop31
280
     0
102
RTVSPost2010PropOp31
 70
     1
102
RTVSPost2010Prop32
280
     0
102
RTVSPost2010PropOp32
 70
     1
102
RTVSPost2010Prop33
280
     0
102
RTVSPost2010PropOp33
 70
     1
102
RTVSPost2010Prop34
280
     0
102
RTVSPost2010PropOp34
 70
     1
102
RTVSPost2010Prop35
280
     0
102
RTVSPost2010PropOp35
 70
     1
102
RTVSPost2010Prop36
280
     0
102
RTVSPost2010PropOp36
 70
     1
102
RTVSPost2010Prop37
 90
       50
102
RTVSPost2010PropOp37
 70
     1
102
RTVSPost2010Prop38
140
0.0
102
RTVSPost2010PropOp38
 70
     1
102
RTVSPost2010Prop39
140
1.0
102
RTVSPost2010PropOp39
 70
     1
102
RTVSPost2010Prop40
 90
        0
102
RTVSPost2010PropOp40
 70
     1
102
RTVSPost2010Prop41ColorIndex
 90
       18
102
RTVSPost2010Prop41ColorRGB
 90
        0
102
RTVSPost2010PropOp41
 70
     1
102
RTVSPost2010Prop42
 90
       50
102
RTVSPost2010PropOp42
 70
     1
102
RTVSPost2010Prop43
 90
        3
102
RTVSPost2010PropOp43
 70
     1
102
RTVSPost2010Prop44ColorIndex
 90
        5
102
RTVSPost2010Prop44ColorRGB
 90
      255
102
RTVSPost2010PropOp44
 70
     1
102
RTVSPost2010Prop45
280
     0
102
RTVSPost2010PropOp45
 70
     1
102
RTVSPost2010Prop46
 90
       50
102
RTVSPost2010PropOp46
 70
     1
102
RTVSPost2010Prop47
 90
       50
102
RTVSPost2010PropOp47
 70
     1
102
RTVSPost2010Prop48
 90
       50
102
RTVSPost2010PropOp48
 70
     1
102
RTVSPost2010Prop49
280
     0
102
RTVSPost2010PropOp49
 70
     1
102
RTVSPost2010Prop50
 90
       50
102
RTVSPost2010PropOp50
 70
     1
102
RTVSPost2010Prop51ColorIndex
 90
      256
102
RTVSPost2010Prop51ColorRGB
 90
-16777216
102
RTVSPost2010PropOp51
 70
     0
102
RTVSPost2010Prop52
140
1.0
102
RTVSPost2010PropOp52
 70
     0
102
RTVSPost2010Prop53
 90
        2
102
RTVSPost2010PropOp53
 70
     1
102
RTVSPost2010Prop54
  1
strokes_ogs.tif
102
RTVSPost2010PropOp54
 70
     1
102
RTVSPost2010Prop55
280
     0
102
RTVSPost2010PropOp55
 70
     1
102
RTVSPost2010Prop56
140
1.0
102
RTVSPost2010PropOp56
 70
     1
102
RTVSPost2010Prop57
140
1.0
102
RTVSPost2010PropOp57
 70
     1
102
RTVSPropertyOp0
 70
     1
102
RTVSPropertyOp1
 70
     1
102
RTVSPropertyOp2
 70
     1
102
RTVSPropertyOp3
 70
     1
102
RTVSPropertyOp4
 70
     1
102
RTVSPropertyOp5
 70
     1
102
RTVSPropertyOp6
 70
     1
102
RTVSPropertyOp7
 70
     1
102
RTVSPropertyOp8
 70
     1
102
RTVSPropertyOp9
 70
     1
102
RTVSPropertyOp10
 70
     1
102
RTVSPropertyOp11
 70
     1
102
RTVSPropertyOp12
 70
     1
102
RTVSPropertyOp13
 70
     1
102
RTVSPropertyOp14
 70
     1
102
RTVSPropertyOp15
 70
     1
102
RTVSPropertyOp16
 70
     1
102
RTVSPropertyOp17
 70
     1
102
RTVSPropertyOp18
 70
     1
102
RTVSPropertyOp19
 70
     1
102
RTVSPropertyOp20
 70
     1
102
RTVSPropertyOp21
 70
     1
102
RTVSPropertyOp22
 70
     1
102
RTVSPropertyOp23
 70
     1
102
RTVSPropertyOp24
 70
     1
102
RTVSPropertyOp25
 70
     1
102
RTVSPropertyOp26
 70
     1
102
RTVSPropertyOp27
 70
     1
102
RTVSPropertyOp28
 70
     1
102
RTVSPropertyOp29
 70
     1
102
RTVSPropertyOp30
 70
     1
102
RTVSPropertyOp31
 70
     1
102
RTVSPropertyOp32
 70
     1
102
RTVSPropertyOp33
 70
     1
102
RTVSPropertyOp34
 70
     1
102
RTVSPropertyOp35
 70
     1
102
RTVSPropertyOp36
 70
     1
102
RTVSPropertyOp37
 70
     1
102
RTVSPropertyOp38
 70
     1
102
RTVSPropertyOp39
 70
     1
102
RTVSPropertyOp40
 70
     1
102
RTVSPropertyOp41
 70
     1
102
RTVSPropertyOp42
 70
     1
102
RTVSPropertyOp43
 70
     1
102
RTVSPropertyOp44
 70
     1
102
RTVSPropertyOp45
 70
     1
102
RTVSPropertyOp46
 70
     1
102
RTVSPropertyOp47
 70
     1
102
RTVSPropertyOp48
 70
     1
102
RTVSPropertyOp49
 70
     1
102
RTVSPropertyOp50
 70
     1
102
RTVSPropertyOp51
 70
     0
102
RTVSPropertyOp52
 70
     0
102
RTVSPropertyOp53
 70
     1
102
RTVSPropertyOp54
 70
     1
102
RTVSPropertyOp55
 70
     1
102
RTVSPropertyOp56
 70
     1
102
RTVSPropertyOp57
 70
     1
102
RTVSPropertyOp58
 70
     1
102
RTVSPropertyOp59
 70
     1
102
RTVSPropertyOp60
 70
     1
102
RTVSPropertyOp61
 70
     1
102
RTVSPropertyOp62
 70
     1
  0
XRECORD
  5
28B
102
{ACAD_REACTORS
330
28A
102
}
330
28A
100
AcDbXrecord
280
     1
102
RTVSPost2010Prop28
280
     0
102
RTVSPost2010PropOp28
 70
     1
102
RTVSPost2010Prop29
280
     1
102
RTVSPost2010PropOp29
 70
     1
102
RTVSPost2010Prop30
280
     1
102
RTVSPost2010PropOp30
 70
     1
102
RTVSPost2010Prop31
280
     0
102
RTVSPost2010PropOp31
 70
     1
102
RTVSPost2010Prop32
280
     0
102
RTVSPost2010PropOp32
 70
     1
102
RTVSPost2010Prop33
280
     0
102
RTVSPost2010PropOp33
 70
     1
102
RTVSPost2010Prop34
280
     0
102
RTVSPost2010PropOp34
 70
     1
102
RTVSPost2010Prop35
280
     0
102
RTVSPost2010PropOp35
 70
     1
102
RTVSPost2010Prop36
280
     0
102
RTVSPost2010PropOp36
 70
     1
102
RTVSPost2010Prop37
 90
       50
102
RTVSPost2010PropOp37
 70
     1
102
RTVSPost2010Prop38
140
0.0
102
RTVSPost2010PropOp38
 70
     1
102
RTVSPost2010Prop39
140
1.0
102
RTVSPost2010PropOp39
 70
     1
102
RTVSPost2010Prop40
 90
        0
102
RTVSPost2010PropOp40
 70
     1
102
RTVSPost2010Prop41ColorIndex
 90
       18
102
RTVSPost2010Prop41ColorRGB
 90
        0
102
RTVSPost2010PropOp41
 70
     1
102
RTVSPost2010Prop42
 90
       50
102
RTVSPost2010PropOp42
 70
     1
102
RTVSPost2010Prop43
 90
        3
102
RTVSPost2010PropOp43
 70
     1
102
RTVSPost2010Prop44ColorIndex
 90
        5
102
RTVSPost2010Prop44ColorRGB
 90
      255
102
RTVSPost2010PropOp44
 70
     1
102
RTVSPost2010Prop45
280
     0
102
RTVSPost2010PropOp45
 70
     1
102
RTVSPost2010Prop46
 90
       50
102
RTVSPost2010PropOp46
 70
     1
102
RTVSPost2010Prop47
 90
       50
102
RTVSPost2010PropOp47
 70
     1
102
RTVSPost2010Prop48
 90
       50
102
RTVSPost2010PropOp48
 70
     1
102
RTVSPost2010Prop49
280
     0
102
RTVSPost2010PropOp49
 70
     1
102
RTVSPost2010Prop50
 90
       50
102
RTVSPost2010PropOp50
 70
     1
102
RTVSPost2010Prop51ColorIndex
 90
      256
102
RTVSPost2010Prop51ColorRGB
 90
-16777216
102
RTVSPost2010PropOp51
 70
     0
102
RTVSPost2010Prop52
140
1.0
102
RTVSPost2010PropOp52
 70
     0
102
RTVSPost2010Prop53
 90
        2
102
RTVSPost2010PropOp53
 70
     1
102
RTVSPost2010Prop54
  1
strokes_ogs.tif
102
RTVSPost2010PropOp54
 70
     1
102
RTVSPost2010Prop55
280
     0
102
RTVSPost2010PropOp55
 70
     1
102
RTVSPost2010Prop56
140
1.0
102
RTVSPost2010PropOp56
 70
     1
102
RTVSPost2010Prop57
140
1.0
102
RTVSPost2010PropOp57
 70
     1
102
RTVSPropertyOp0
 70
     1
102
RTVSPropertyOp1
 70
     1
102
RTVSPropertyOp2
 70
     1
102
RTVSPropertyOp3
 70
     1
102
RTVSPropertyOp4
 70
     1
102
RTVSPropertyOp5
 70
     1
102
RTVSPropertyOp6
 70
     1
102
RTVSPropertyOp7
 70
     1
102
RTVSPropertyOp8
 70
     1
102
RTVSPropertyOp9
 70
     1
102
RTVSPropertyOp10
 70
     1
102
RTVSPropertyOp11
 70
     1
102
RTVSPropertyOp12
 70
     1
102
RTVSPropertyOp13
 70
     1
102
RTVSPropertyOp14
 70
     1
102
RTVSPropertyOp15
 70
     1
102
RTVSPropertyOp16
 70
     1
102
RTVSPropertyOp17
 70
     1
102
RTVSPropertyOp18
 70
     1
102
RTVSPropertyOp19
 70
     1
102
RTVSPropertyOp20
 70
     1
102
RTVSPropertyOp21
 70
     1
102
RTVSPropertyOp22
 70
     1
102
RTVSPropertyOp23
 70
     1
102
RTVSPropertyOp24
 70
     1
102
RTVSPropertyOp25
 70
     1
102
RTVSPropertyOp26
 70
     1
102
RTVSPropertyOp27
 70
     1
102
RTVSPropertyOp28
 70
     1
102
RTVSPropertyOp29
 70
     1
102
RTVSPropertyOp30
 70
     1
102
RTVSPropertyOp31
 70
     1
102
RTVSPropertyOp32
 70
     1
102
RTVSPropertyOp33
 70
     1
102
RTVSPropertyOp34
 70
     1
102
RTVSPropertyOp35
 70
     1
102
RTVSPropertyOp36
 70
     1
102
RTVSPropertyOp37
 70
     1
102
RTVSPropertyOp38
 70
     1
102
RTVSPropertyOp39
 70
     1
102
RTVSPropertyOp40
 70
     1
102
RTVSPropertyOp41
 70
     1
102
RTVSPropertyOp42
 70
     1
102
RTVSPropertyOp43
 70
     1
102
RTVSPropertyOp44
 70
     1
102
RTVSPropertyOp45
 70
     1
102
RTVSPropertyOp46
 70
     1
102
RTVSPropertyOp47
 70
     1
102
RTVSPropertyOp48
 70
     1
102
RTVSPropertyOp49
 70
     1
102
RTVSPropertyOp50
 70
     1
102
RTVSPropertyOp51
 70
     0
102
RTVSPropertyOp52
 70
     0
102
RTVSPropertyOp53
 70
     1
102
RTVSPropertyOp54
 70
     1
102
RTVSPropertyOp55
 70
     1
102
RTVSPropertyOp56
 70
     1
102
RTVSPropertyOp57
 70
     1
102
RTVSPropertyOp58
 70
     1
102
RTVSPropertyOp59
 70
     1
102
RTVSPropertyOp60
 70
     1
102
RTVSPropertyOp61
 70
     1
102
RTVSPropertyOp62
 70
     1
  0
ENDSEC
  0
EOF
