  0
SECTION
  2
HEADER
  9
$ACADVER
  1
AC1021
  9
$ACADMAINTVER
 70
    50
  9
$DWGCODEPAGE
  3
ANSI_1252
  9
$LASTSAVEDBY
  1
Autodesk
  9
$INSBASE
 10
0.0
 20
0.0
 30
0.0
  9
$EXTMIN
 10
1.000000000000000E+20
 20
1.000000000000000E+20
 30
1.000000000000000E+20
  9
$EXTMAX
 10
-1.000000000000000E+20
 20
-1.000000000000000E+20
 30
-1.000000000000000E+20
  9
$LIMMIN
 10
0.0
 20
0.0
  9
$LIMMAX
 10
420.0
 20
297.0
  9
$ORTHOMODE
 70
     0
  9
$REGENMODE
 70
     1
  9
$FILLMODE
 70
     1
  9
$QTEXTMODE
 70
     0
  9
$MIRRTEXT
 70
     0
  9
$LTSCALE
 40
1.0
  9
$ATTMODE
 70
     1
  9
$TEXTSIZE
 40
2.5
  9
$TRACEWID
 40
1.0
  9
$TEXTSTYLE
  7
Standard
  9
$CLAYER
  8
0
  9
$CELTYPE
  6
ByLayer
  9
$CECOLOR
 62
   256
  9
$CELTSCALE
 40
1.0
  9
$DISPSILH
 70
     0
  9
$DIMSCALE
 40
1.0
  9
$DIMASZ
 40
2.5
  9
$DIMEXO
 40
0.625
  9
$DIMDLI
 40
3.75
  9
$DIMRND
 40
0.0
  9
$DIMDLE
 40
0.0
  9
$DIMEXE
 40
1.25
  9
$DIMTP
 40
0.0
  9
$DIMTM
 40
0.0
  9
$DIMTXT
 40
2.5
  9
$DIMCEN
 40
2.5
  9
$DIMTSZ
 40
0.0
  9
$DIMTOL
 70
     0
  9
$DIMLIM
 70
     0
  9
$DIMTIH
 70
     0
  9
$DIMTOH
 70
     0
  9
$DIMSE1
 70
     0
  9
$DIMSE2
 70
     0
  9
$DIMTAD
 70
     1
  9
$DIMZIN
 70
     8
  9
$DIMBLK
  1

  9
$DIMASO
 70
     1
  9
$DIMSHO
 70
     1
  9
$DIMPOST
  1

  9
$DIMAPOST
  1

  9
$DIMALT
 70
     0
  9
$DIMALTD
 70
     3
  9
$DIMALTF
 40
0.03937007874016
  9
$DIMLFAC
 40
1.0
  9
$DIMTOFL
 70
     1
  9
$DIMTVP
 40
0.0
  9
$DIMTIX
 70
     0
  9
$DIMSOXD
 70
     0
  9
$DIMSAH
 70
     0
  9
$DIMBLK1
  1

  9
$DIMBLK2
  1

  9
$DIMSTYLE
  2
ISO-25
  9
$DIMCLRD
 70
     0
  9
$DIMCLRE
 70
     0
  9
$DIMCLRT
 70
     0
  9
$DIMTFAC
 40
1.0
  9
$DIMGAP
 40
0.625
  9
$DIMJUST
 70
     0
  9
$DIMSD1
 70
     0
  9
$DIMSD2
 70
     0
  9
$DIMTOLJ
 70
     0
  9
$DIMTZIN
 70
     8
  9
$DIMALTZ
 70
     0
  9
$DIMALTTZ
 70
     0
  9
$DIMUPT
 70
     0
  9
$DIMDEC
 70
     2
  9
$DIMTDEC
 70
     2
  9
$DIMALTU
 70
     2
  9
$DIMALTTD
 70
     3
  9
$DIMTXSTY
  7
Standard
  9
$DIMAUNIT
 70
     0
  9
$DIMADEC
 70
     0
  9
$DIMALTRND
 40
0.0
  9
$DIMAZIN
 70
     0
  9
$DIMDSEP
 70
    44
  9
$DIMATFIT
 70
     3
  9
$DIMFRAC
 70
     0
  9
$DIMLDRBLK
  1

  9
$DIMLUNIT
 70
     2
  9
$DIMLWD
 70
    -2
  9
$DIMLWE
 70
    -2
  9
$DIMTMOVE
 70
     0
  9
$DIMFXL
 40
1.0
  9
$DIMFXLON
 70
     0
  9
$DIMJOGANG
 40
0.7853981633974483
  9
$DIMTFILL
 70
     0
  9
$DIMTFILLCLR
 70
     0
  9
$DIMARCSYM
 70
     0
  9
$DIMLTYPE
  6

  9
$DIMLTEX1
  6

  9
$DIMLTEX2
  6

  9
$LUNITS
 70
     2
  9
$LUPREC
 70
     4
  9
$SKETCHINC
 40
1.0
  9
$FILLETRAD
 40
0.0
  9
$AUNITS
 70
     0
  9
$AUPREC
 70
     0
  9
$MENU
  1
.
  9
$ELEVATION
 40
0.0
  9
$PELEVATION
 40
0.0
  9
$THICKNESS
 40
0.0
  9
$LIMCHECK
 70
     0
  9
$CHAMFERA
 40
0.0
  9
$CHAMFERB
 40
0.0
  9
$CHAMFERC
 40
0.0
  9
$CHAMFERD
 40
0.0
  9
$SKPOLY
 70
     0
  9
$TDCREATE
 40
2456309.149747176
  9
$TDUCREATE
 40
2456309.483080509
  9
$TDUPDATE
 40
2456667.078514884
  9
$TDUUPDATE
 40
2456667.411848218
  9
$TDINDWG
 40
0.0000187963
  9
$TDUSRTIMER
 40
0.0000186111
  9
$USRTIMER
 70
     1
  9
$ANGBASE
 50
0.0
  9
$ANGDIR
 70
     0
  9
$PDMODE
 70
     0
  9
$PDSIZE
 40
0.0
  9
$PLINEWID
 40
0.0
  9
$SPLFRAME
 70
     0
  9
$SPLINETYPE
 70
     6
  9
$SPLINESEGS
 70
     8
  9
$HANDSEED
  5
41D
  9
$SURFTAB1
 70
     6
  9
$SURFTAB2
 70
     6
  9
$SURFTYPE
 70
     6
  9
$SURFU
 70
     6
  9
$SURFV
 70
     6
  9
$UCSBASE
  2

  9
$UCSNAME
  2

  9
$UCSORG
 10
0.0
 20
0.0
 30
0.0
  9
$UCSXDIR
 10
1.0
 20
0.0
 30
0.0
  9
$UCSYDIR
 10
0.0
 20
1.0
 30
0.0
  9
$UCSORTHOREF
  2

  9
$UCSORTHOVIEW
 70
     0
  9
$UCSORGTOP
 10
0.0
 20
0.0
 30
0.0
  9
$UCSORGBOTTOM
 10
0.0
 20
0.0
 30
0.0
  9
$UCSORGLEFT
 10
0.0
 20
0.0
 30
0.0
  9
$UCSORGRIGHT
 10
0.0
 20
0.0
 30
0.0
  9
$UCSORGFRONT
 10
0.0
 20
0.0
 30
0.0
  9
$UCSORGBACK
 10
0.0
 20
0.0
 30
0.0
  9
$PUCSBASE
  2

  9
$PUCSNAME
  2

  9
$PUCSORG
 10
0.0
 20
0.0
 30
0.0
  9
$PUCSXDIR
 10
1.0
 20
0.0
 30
0.0
  9
$PUCSYDIR
 10
0.0
 20
1.0
 30
0.0
  9
$PUCSORTHOREF
  2

  9
$PUCSORTHOVIEW
 70
     0
  9
$PUCSORGTOP
 10
0.0
 20
0.0
 30
0.0
  9
$PUCSORGBOTTOM
 10
0.0
 20
0.0
 30
0.0
  9
$PUCSORGLEFT
 10
0.0
 20
0.0
 30
0.0
  9
$PUCSORGRIGHT
 10
0.0
 20
0.0
 30
0.0
  9
$PUCSORGFRONT
 10
0.0
 20
0.0
 30
0.0
  9
$PUCSORGBACK
 10
0.0
 20
0.0
 30
0.0
  9
$USERI1
 70
     0
  9
$USERI2
 70
     0
  9
$USERI3
 70
     0
  9
$USERI4
 70
     0
  9
$USERI5
 70
     0
  9
$USERR1
 40
0.0
  9
$USERR2
 40
0.0
  9
$USERR3
 40
0.0
  9
$USERR4
 40
0.0
  9
$USERR5
 40
0.0
  9
$WORLDVIEW
 70
     1
  9
$SHADEDGE
 70
     3
  9
$SHADEDIF
 70
    70
  9
$TILEMODE
 70
     1
  9
$MAXACTVP
 70
    64
  9
$PINSBASE
 10
0.0
 20
0.0
 30
0.0
  9
$PLIMCHECK
 70
     0
  9
$PEXTMIN
 10
0.0
 20
0.0
 30
0.0
  9
$PEXTMAX
 10
0.0
 20
0.0
 30
0.0
  9
$PLIMMIN
 10
0.0
 20
0.0
  9
$PLIMMAX
 10
12.0
 20
9.0
  9
$UNITMODE
 70
     0
  9
$VISRETAIN
 70
     1
  9
$PLINEGEN
 70
     0
  9
$PSLTSCALE
 70
     1
  9
$TREEDEPTH
 70
  3020
  9
$CMLSTYLE
  2
Standard
  9
$CMLJUST
 70
     0
  9
$CMLSCALE
 40
20.0
  9
$PROXYGRAPHICS
 70
     1
  9
$MEASUREMENT
 70
     1
  9
$CELWEIGHT
370
    -1
  9
$ENDCAPS
280
     0
  9
$JOINSTYLE
280
     0
  9
$LWDISPLAY
290
     0
  9
$INSUNITS
 70
     4
  9
$HYPERLINKBASE
  1

  9
$STYLESHEET
  1

  9
$XEDIT
290
     1
  9
$CEPSNTYPE
380
     0
  9
$PSTYLEMODE
290
     1
  9
$FINGERPRINTGUID
  2
{D36A17C0-B4E2-4527-8874-81943F1C34AC}
  9
$VERSIONGUID
  2
{265A5473-D45D-4B1C-ABB7-7FF2E3BD06BB}
  9
$EXTNAMES
290
     1
  9
$PSVPSCALE
 40
0.0
  9
$OLESTARTUP
290
     0
  9
$SORTENTS
280
   127
  9
$INDEXCTL
280
     0
  9
$HIDETEXT
280
     1
  9
$XCLIPFRAME
290
     0
  9
$HALOGAP
280
     0
  9
$OBSCOLOR
 70
   257
  9
$OBSLTYPE
280
     0
  9
$INTERSECTIONDISPLAY
280
     0
  9
$INTERSECTIONCOLOR
 70
   257
  9
$DIMASSOC
280
     2
  9
$PROJECTNAME
  1

  9
$CAMERADISPLAY
290
     0
  9
$LENSLENGTH
 40
50.0
  9
$CAMERAHEIGHT
 40
0.0
  9
$STEPSPERSEC
 40
2.0
  9
$STEPSIZE
 40
6.0
  9
$3DDWFPREC
 40
2.0
  9
$PSOLWIDTH
 40
5.0
  9
$PSOLHEIGHT
 40
80.0
  9
$LOFTANG1
 40
1.570796326794896
  9
$LOFTANG2
 40
1.570796326794896
  9
$LOFTMAG1
 40
0.0
  9
$LOFTMAG2
 40
0.0
  9
$LOFTPARAM
 70
     7
  9
$LOFTNORMALS
280
     1
  9
$LATITUDE
 40
37.795
  9
$LONGITUDE
 40
-122.394
  9
$NORTHDIRECTION
 40
0.0
  9
$TIMEZONE
 70
 -8000
  9
$LIGHTGLYPHDISPLAY
280
     1
  9
$TILEMODELIGHTSYNCH
280
     1
  9
$CMATERIAL
347
EC
  9
$SOLIDHIST
280
     0
  9
$SHOWHIST
280
     1
  9
$DWFFRAME
280
     2
  9
$DGNFRAME
280
     0
  9
$REALWORLDSCALE
290
     1
  9
$INTERFERECOLOR
 62
     1
  9
$INTERFEREOBJVS
345
F9
  9
$INTERFEREVPVS
346
F6
  9
$CSHADOW
280
     0
  9
$SHADOWPLANELOCATION
 40
0.0
  0
ENDSEC
  0
SECTION
  2
CLASSES
  0
CLASS
  1
ACDBDICTIONARYWDFLT
  2
AcDbDictionaryWithDefault
  3
ObjectDBX Classes
 90
        0
 91
        1
280
     0
281
     0
  0
CLASS
  1
ACDBPLACEHOLDER
  2
AcDbPlaceHolder
  3
ObjectDBX Classes
 90
        0
 91
        1
280
     0
281
     0
  0
CLASS
  1
LAYOUT
  2
AcDbLayout
  3
ObjectDBX Classes
 90
        0
 91
        3
280
     0
281
     0
  0
CLASS
  1
DICTIONARYVAR
  2
AcDbDictionaryVar
  3
ObjectDBX Classes
 90
        0
 91
       10
280
     0
281
     0
  0
CLASS
  1
TABLESTYLE
  2
AcDbTableStyle
  3
ObjectDBX Classes
 90
     4095
 91
        1
280
     0
281
     0
  0
CLASS
  1
MATERIAL
  2
AcDbMaterial
  3
ObjectDBX Classes
 90
     1153
 91
        3
280
     0
281
     0
  0
CLASS
  1
VISUALSTYLE
  2
AcDbVisualStyle
  3
ObjectDBX Classes
 90
     4095
 91
       24
280
     0
281
     0
  0
CLASS
  1
SCALE
  2
AcDbScale
  3
ObjectDBX Classes
 90
     1153
 91
       17
280
     0
281
     0
  0
CLASS
  1
MLEADERSTYLE
  2
AcDbMLeaderStyle
  3
ACDB_MLEADERSTYLE_CLASS
 90
     4095
 91
        2
280
     0
281
     0
  0
CLASS
  1
CELLSTYLEMAP
  2
AcDbCellStyleMap
  3
ObjectDBX Classes
 90
     1152
 91
        1
280
     0
281
     0
  0
CLASS
  1
EXACXREFPANELOBJECT
  2
ExAcXREFPanelObject
  3
EXAC_ESW
 90
     1025
 91
        0
280
     0
281
     0
  0
CLASS
  1
NPOCOLLECTION
  2
AcDbImpNonPersistentObjectsCollection
  3
ObjectDBX Classes
 90
     1153
 91
        0
280
     0
281
     0
  0
CLASS
  1
LAYER_INDEX
  2
AcDbLayerIndex
  3
ObjectDBX Classes
 90
        0
 91
        0
280
     0
281
     0
  0
CLASS
  1
SPATIAL_INDEX
  2
AcDbSpatialIndex
  3
ObjectDBX Classes
 90
        0
 91
        0
280
     0
281
     0
  0
CLASS
  1
IDBUFFER
  2
AcDbIdBuffer
  3
ObjectDBX Classes
 90
        0
 91
        0
280
     0
281
     0
  0
CLASS
  1
ACDBSECTIONVIEWSTYLE
  2
AcDbSectionViewStyle
  3
ObjectDBX Classes
 90
     1025
 91
        1
280
     0
281
     0
  0
CLASS
  1
ACDBDETAILVIEWSTYLE
  2
AcDbDetailViewStyle
  3
ObjectDBX Classes
 90
     1025
 91
        1
280
     0
281
     0
  0
ENDSEC
  0
SECTION
  2
TABLES
  0
TABLE
  2
VPORT
  5
8
330
0
100
AcDbSymbolTable
 70
     1
  0
VPORT
  5
EA
330
8
100
AcDbSymbolTableRecord
100
AcDbViewportTableRecord
  2
*Active
 70
     0
 10
0.0
 20
0.0
 11
1.0
 21
1.0
 12
2630.048781668382
 22
1440.684066268786
 13
0.0
 23
0.0
 14
10.0
 24
10.0
 15
10.0
 25
10.0
 16
0.0
 26
0.0
 36
1.0
 17
0.0
 27
0.0
 37
0.0
 40
2653.730076586097
 41
1.765478424015009
 42
50.0
 43
0.0
 44
0.0
 50
0.0
 51
0.0
 71
     0
 72
  1000
 73
     1
 74
     3
 75
     0
 76
     1
 77
     0
 78
     0
281
     0
 65
     1
110
0.0
120
0.0
130
0.0
111
1.0
121
0.0
131
0.0
112
0.0
122
1.0
132
0.0
 79
     0
146
0.0
348
F5
 60
     3
 61
     5
292
     1
282
     1
141
0.0
142
0.0
 63
   250
421
  3355443
1001
ACAD_NAV_VCDISPLAY
1070
     3
  0
ENDTAB
  0
TABLE
  2
LTYPE
  5
5
330
0
100
AcDbSymbolTable
 70
     1
  0
LTYPE
  5
14
330
5
100
AcDbSymbolTableRecord
100
AcDbLinetypeTableRecord
  2
ByBlock
 70
     0
  3

 72
    65
 73
     0
 40
0.0
  0
LTYPE
  5
15
330
5
100
AcDbSymbolTableRecord
100
AcDbLinetypeTableRecord
  2
ByLayer
 70
     0
  3

 72
    65
 73
     0
 40
0.0
  0
LTYPE
  5
16
330
5
100
AcDbSymbolTableRecord
100
AcDbLinetypeTableRecord
  2
Continuous
 70
     0
  3
Solid line
 72
    65
 73
     0
 40
0.0
  0
ENDTAB
  0
TABLE
  2
LAYER
  5
2
102
{ACAD_XDICTIONARY
360
1FF
102
}
330
0
100
AcDbSymbolTable
 70
     2
  0
LAYER
  5
10
102
{ACAD_XDICTIONARY
360
13C
102
}
330
2
100
AcDbSymbolTableRecord
100
AcDbLayerTableRecord
  2
0
 70
     0
 62
     7
  6
Continuous
370
    -3
390
F
347
EE
  0
LAYER
  5
249
330
2
100
AcDbSymbolTableRecord
100
AcDbLayerTableRecord
  2
Vector Layer 1
 70
     0
 62
     7
  6
Continuous
370
    30
390
F
347
EE
  0
ENDTAB
  0
TABLE
  2
STYLE
  5
3
330
0
100
AcDbSymbolTable
 70
     2
  0
STYLE
  5
11
330
3
100
AcDbSymbolTableRecord
100
AcDbTextStyleTableRecord
  2
Standard
 70
     0
 40
0.0
 41
1.0
 50
0.0
 71
     0
 42
2.5
  3
arial.ttf
  4

1001
ACAD
1000
Arial
1071
       34
  0
STYLE
  5
132
330
3
100
AcDbSymbolTableRecord
100
AcDbTextStyleTableRecord
  2
Annotative
 70
     0
 40
0.0
 41
1.0
 50
0.0
 71
     0
 42
2.5
  3
arial.ttf
  4

1001
AcadAnnotative
1000
AnnotativeData
1002
{
1070
     1
1070
     1
1002
}
1001
ACAD
1000
Arial
1071
       34
  0
ENDTAB
  0
TABLE
  2
VIEW
  5
6
330
0
100
AcDbSymbolTable
 70
     0
  0
ENDTAB
  0
TABLE
  2
UCS
  5
7
330
0
100
AcDbSymbolTable
 70
     0
  0
ENDTAB
  0
TABLE
  2
APPID
  5
9
330
0
100
AcDbSymbolTable
 70
     8
  0
APPID
  5
12
330
9
100
AcDbSymbolTableRecord
100
AcDbRegAppTableRecord
  2
ACAD
 70
     0
  0
APPID
  5
9E
330
9
100
AcDbSymbolTableRecord
100
AcDbRegAppTableRecord
  2
ACAD_PSEXT
 70
     0
  0
APPID
  5
133
330
9
100
AcDbSymbolTableRecord
100
AcDbRegAppTableRecord
  2
AcadAnnoPO
 70
     0
  0
APPID
  5
134
330
9
100
AcDbSymbolTableRecord
100
AcDbRegAppTableRecord
  2
AcadAnnotative
 70
     0
  0
APPID
  5
135
330
9
100
AcDbSymbolTableRecord
100
AcDbRegAppTableRecord
  2
ACAD_DSTYLE_DIMJAG
 70
     0
  0
APPID
  5
136
330
9
100
AcDbSymbolTableRecord
100
AcDbRegAppTableRecord
  2
ACAD_DSTYLE_DIMTALN
 70
     0
  0
APPID
  5
165
330
9
100
AcDbSymbolTableRecord
100
AcDbRegAppTableRecord
  2
ACAD_MLEADERVER
 70
     0
  0
APPID
  5
217
330
9
100
AcDbSymbolTableRecord
100
AcDbRegAppTableRecord
  2
ACAD_NAV_VCDISPLAY
 70
     0
  0
ENDTAB
  0
TABLE
  2
DIMSTYLE
  5
A
330
0
100
AcDbSymbolTable
 70
     3
100
AcDbDimStyleTable
 71
     2
340
27
340
137
  0
DIMSTYLE
105
1B0
330
A
100
AcDbSymbolTableRecord
100
AcDbDimStyleTableRecord
  2
Standard
 70
     0
340
11
  0
DIMSTYLE
105
137
330
A
100
AcDbSymbolTableRecord
100
AcDbDimStyleTableRecord
  2
Annotative
 70
     0
 40
0.0
 41
2.5
 42
0.625
 43
3.75
 44
1.25
 73
     0
 74
     0
 77
     1
 78
     8
140
2.5
141
2.5
143
0.03937007874016
147
0.625
171
     3
172
     1
271
     2
272
     2
274
     3
278
    44
283
     0
284
     8
340
11
1001
AcadAnnotative
1000
AnnotativeData
1002
{
1070
     1
1070
     1
1002
}
1001
ACAD_DSTYLE_DIMJAG
1070
   388
1040
1.5
1001
ACAD_DSTYLE_DIMTALN
1070
   392
1070
     0
  0
DIMSTYLE
105
27
330
A
100
AcDbSymbolTableRecord
100
AcDbDimStyleTableRecord
  2
ISO-25
 70
     0
 41
2.5
 42
0.625
 43
3.75
 44
1.25
 73
     0
 74
     0
 77
     1
 78
     8
140
2.5
141
2.5
143
0.03937007874016
147
0.625
171
     3
172
     1
271
     2
272
     2
274
     3
278
    44
283
     0
284
     8
340
11
  0
ENDTAB
  0
TABLE
  2
BLOCK_RECORD
  5
1
330
0
100
AcDbSymbolTable
 70
     1
  0
BLOCK_RECORD
  5
1F
102
{ACAD_XDICTIONARY
360
1CE
102
}
330
1
100
AcDbSymbolTableRecord
100
AcDbBlockTableRecord
  2
*Model_Space
340
22
 70
     0
280
     1
281
     0
  0
BLOCK_RECORD
  5
D2
330
1
100
AcDbSymbolTableRecord
100
AcDbBlockTableRecord
  2
*Paper_Space
340
D3
 70
     0
280
     1
281
     0
  0
BLOCK_RECORD
  5
D6
330
1
100
AcDbSymbolTableRecord
100
AcDbBlockTableRecord
  2
*Paper_Space0
340
D7
 70
     0
280
     1
281
     0
  0
ENDTAB
  0
ENDSEC
  0
SECTION
  2
BLOCKS
  0
BLOCK
  5
20
330
1F
100
AcDbEntity
  8
0
100
AcDbBlockBegin
  2
*Model_Space
 70
     0
 10
0.0
 20
0.0
 30
0.0
  3
*Model_Space
  1

  0
ENDBLK
  5
21
330
1F
100
AcDbEntity
  8
0
100
AcDbBlockEnd
  0
BLOCK
  5
D4
330
D2
100
AcDbEntity
 67
     1
  8
0
100
AcDbBlockBegin
  2
*Paper_Space
 70
     0
 10
0.0
 20
0.0
 30
0.0
  3
*Paper_Space
  1

  0
ENDBLK
  5
D5
330
D2
100
AcDbEntity
 67
     1
  8
0
100
AcDbBlockEnd
  0
BLOCK
  5
D8
330
D6
100
AcDbEntity
 67
     1
  8
0
100
AcDbBlockBegin
  2
*Paper_Space0
 70
     0
 10
0.0
 20
0.0
 30
0.0
  3
*Paper_Space0
  1

  0
ENDBLK
  5
D9
330
D6
100
AcDbEntity
 67
     1
  8
0
100
AcDbBlockEnd
  0
ENDSEC
  0
SECTION
  2
ENTITIES
  0
LWPOLYLINE
  5
24A
330
1F
100
AcDbEntity
  8
Vector Layer 1
 62
    18
420
        0
370
    30
100
AcDbPolyline
 90
        8
 70
     0
 43
0.0
 10
-28.70903483246998
 20
79.13873979705208
 10
-28.70903483246998
 20
468.2397372351423
 10
-28.70903483246998
 20
468.2397372351423
 10
-458.968795154607
 20
468.2397372351423
 10
-458.968795154607
 20
468.2397372351423
 10
-458.968795154607
 20
79.13873979705208
 10
-458.968795154607
 20
79.13873979705208
 10
-28.70903483246998
 20
79.13873979705208
210
0.0
220
0.0
230
-1.0
  0
POLYLINE
  5
24B
330
1F
100
AcDbEntity
  8
Vector Layer 1
 62
    18
420
        0
370
    30
100
AcDb3dPolyline
 66
     1
 10
0.0
 20
0.0
 30
0.0
 70
     8
  0
VERTEX
  5
24C
330
24B
100
AcDbEntity
  8
0
 62
    18
420
        0
100
AcDbVertex
100
AcDb3dPolylineVertex
 10
458.968795154607
 20
419.3757536032439
 30
0.0
 70
    32
  0
VERTEX
  5
24D
330
24B
100
AcDbEntity
  8
0
 62
    18
420
        0
100
AcDbVertex
100
AcDb3dPolylineVertex
 10
428.0073527956958
 20
419.3757536032439
 30
0.0
 70
    32
  0
VERTEX
  5
24E
330
24B
100
AcDbEntity
  8
0
 62
    18
420
        0
100
AcDbVertex
100
AcDb3dPolylineVertex
 10
364.909220687552
 20
419.3757536032439
 30
0.0
 70
    32
  0
SEQEND
  5
24F
330
24B
100
AcDbEntity
  8
Vector Layer 1
 62
    18
420
        0
370
    30
  0
POLYLINE
  5
250
330
1F
100
AcDbEntity
  8
Vector Layer 1
 62
    18
420
        0
370
    30
100
AcDb3dPolyline
 66
     1
 10
0.0
 20
0.0
 30
0.0
 70
     8
  0
VERTEX
  5
251
330
250
100
AcDbEntity
  8
0
 62
    18
420
        0
100
AcDbVertex
100
AcDb3dPolylineVertex
 10
458.968795154607
 20
381.283222089396
 30
0.0
 70
    32
  0
VERTEX
  5
252
330
250
100
AcDbEntity
  8
0
 62
    18
420
        0
100
AcDbVertex
100
AcDb3dPolylineVertex
 10
428.0073527956958
 20
381.283222089396
 30
0.0
 70
    32
  0
VERTEX
  5
253
330
250
100
AcDbEntity
  8
0
 62
    18
420
        0
100
AcDbVertex
100
AcDb3dPolylineVertex
 10
364.909220687552
 20
381.283222089396
 30
0.0
 70
    32
  0
SEQEND
  5
254
330
250
100
AcDbEntity
  8
Vector Layer 1
 62
    18
420
        0
370
    30
  0
POLYLINE
  5
255
330
1F
100
AcDbEntity
  8
Vector Layer 1
 62
    18
420
        0
370
    30
100
AcDb3dPolyline
 66
     1
 10
0.0
 20
0.0
 30
0.0
 70
     8
  0
VERTEX
  5
256
330
255
100
AcDbEntity
  8
0
 62
    18
420
        0
100
AcDbVertex
100
AcDb3dPolylineVertex
 10
428.0073527956958
 20
432.1318171377177
 30
0.0
 70
    32
  0
VERTEX
  5
257
330
255
100
AcDbEntity
  8
0
 62
    18
420
        0
100
AcDbVertex
100
AcDb3dPolylineVertex
 10
364.909220687552
 20
432.1318171377177
 30
0.0
 70
    32
  0
VERTEX
  5
258
330
255
100
AcDbEntity
  8
0
 62
    18
420
        0
100
AcDbVertex
100
AcDb3dPolylineVertex
 10
326.3870130028114
 20
432.1318171377177
 30
0.0
 70
    32
  0
VERTEX
  5
259
330
255
100
AcDbEntity
  8
0
 62
    18
420
        0
100
AcDbVertex
100
AcDb3dPolylineVertex
 10
262.9310536553165
 20
432.1318171377177
 30
0.0
 70
    32
  0
SEQEND
  5
25A
330
255
100
AcDbEntity
  8
Vector Layer 1
 62
    18
420
        0
370
    30
  0
POLYLINE
  5
25B
330
1F
100
AcDbEntity
  8
Vector Layer 1
 62
    18
420
        0
370
    30
100
AcDb3dPolyline
 66
     1
 10
0.0
 20
0.0
 30
0.0
 70
     8
  0
VERTEX
  5
25C
330
25B
100
AcDbEntity
  8
0
 62
    18
420
        0
100
AcDbVertex
100
AcDb3dPolylineVertex
 10
224.408845970576
 20
432.1318171377177
 30
0.0
 70
    32
  0
VERTEX
  5
25D
330
25B
100
AcDbEntity
  8
0
 62
    18
420
        0
100
AcDbVertex
100
AcDb3dPolylineVertex
 10
161.6497524076978
 20
432.1318171377177
 30
0.0
 70
    32
  0
VERTEX
  5
25E
330
25B
100
AcDbEntity
  8
0
 62
    18
420
        0
100
AcDbVertex
100
AcDb3dPolylineVertex
 10
123.1275447229578
 20
432.1318171377177
 30
0.0
 70
    32
  0
VERTEX
  5
25F
330
25B
100
AcDbEntity
  8
0
 62
    18
420
        0
100
AcDbVertex
100
AcDb3dPolylineVertex
 10
59.64191945837227
 20
432.1318171377177
 30
0.0
 70
    32
  0
SEQEND
  5
260
330
25B
100
AcDbEntity
  8
Vector Layer 1
 62
    18
420
        0
370
    30
  0
POLYLINE
  5
261
330
1F
100
AcDbEntity
  8
Vector Layer 1
 62
    18
420
        0
370
    30
100
AcDb3dPolyline
 66
     1
 10
0.0
 20
0.0
 30
0.0
 70
     8
  0
VERTEX
  5
262
330
261
100
AcDbEntity
  8
0
 62
    18
420
        0
100
AcDbVertex
100
AcDb3dPolylineVertex
 10
224.408845970576
 20
468.2397372351423
 30
0.0
 70
    32
  0
VERTEX
  5
263
330
261
100
AcDbEntity
  8
0
 62
    18
420
        0
100
AcDbVertex
100
AcDb3dPolylineVertex
 10
224.408845970576
 20
432.1318171377177
 30
0.0
 70
    32
  0
VERTEX
  5
264
330
261
100
AcDbEntity
  8
0
 62
    18
420
        0
100
AcDbVertex
100
AcDb3dPolylineVertex
 10
224.408845970576
 20
419.3757536032439
 30
0.0
 70
    32
  0
SEQEND
  5
265
330
261
100
AcDbEntity
  8
Vector Layer 1
 62
    18
420
        0
370
    30
  0
POLYLINE
  5
266
330
1F
100
AcDbEntity
  8
Vector Layer 1
 62
    18
420
        0
370
    30
100
AcDb3dPolyline
 66
     1
 10
0.0
 20
0.0
 30
0.0
 70
     8
  0
VERTEX
  5
267
330
266
100
AcDbEntity
  8
0
 62
    18
420
        0
100
AcDbVertex
100
AcDb3dPolylineVertex
 10
262.9310536553165
 20
468.2397372351423
 30
0.0
 70
    32
  0
VERTEX
  5
268
330
266
100
AcDbEntity
  8
0
 62
    18
420
        0
100
AcDbVertex
100
AcDb3dPolylineVertex
 10
262.9310536553165
 20
432.1318171377177
 30
0.0
 70
    32
  0
VERTEX
  5
269
330
266
100
AcDbEntity
  8
0
 62
    18
420
        0
100
AcDbVertex
100
AcDb3dPolylineVertex
 10
262.9310536553165
 20
419.3757536032439
 30
0.0
 70
    32
  0
SEQEND
  5
26A
330
266
100
AcDbEntity
  8
Vector Layer 1
 62
    18
420
        0
370
    30
  0
POLYLINE
  5
26B
330
1F
100
AcDbEntity
  8
Vector Layer 1
 62
    18
420
        0
370
    30
100
AcDb3dPolyline
 66
     1
 10
0.0
 20
0.0
 30
0.0
 70
     8
  0
VERTEX
  5
26C
330
26B
100
AcDbEntity
  8
0
 62
    18
420
        0
100
AcDbVertex
100
AcDb3dPolylineVertex
 10
428.0073527956958
 20
468.2397372351423
 30
0.0
 70
    32
  0
VERTEX
  5
26D
330
26B
100
AcDbEntity
  8
0
 62
    18
420
        0
100
AcDbVertex
100
AcDb3dPolylineVertex
 10
428.0073527956958
 20
432.1318171377177
 30
0.0
 70
    32
  0
VERTEX
  5
26E
330
26B
100
AcDbEntity
  8
0
 62
    18
420
        0
100
AcDbVertex
100
AcDb3dPolylineVertex
 10
428.0073527956958
 20
419.3757536032439
 30
0.0
 70
    32
  0
SEQEND
  5
26F
330
26B
100
AcDbEntity
  8
Vector Layer 1
 62
    18
420
        0
370
    30
  0
POLYLINE
  5
270
330
1F
100
AcDbEntity
  8
Vector Layer 1
 62
    18
420
        0
370
    30
100
AcDb3dPolyline
 66
     1
 10
0.0
 20
0.0
 30
0.0
 70
     8
  0
VERTEX
  5
271
330
270
100
AcDbEntity
  8
0
 62
    18
420
        0
100
AcDbVertex
100
AcDb3dPolylineVertex
 10
326.3870130028114
 20
419.3757536032439
 30
0.0
 70
    32
  0
VERTEX
  5
272
330
270
100
AcDbEntity
  8
0
 62
    18
420
        0
100
AcDbVertex
100
AcDb3dPolylineVertex
 10
262.9310536553165
 20
419.3757536032439
 30
0.0
 70
    32
  0
VERTEX
  5
273
330
270
100
AcDbEntity
  8
0
 62
    18
420
        0
100
AcDbVertex
100
AcDb3dPolylineVertex
 10
224.408845970576
 20
419.3757536032439
 30
0.0
 70
    32
  0
VERTEX
  5
274
330
270
100
AcDbEntity
  8
0
 62
    18
420
        0
100
AcDbVertex
100
AcDb3dPolylineVertex
 10
161.6497524076978
 20
419.3757536032439
 30
0.0
 70
    32
  0
SEQEND
  5
275
330
270
100
AcDbEntity
  8
Vector Layer 1
 62
    18
420
        0
370
    30
  0
POLYLINE
  5
276
330
1F
100
AcDbEntity
  8
Vector Layer 1
 62
    18
420
        0
370
    30
100
AcDb3dPolyline
 66
     1
 10
0.0
 20
0.0
 30
0.0
 70
     8
  0
VERTEX
  5
277
330
276
100
AcDbEntity
  8
0
 62
    18
420
        0
100
AcDbVertex
100
AcDb3dPolylineVertex
 10
123.1275447229578
 20
419.3757536032439
 30
0.0
 70
    32
  0
VERTEX
  5
278
330
276
100
AcDbEntity
  8
0
 62
    18
420
        0
100
AcDbVertex
100
AcDb3dPolylineVertex
 10
59.64191945837227
 20
419.3757536032439
 30
0.0
 70
    32
  0
VERTEX
  5
279
330
276
100
AcDbEntity
  8
0
 62
    18
420
        0
100
AcDbVertex
100
AcDb3dPolylineVertex
 10
28.70903483247014
 20
419.3757536032439
 30
0.0
 70
    32
  0
SEQEND
  5
27A
330
276
100
AcDbEntity
  8
Vector Layer 1
 62
    18
420
        0
370
    30
  0
POLYLINE
  5
27B
330
1F
100
AcDbEntity
  8
Vector Layer 1
 62
    18
420
        0
370
    30
100
AcDb3dPolyline
 66
     1
 10
0.0
 20
0.0
 30
0.0
 70
     8
  0
VERTEX
  5
27C
330
27B
100
AcDbEntity
  8
0
 62
    18
420
        0
100
AcDbVertex
100
AcDb3dPolylineVertex
 10
326.3870130028114
 20
381.283222089396
 30
0.0
 70
    32
  0
VERTEX
  5
27D
330
27B
100
AcDbEntity
  8
0
 62
    18
420
        0
100
AcDbVertex
100
AcDb3dPolylineVertex
 10
262.9310536553165
 20
381.283222089396
 30
0.0
 70
    32
  0
VERTEX
  5
27E
330
27B
100
AcDbEntity
  8
0
 62
    18
420
        0
100
AcDbVertex
100
AcDb3dPolylineVertex
 10
224.408845970576
 20
381.283222089396
 30
0.0
 70
    32
  0
VERTEX
  5
27F
330
27B
100
AcDbEntity
  8
0
 62
    18
420
        0
100
AcDbVertex
100
AcDb3dPolylineVertex
 10
161.6497524076978
 20
381.283222089396
 30
0.0
 70
    32
  0
SEQEND
  5
280
330
27B
100
AcDbEntity
  8
Vector Layer 1
 62
    18
420
        0
370
    30
  0
POLYLINE
  5
281
330
1F
100
AcDbEntity
  8
Vector Layer 1
 62
    18
420
        0
370
    30
100
AcDb3dPolyline
 66
     1
 10
0.0
 20
0.0
 30
0.0
 70
     8
  0
VERTEX
  5
282
330
281
100
AcDbEntity
  8
0
 62
    18
420
        0
100
AcDbVertex
100
AcDb3dPolylineVertex
 10
123.1275447229578
 20
381.283222089396
 30
0.0
 70
    32
  0
VERTEX
  5
283
330
281
100
AcDbEntity
  8
0
 62
    18
420
        0
100
AcDbVertex
100
AcDb3dPolylineVertex
 10
59.64191945837227
 20
381.283222089396
 30
0.0
 70
    32
  0
VERTEX
  5
284
330
281
100
AcDbEntity
  8
0
 62
    18
420
        0
100
AcDbVertex
100
AcDb3dPolylineVertex
 10
28.70903483247014
 20
381.283222089396
 30
0.0
 70
    32
  0
SEQEND
  5
285
330
281
100
AcDbEntity
  8
Vector Layer 1
 62
    18
420
        0
370
    30
  0
POLYLINE
  5
286
330
1F
100
AcDbEntity
  8
Vector Layer 1
 62
    18
420
        0
370
    30
100
AcDb3dPolyline
 66
     1
 10
0.0
 20
0.0
 30
0.0
 70
     8
  0
VERTEX
  5
287
330
286
100
AcDbEntity
  8
0
 62
    18
420
        0
100
AcDbVertex
100
AcDb3dPolylineVertex
 10
123.1275447229578
 20
432.1318171377177
 30
0.0
 70
    32
  0
VERTEX
  5
288
330
286
100
AcDbEntity
  8
0
 62
    18
420
        0
100
AcDbVertex
100
AcDb3dPolylineVertex
 10
123.1275447229577
 20
419.3757536032439
 30
0.0
 70
    32
  0
VERTEX
  5
289
330
286
100
AcDbEntity
  8
0
 62
    18
420
        0
100
AcDbVertex
100
AcDb3dPolylineVertex
 10
123.1275447229578
 20
381.283222089396
 30
0.0
 70
    32
  0
VERTEX
  5
28A
330
286
100
AcDbEntity
  8
0
 62
    18
420
        0
100
AcDbVertex
100
AcDb3dPolylineVertex
 10
123.1275447229578
 20
368.5983934550574
 30
0.0
 70
    32
  0
SEQEND
  5
28B
330
286
100
AcDbEntity
  8
Vector Layer 1
 62
    18
420
        0
370
    30
  0
POLYLINE
  5
28C
330
1F
100
AcDbEntity
  8
Vector Layer 1
 62
    18
420
        0
370
    30
100
AcDb3dPolyline
 66
     1
 10
0.0
 20
0.0
 30
0.0
 70
     8
  0
VERTEX
  5
28D
330
28C
100
AcDbEntity
  8
0
 62
    18
420
        0
100
AcDbVertex
100
AcDb3dPolylineVertex
 10
161.6497524076978
 20
432.1318171377177
 30
0.0
 70
    32
  0
VERTEX
  5
28E
330
28C
100
AcDbEntity
  8
0
 62
    18
420
        0
100
AcDbVertex
100
AcDb3dPolylineVertex
 10
161.6497524076977
 20
419.3757536032439
 30
0.0
 70
    32
  0
VERTEX
  5
28F
330
28C
100
AcDbEntity
  8
0
 62
    18
420
        0
100
AcDbVertex
100
AcDb3dPolylineVertex
 10
161.6497524076977
 20
381.283222089396
 30
0.0
 70
    32
  0
VERTEX
  5
290
330
28C
100
AcDbEntity
  8
0
 62
    18
420
        0
100
AcDbVertex
100
AcDb3dPolylineVertex
 10
161.6497524076977
 20
368.5983934550573
 30
0.0
 70
    32
  0
SEQEND
  5
291
330
28C
100
AcDbEntity
  8
Vector Layer 1
 62
    18
420
        0
370
    30
  0
POLYLINE
  5
292
330
1F
100
AcDbEntity
  8
Vector Layer 1
 62
    18
420
        0
370
    30
100
AcDb3dPolyline
 66
     1
 10
0.0
 20
0.0
 30
0.0
 70
     8
  0
VERTEX
  5
293
330
292
100
AcDbEntity
  8
0
 62
    18
420
        0
100
AcDbVertex
100
AcDb3dPolylineVertex
 10
224.408845970576
 20
368.5983934550574
 30
0.0
 70
    32
  0
VERTEX
  5
294
330
292
100
AcDbEntity
  8
0
 62
    18
420
        0
100
AcDbVertex
100
AcDb3dPolylineVertex
 10
161.6497524076978
 20
368.5983934550573
 30
0.0
 70
    32
  0
VERTEX
  5
295
330
292
100
AcDbEntity
  8
0
 62
    18
420
        0
100
AcDbVertex
100
AcDb3dPolylineVertex
 10
123.1275447229578
 20
368.5983934550574
 30
0.0
 70
    32
  0
VERTEX
  5
296
330
292
100
AcDbEntity
  8
0
 62
    18
420
        0
100
AcDbVertex
100
AcDb3dPolylineVertex
 10
59.64191945837227
 20
368.5983934550574
 30
0.0
 70
    32
  0
SEQEND
  5
297
330
292
100
AcDbEntity
  8
Vector Layer 1
 62
    18
420
        0
370
    30
  0
POLYLINE
  5
298
330
1F
100
AcDbEntity
  8
Vector Layer 1
 62
    18
420
        0
370
    30
100
AcDb3dPolyline
 66
     1
 10
0.0
 20
0.0
 30
0.0
 70
     8
  0
VERTEX
  5
299
330
298
100
AcDbEntity
  8
0
 62
    18
420
        0
100
AcDbVertex
100
AcDb3dPolylineVertex
 10
224.408845970576
 20
330.5058619412087
 30
0.0
 70
    32
  0
VERTEX
  5
29A
330
298
100
AcDbEntity
  8
0
 62
    18
420
        0
100
AcDbVertex
100
AcDb3dPolylineVertex
 10
161.6497524076978
 20
330.5058619412087
 30
0.0
 70
    32
  0
VERTEX
  5
29B
330
298
100
AcDbEntity
  8
0
 62
    18
420
        0
100
AcDbVertex
100
AcDb3dPolylineVertex
 10
123.1275447229578
 20
330.5058619412087
 30
0.0
 70
    32
  0
VERTEX
  5
29C
330
298
100
AcDbEntity
  8
0
 62
    18
420
        0
100
AcDbVertex
100
AcDb3dPolylineVertex
 10
59.64191945837227
 20
330.5058619412087
 30
0.0
 70
    32
  0
SEQEND
  5
29D
330
298
100
AcDbEntity
  8
Vector Layer 1
 62
    18
420
        0
370
    30
  0
POLYLINE
  5
29E
330
1F
100
AcDbEntity
  8
Vector Layer 1
 62
    18
420
        0
370
    30
100
AcDb3dPolyline
 66
     1
 10
0.0
 20
0.0
 30
0.0
 70
     8
  0
VERTEX
  5
29F
330
29E
100
AcDbEntity
  8
0
 62
    18
420
        0
100
AcDbVertex
100
AcDb3dPolylineVertex
 10
326.3870130028115
 20
432.1318171377177
 30
0.0
 70
    32
  0
VERTEX
  5
2A0
330
29E
100
AcDbEntity
  8
0
 62
    18
420
        0
100
AcDbVertex
100
AcDb3dPolylineVertex
 10
326.3870130028114
 20
419.3757536032439
 30
0.0
 70
    32
  0
VERTEX
  5
2A1
330
29E
100
AcDbEntity
  8
0
 62
    18
420
        0
100
AcDbVertex
100
AcDb3dPolylineVertex
 10
326.3870130028114
 20
381.283222089396
 30
0.0
 70
    32
  0
VERTEX
  5
2A2
330
29E
100
AcDbEntity
  8
0
 62
    18
420
        0
100
AcDbVertex
100
AcDb3dPolylineVertex
 10
326.3870130028115
 20
368.5983934550573
 30
0.0
 70
    32
  0
SEQEND
  5
2A3
330
29E
100
AcDbEntity
  8
Vector Layer 1
 62
    18
420
        0
370
    30
  0
POLYLINE
  5
2A4
330
1F
100
AcDbEntity
  8
Vector Layer 1
 62
    18
420
        0
370
    30
100
AcDb3dPolyline
 66
     1
 10
0.0
 20
0.0
 30
0.0
 70
     8
  0
VERTEX
  5
2A5
330
2A4
100
AcDbEntity
  8
0
 62
    18
420
        0
100
AcDbVertex
100
AcDb3dPolylineVertex
 10
364.909220687552
 20
432.1318171377177
 30
0.0
 70
    32
  0
VERTEX
  5
2A6
330
2A4
100
AcDbEntity
  8
0
 62
    18
420
        0
100
AcDbVertex
100
AcDb3dPolylineVertex
 10
364.9092206875519
 20
419.3757536032439
 30
0.0
 70
    32
  0
VERTEX
  5
2A7
330
2A4
100
AcDbEntity
  8
0
 62
    18
420
        0
100
AcDbVertex
100
AcDb3dPolylineVertex
 10
364.9092206875519
 20
381.283222089396
 30
0.0
 70
    32
  0
VERTEX
  5
2A8
330
2A4
100
AcDbEntity
  8
0
 62
    18
420
        0
100
AcDbVertex
100
AcDb3dPolylineVertex
 10
364.909220687552
 20
368.5983934550574
 30
0.0
 70
    32
  0
SEQEND
  5
2A9
330
2A4
100
AcDbEntity
  8
Vector Layer 1
 62
    18
420
        0
370
    30
  0
POLYLINE
  5
2AA
330
1F
100
AcDbEntity
  8
Vector Layer 1
 62
    18
420
        0
370
    30
100
AcDb3dPolyline
 66
     1
 10
0.0
 20
0.0
 30
0.0
 70
     8
  0
VERTEX
  5
2AB
330
2AA
100
AcDbEntity
  8
0
 62
    18
420
        0
100
AcDbVertex
100
AcDb3dPolylineVertex
 10
428.0073527956958
 20
368.5983934550574
 30
0.0
 70
    32
  0
VERTEX
  5
2AC
330
2AA
100
AcDbEntity
  8
0
 62
    18
420
        0
100
AcDbVertex
100
AcDb3dPolylineVertex
 10
364.909220687552
 20
368.5983934550574
 30
0.0
 70
    32
  0
VERTEX
  5
2AD
330
2AA
100
AcDbEntity
  8
0
 62
    18
420
        0
100
AcDbVertex
100
AcDb3dPolylineVertex
 10
326.3870130028114
 20
368.5983934550573
 30
0.0
 70
    32
  0
VERTEX
  5
2AE
330
2AA
100
AcDbEntity
  8
0
 62
    18
420
        0
100
AcDbVertex
100
AcDb3dPolylineVertex
 10
262.9310536553165
 20
368.5983934550574
 30
0.0
 70
    32
  0
SEQEND
  5
2AF
330
2AA
100
AcDbEntity
  8
Vector Layer 1
 62
    18
420
        0
370
    30
  0
POLYLINE
  5
2B0
330
1F
100
AcDbEntity
  8
Vector Layer 1
 62
    18
420
        0
370
    30
100
AcDb3dPolyline
 66
     1
 10
0.0
 20
0.0
 30
0.0
 70
     8
  0
VERTEX
  5
2B1
330
2B0
100
AcDbEntity
  8
0
 62
    18
420
        0
100
AcDbVertex
100
AcDb3dPolylineVertex
 10
428.0073527956958
 20
330.5058619412087
 30
0.0
 70
    32
  0
VERTEX
  5
2B2
330
2B0
100
AcDbEntity
  8
0
 62
    18
420
        0
100
AcDbVertex
100
AcDb3dPolylineVertex
 10
364.909220687552
 20
330.5058619412088
 30
0.0
 70
    32
  0
VERTEX
  5
2B3
330
2B0
100
AcDbEntity
  8
0
 62
    18
420
        0
100
AcDbVertex
100
AcDb3dPolylineVertex
 10
326.3870130028114
 20
330.5058619412087
 30
0.0
 70
    32
  0
VERTEX
  5
2B4
330
2B0
100
AcDbEntity
  8
0
 62
    18
420
        0
100
AcDbVertex
100
AcDb3dPolylineVertex
 10
262.9310536553165
 20
330.5058619412088
 30
0.0
 70
    32
  0
SEQEND
  5
2B5
330
2B0
100
AcDbEntity
  8
Vector Layer 1
 62
    18
420
        0
370
    30
  0
POLYLINE
  5
2B6
330
1F
100
AcDbEntity
  8
Vector Layer 1
 62
    18
420
        0
370
    30
100
AcDb3dPolyline
 66
     1
 10
0.0
 20
0.0
 30
0.0
 70
     8
  0
VERTEX
  5
2B7
330
2B6
100
AcDbEntity
  8
0
 62
    18
420
        0
100
AcDbVertex
100
AcDb3dPolylineVertex
 10
458.968795154607
 20
317.7390924443006
 30
0.0
 70
    32
  0
VERTEX
  5
2B8
330
2B6
100
AcDbEntity
  8
0
 62
    18
420
        0
100
AcDbVertex
100
AcDb3dPolylineVertex
 10
428.0073527956958
 20
317.7390924443006
 30
0.0
 70
    32
  0
VERTEX
  5
2B9
330
2B6
100
AcDbEntity
  8
0
 62
    18
420
        0
100
AcDbVertex
100
AcDb3dPolylineVertex
 10
364.909220687552
 20
317.7390924443006
 30
0.0
 70
    32
  0
SEQEND
  5
2BA
330
2B6
100
AcDbEntity
  8
Vector Layer 1
 62
    18
420
        0
370
    30
  0
POLYLINE
  5
2BB
330
1F
100
AcDbEntity
  8
Vector Layer 1
 62
    18
420
        0
370
    30
100
AcDb3dPolyline
 66
     1
 10
0.0
 20
0.0
 30
0.0
 70
     8
  0
VERTEX
  5
2BC
330
2BB
100
AcDbEntity
  8
0
 62
    18
420
        0
100
AcDbVertex
100
AcDb3dPolylineVertex
 10
458.968795154607
 20
279.6465609304521
 30
0.0
 70
    32
  0
VERTEX
  5
2BD
330
2BB
100
AcDbEntity
  8
0
 62
    18
420
        0
100
AcDbVertex
100
AcDb3dPolylineVertex
 10
428.0073527956958
 20
279.6465609304521
 30
0.0
 70
    32
  0
VERTEX
  5
2BE
330
2BB
100
AcDbEntity
  8
0
 62
    18
420
        0
100
AcDbVertex
100
AcDb3dPolylineVertex
 10
364.909220687552
 20
279.6465609304521
 30
0.0
 70
    32
  0
SEQEND
  5
2BF
330
2BB
100
AcDbEntity
  8
Vector Layer 1
 62
    18
420
        0
370
    30
  0
POLYLINE
  5
2C0
330
1F
100
AcDbEntity
  8
Vector Layer 1
 62
    18
420
        0
370
    30
100
AcDb3dPolyline
 66
     1
 10
0.0
 20
0.0
 30
0.0
 70
     8
  0
VERTEX
  5
2C1
330
2C0
100
AcDbEntity
  8
0
 62
    18
420
        0
100
AcDbVertex
100
AcDb3dPolylineVertex
 10
428.0073527956958
 20
381.283222089396
 30
0.0
 70
    32
  0
VERTEX
  5
2C2
330
2C0
100
AcDbEntity
  8
0
 62
    18
420
        0
100
AcDbVertex
100
AcDb3dPolylineVertex
 10
428.0073527956958
 20
368.5983934550573
 30
0.0
 70
    32
  0
VERTEX
  5
2C3
330
2C0
100
AcDbEntity
  8
0
 62
    18
420
        0
100
AcDbVertex
100
AcDb3dPolylineVertex
 10
428.007352795696
 20
330.5058619412087
 30
0.0
 70
    32
  0
VERTEX
  5
2C4
330
2C0
100
AcDbEntity
  8
0
 62
    18
420
        0
100
AcDbVertex
100
AcDb3dPolylineVertex
 10
428.0073527956958
 20
317.7390924443006
 30
0.0
 70
    32
  0
SEQEND
  5
2C5
330
2C0
100
AcDbEntity
  8
Vector Layer 1
 62
    18
420
        0
370
    30
  0
POLYLINE
  5
2C6
330
1F
100
AcDbEntity
  8
Vector Layer 1
 62
    18
420
        0
370
    30
100
AcDb3dPolyline
 66
     1
 10
0.0
 20
0.0
 30
0.0
 70
     8
  0
VERTEX
  5
2C7
330
2C6
100
AcDbEntity
  8
0
 62
    18
420
        0
100
AcDbVertex
100
AcDb3dPolylineVertex
 10
224.408845970576
 20
381.283222089396
 30
0.0
 70
    32
  0
VERTEX
  5
2C8
330
2C6
100
AcDbEntity
  8
0
 62
    18
420
        0
100
AcDbVertex
100
AcDb3dPolylineVertex
 10
224.408845970576
 20
368.5983934550573
 30
0.0
 70
    32
  0
VERTEX
  5
2C9
330
2C6
100
AcDbEntity
  8
0
 62
    18
420
        0
100
AcDbVertex
100
AcDb3dPolylineVertex
 10
224.408845970576
 20
330.5058619412087
 30
0.0
 70
    32
  0
VERTEX
  5
2CA
330
2C6
100
AcDbEntity
  8
0
 62
    18
420
        0
100
AcDbVertex
100
AcDb3dPolylineVertex
 10
224.408845970576
 20
317.7390924443006
 30
0.0
 70
    32
  0
SEQEND
  5
2CB
330
2C6
100
AcDbEntity
  8
Vector Layer 1
 62
    18
420
        0
370
    30
  0
POLYLINE
  5
2CC
330
1F
100
AcDbEntity
  8
Vector Layer 1
 62
    18
420
        0
370
    30
100
AcDb3dPolyline
 66
     1
 10
0.0
 20
0.0
 30
0.0
 70
     8
  0
VERTEX
  5
2CD
330
2CC
100
AcDbEntity
  8
0
 62
    18
420
        0
100
AcDbVertex
100
AcDb3dPolylineVertex
 10
262.9310536553165
 20
381.283222089396
 30
0.0
 70
    32
  0
VERTEX
  5
2CE
330
2CC
100
AcDbEntity
  8
0
 62
    18
420
        0
100
AcDbVertex
100
AcDb3dPolylineVertex
 10
262.9310536553165
 20
368.5983934550574
 30
0.0
 70
    32
  0
VERTEX
  5
2CF
330
2CC
100
AcDbEntity
  8
0
 62
    18
420
        0
100
AcDbVertex
100
AcDb3dPolylineVertex
 10
262.9310536553165
 20
330.5058619412088
 30
0.0
 70
    32
  0
VERTEX
  5
2D0
330
2CC
100
AcDbEntity
  8
0
 62
    18
420
        0
100
AcDbVertex
100
AcDb3dPolylineVertex
 10
262.9310536553165
 20
317.7390924443006
 30
0.0
 70
    32
  0
SEQEND
  5
2D1
330
2CC
100
AcDbEntity
  8
Vector Layer 1
 62
    18
420
        0
370
    30
  0
POLYLINE
  5
2D2
330
1F
100
AcDbEntity
  8
Vector Layer 1
 62
    18
420
        0
370
    30
100
AcDb3dPolyline
 66
     1
 10
0.0
 20
0.0
 30
0.0
 70
     8
  0
VERTEX
  5
2D3
330
2D2
100
AcDbEntity
  8
0
 62
    18
420
        0
100
AcDbVertex
100
AcDb3dPolylineVertex
 10
326.3870130028114
 20
317.7390924443006
 30
0.0
 70
    32
  0
VERTEX
  5
2D4
330
2D2
100
AcDbEntity
  8
0
 62
    18
420
        0
100
AcDbVertex
100
AcDb3dPolylineVertex
 10
262.9310536553165
 20
317.7390924443006
 30
0.0
 70
    32
  0
VERTEX
  5
2D5
330
2D2
100
AcDbEntity
  8
0
 62
    18
420
        0
100
AcDbVertex
100
AcDb3dPolylineVertex
 10
224.408845970576
 20
317.7390924443006
 30
0.0
 70
    32
  0
VERTEX
  5
2D6
330
2D2
100
AcDbEntity
  8
0
 62
    18
420
        0
100
AcDbVertex
100
AcDb3dPolylineVertex
 10
161.6497524076978
 20
317.7390924443006
 30
0.0
 70
    32
  0
SEQEND
  5
2D7
330
2D2
100
AcDbEntity
  8
Vector Layer 1
 62
    18
420
        0
370
    30
  0
POLYLINE
  5
2D8
330
1F
100
AcDbEntity
  8
Vector Layer 1
 62
    18
420
        0
370
    30
100
AcDb3dPolyline
 66
     1
 10
0.0
 20
0.0
 30
0.0
 70
     8
  0
VERTEX
  5
2D9
330
2D8
100
AcDbEntity
  8
0
 62
    18
420
        0
100
AcDbVertex
100
AcDb3dPolylineVertex
 10
123.1275447229578
 20
317.7390924443005
 30
0.0
 70
    32
  0
VERTEX
  5
2DA
330
2D8
100
AcDbEntity
  8
0
 62
    18
420
        0
100
AcDbVertex
100
AcDb3dPolylineVertex
 10
59.64191945837227
 20
317.7390924443006
 30
0.0
 70
    32
  0
VERTEX
  5
2DB
330
2D8
100
AcDbEntity
  8
0
 62
    18
420
        0
100
AcDbVertex
100
AcDb3dPolylineVertex
 10
28.70903483247014
 20
317.7390924443006
 30
0.0
 70
    32
  0
SEQEND
  5
2DC
330
2D8
100
AcDbEntity
  8
Vector Layer 1
 62
    18
420
        0
370
    30
  0
POLYLINE
  5
2DD
330
1F
100
AcDbEntity
  8
Vector Layer 1
 62
    18
420
        0
370
    30
100
AcDb3dPolyline
 66
     1
 10
0.0
 20
0.0
 30
0.0
 70
     8
  0
VERTEX
  5
2DE
330
2DD
100
AcDbEntity
  8
0
 62
    18
420
        0
100
AcDbVertex
100
AcDb3dPolylineVertex
 10
326.3870130028114
 20
279.646560930452
 30
0.0
 70
    32
  0
VERTEX
  5
2DF
330
2DD
100
AcDbEntity
  8
0
 62
    18
420
        0
100
AcDbVertex
100
AcDb3dPolylineVertex
 10
262.9310536553165
 20
279.6465609304521
 30
0.0
 70
    32
  0
VERTEX
  5
2E0
330
2DD
100
AcDbEntity
  8
0
 62
    18
420
        0
100
AcDbVertex
100
AcDb3dPolylineVertex
 10
224.408845970576
 20
279.6465609304521
 30
0.0
 70
    32
  0
VERTEX
  5
2E1
330
2DD
100
AcDbEntity
  8
0
 62
    18
420
        0
100
AcDbVertex
100
AcDb3dPolylineVertex
 10
161.6497524076978
 20
279.6465609304521
 30
0.0
 70
    32
  0
SEQEND
  5
2E2
330
2DD
100
AcDbEntity
  8
Vector Layer 1
 62
    18
420
        0
370
    30
  0
POLYLINE
  5
2E3
330
1F
100
AcDbEntity
  8
Vector Layer 1
 62
    18
420
        0
370
    30
100
AcDb3dPolyline
 66
     1
 10
0.0
 20
0.0
 30
0.0
 70
     8
  0
VERTEX
  5
2E4
330
2E3
100
AcDbEntity
  8
0
 62
    18
420
        0
100
AcDbVertex
100
AcDb3dPolylineVertex
 10
123.1275447229578
 20
279.6465609304521
 30
0.0
 70
    32
  0
VERTEX
  5
2E5
330
2E3
100
AcDbEntity
  8
0
 62
    18
420
        0
100
AcDbVertex
100
AcDb3dPolylineVertex
 10
59.64191945837227
 20
279.6465609304521
 30
0.0
 70
    32
  0
VERTEX
  5
2E6
330
2E3
100
AcDbEntity
  8
0
 62
    18
420
        0
100
AcDbVertex
100
AcDb3dPolylineVertex
 10
28.70903483247014
 20
279.6465609304521
 30
0.0
 70
    32
  0
SEQEND
  5
2E7
330
2E3
100
AcDbEntity
  8
Vector Layer 1
 62
    18
420
        0
370
    30
  0
POLYLINE
  5
2E8
330
1F
100
AcDbEntity
  8
Vector Layer 1
 62
    18
420
        0
370
    30
100
AcDb3dPolyline
 66
     1
 10
0.0
 20
0.0
 30
0.0
 70
     8
  0
VERTEX
  5
2E9
330
2E8
100
AcDbEntity
  8
0
 62
    18
420
        0
100
AcDbVertex
100
AcDb3dPolylineVertex
 10
123.1275447229578
 20
330.5058619412087
 30
0.0
 70
    32
  0
VERTEX
  5
2EA
330
2E8
100
AcDbEntity
  8
0
 62
    18
420
        0
100
AcDbVertex
100
AcDb3dPolylineVertex
 10
123.1275447229578
 20
317.7390924443005
 30
0.0
 70
    32
  0
VERTEX
  5
2EB
330
2E8
100
AcDbEntity
  8
0
 62
    18
420
        0
100
AcDbVertex
100
AcDb3dPolylineVertex
 10
123.1275447229578
 20
279.646560930452
 30
0.0
 70
    32
  0
VERTEX
  5
2EC
330
2E8
100
AcDbEntity
  8
0
 62
    18
420
        0
100
AcDbVertex
100
AcDb3dPolylineVertex
 10
123.1275447229578
 20
266.9004347045895
 30
0.0
 70
    32
  0
SEQEND
  5
2ED
330
2E8
100
AcDbEntity
  8
Vector Layer 1
 62
    18
420
        0
370
    30
  0
POLYLINE
  5
2EE
330
1F
100
AcDbEntity
  8
Vector Layer 1
 62
    18
420
        0
370
    30
100
AcDb3dPolyline
 66
     1
 10
0.0
 20
0.0
 30
0.0
 70
     8
  0
VERTEX
  5
2EF
330
2EE
100
AcDbEntity
  8
0
 62
    18
420
        0
100
AcDbVertex
100
AcDb3dPolylineVertex
 10
161.6497524076977
 20
330.5058619412087
 30
0.0
 70
    32
  0
VERTEX
  5
2F0
330
2EE
100
AcDbEntity
  8
0
 62
    18
420
        0
100
AcDbVertex
100
AcDb3dPolylineVertex
 10
161.6497524076977
 20
317.7390924443006
 30
0.0
 70
    32
  0
VERTEX
  5
2F1
330
2EE
100
AcDbEntity
  8
0
 62
    18
420
        0
100
AcDbVertex
100
AcDb3dPolylineVertex
 10
161.6497524076977
 20
279.6465609304521
 30
0.0
 70
    32
  0
VERTEX
  5
2F2
330
2EE
100
AcDbEntity
  8
0
 62
    18
420
        0
100
AcDbVertex
100
AcDb3dPolylineVertex
 10
161.6497524076977
 20
266.9004347045895
 30
0.0
 70
    32
  0
SEQEND
  5
2F3
330
2EE
100
AcDbEntity
  8
Vector Layer 1
 62
    18
420
        0
370
    30
  0
POLYLINE
  5
2F4
330
1F
100
AcDbEntity
  8
Vector Layer 1
 62
    18
420
        0
370
    30
100
AcDb3dPolyline
 66
     1
 10
0.0
 20
0.0
 30
0.0
 70
     8
  0
VERTEX
  5
2F5
330
2F4
100
AcDbEntity
  8
0
 62
    18
420
        0
100
AcDbVertex
100
AcDb3dPolylineVertex
 10
224.408845970576
 20
266.9004347045895
 30
0.0
 70
    32
  0
VERTEX
  5
2F6
330
2F4
100
AcDbEntity
  8
0
 62
    18
420
        0
100
AcDbVertex
100
AcDb3dPolylineVertex
 10
161.6497524076978
 20
266.9004347045895
 30
0.0
 70
    32
  0
VERTEX
  5
2F7
330
2F4
100
AcDbEntity
  8
0
 62
    18
420
        0
100
AcDbVertex
100
AcDb3dPolylineVertex
 10
123.1275447229578
 20
266.9004347045895
 30
0.0
 70
    32
  0
VERTEX
  5
2F8
330
2F4
100
AcDbEntity
  8
0
 62
    18
420
        0
100
AcDbVertex
100
AcDb3dPolylineVertex
 10
59.64191945837227
 20
266.9004347045895
 30
0.0
 70
    32
  0
SEQEND
  5
2F9
330
2F4
100
AcDbEntity
  8
Vector Layer 1
 62
    18
420
        0
370
    30
  0
POLYLINE
  5
2FA
330
1F
100
AcDbEntity
  8
Vector Layer 1
 62
    18
420
        0
370
    30
100
AcDb3dPolyline
 66
     1
 10
0.0
 20
0.0
 30
0.0
 70
     8
  0
VERTEX
  5
2FB
330
2FA
100
AcDbEntity
  8
0
 62
    18
420
        0
100
AcDbVertex
100
AcDb3dPolylineVertex
 10
224.408845970576
 20
228.8079031907417
 30
0.0
 70
    32
  0
VERTEX
  5
2FC
330
2FA
100
AcDbEntity
  8
0
 62
    18
420
        0
100
AcDbVertex
100
AcDb3dPolylineVertex
 10
161.6497524076978
 20
228.8079031907417
 30
0.0
 70
    32
  0
VERTEX
  5
2FD
330
2FA
100
AcDbEntity
  8
0
 62
    18
420
        0
100
AcDbVertex
100
AcDb3dPolylineVertex
 10
123.1275447229578
 20
228.8079031907417
 30
0.0
 70
    32
  0
VERTEX
  5
2FE
330
2FA
100
AcDbEntity
  8
0
 62
    18
420
        0
100
AcDbVertex
100
AcDb3dPolylineVertex
 10
59.64191945837227
 20
228.8079031907417
 30
0.0
 70
    32
  0
SEQEND
  5
2FF
330
2FA
100
AcDbEntity
  8
Vector Layer 1
 62
    18
420
        0
370
    30
  0
POLYLINE
  5
300
330
1F
100
AcDbEntity
  8
Vector Layer 1
 62
    18
420
        0
370
    30
100
AcDb3dPolyline
 66
     1
 10
0.0
 20
0.0
 30
0.0
 70
     8
  0
VERTEX
  5
301
330
300
100
AcDbEntity
  8
0
 62
    18
420
        0
100
AcDbVertex
100
AcDb3dPolylineVertex
 10
326.3870130028114
 20
330.5058619412087
 30
0.0
 70
    32
  0
VERTEX
  5
302
330
300
100
AcDbEntity
  8
0
 62
    18
420
        0
100
AcDbVertex
100
AcDb3dPolylineVertex
 10
326.3870130028114
 20
317.7390924443006
 30
0.0
 70
    32
  0
VERTEX
  5
303
330
300
100
AcDbEntity
  8
0
 62
    18
420
        0
100
AcDbVertex
100
AcDb3dPolylineVertex
 10
326.3870130028114
 20
279.646560930452
 30
0.0
 70
    32
  0
VERTEX
  5
304
330
300
100
AcDbEntity
  8
0
 62
    18
420
        0
100
AcDbVertex
100
AcDb3dPolylineVertex
 10
326.3870130028114
 20
266.9004347045895
 30
0.0
 70
    32
  0
SEQEND
  5
305
330
300
100
AcDbEntity
  8
Vector Layer 1
 62
    18
420
        0
370
    30
  0
POLYLINE
  5
306
330
1F
100
AcDbEntity
  8
Vector Layer 1
 62
    18
420
        0
370
    30
100
AcDb3dPolyline
 66
     1
 10
0.0
 20
0.0
 30
0.0
 70
     8
  0
VERTEX
  5
307
330
306
100
AcDbEntity
  8
0
 62
    18
420
        0
100
AcDbVertex
100
AcDb3dPolylineVertex
 10
364.9092206875519
 20
330.5058619412088
 30
0.0
 70
    32
  0
VERTEX
  5
308
330
306
100
AcDbEntity
  8
0
 62
    18
420
        0
100
AcDbVertex
100
AcDb3dPolylineVertex
 10
364.909220687552
 20
317.7390924443006
 30
0.0
 70
    32
  0
VERTEX
  5
309
330
306
100
AcDbEntity
  8
0
 62
    18
420
        0
100
AcDbVertex
100
AcDb3dPolylineVertex
 10
364.909220687552
 20
279.6465609304521
 30
0.0
 70
    32
  0
VERTEX
  5
30A
330
306
100
AcDbEntity
  8
0
 62
    18
420
        0
100
AcDbVertex
100
AcDb3dPolylineVertex
 10
364.909220687552
 20
266.9004347045895
 30
0.0
 70
    32
  0
SEQEND
  5
30B
330
306
100
AcDbEntity
  8
Vector Layer 1
 62
    18
420
        0
370
    30
  0
POLYLINE
  5
30C
330
1F
100
AcDbEntity
  8
Vector Layer 1
 62
    18
420
        0
370
    30
100
AcDb3dPolyline
 66
     1
 10
0.0
 20
0.0
 30
0.0
 70
     8
  0
VERTEX
  5
30D
330
30C
100
AcDbEntity
  8
0
 62
    18
420
        0
100
AcDbVertex
100
AcDb3dPolylineVertex
 10
428.0073527956958
 20
266.9004347045896
 30
0.0
 70
    32
  0
VERTEX
  5
30E
330
30C
100
AcDbEntity
  8
0
 62
    18
420
        0
100
AcDbVertex
100
AcDb3dPolylineVertex
 10
364.909220687552
 20
266.9004347045895
 30
0.0
 70
    32
  0
VERTEX
  5
30F
330
30C
100
AcDbEntity
  8
0
 62
    18
420
        0
100
AcDbVertex
100
AcDb3dPolylineVertex
 10
326.3870130028114
 20
266.9004347045895
 30
0.0
 70
    32
  0
VERTEX
  5
310
330
30C
100
AcDbEntity
  8
0
 62
    18
420
        0
100
AcDbVertex
100
AcDb3dPolylineVertex
 10
262.9310536553165
 20
266.9004347045895
 30
0.0
 70
    32
  0
SEQEND
  5
311
330
30C
100
AcDbEntity
  8
Vector Layer 1
 62
    18
420
        0
370
    30
  0
POLYLINE
  5
312
330
1F
100
AcDbEntity
  8
Vector Layer 1
 62
    18
420
        0
370
    30
100
AcDb3dPolyline
 66
     1
 10
0.0
 20
0.0
 30
0.0
 70
     8
  0
VERTEX
  5
313
330
312
100
AcDbEntity
  8
0
 62
    18
420
        0
100
AcDbVertex
100
AcDb3dPolylineVertex
 10
428.0073527956958
 20
228.8079031907417
 30
0.0
 70
    32
  0
VERTEX
  5
314
330
312
100
AcDbEntity
  8
0
 62
    18
420
        0
100
AcDbVertex
100
AcDb3dPolylineVertex
 10
364.909220687552
 20
228.8079031907417
 30
0.0
 70
    32
  0
VERTEX
  5
315
330
312
100
AcDbEntity
  8
0
 62
    18
420
        0
100
AcDbVertex
100
AcDb3dPolylineVertex
 10
326.3870130028114
 20
228.8079031907417
 30
0.0
 70
    32
  0
VERTEX
  5
316
330
312
100
AcDbEntity
  8
0
 62
    18
420
        0
100
AcDbVertex
100
AcDb3dPolylineVertex
 10
262.9310536553165
 20
228.8079031907417
 30
0.0
 70
    32
  0
SEQEND
  5
317
330
312
100
AcDbEntity
  8
Vector Layer 1
 62
    18
420
        0
370
    30
  0
POLYLINE
  5
318
330
1F
100
AcDbEntity
  8
Vector Layer 1
 62
    18
420
        0
370
    30
100
AcDb3dPolyline
 66
     1
 10
0.0
 20
0.0
 30
0.0
 70
     8
  0
VERTEX
  5
319
330
318
100
AcDbEntity
  8
0
 62
    18
420
        0
100
AcDbVertex
100
AcDb3dPolylineVertex
 10
428.0073527956958
 20
279.6465609304521
 30
0.0
 70
    32
  0
VERTEX
  5
31A
330
318
100
AcDbEntity
  8
0
 62
    18
420
        0
100
AcDbVertex
100
AcDb3dPolylineVertex
 10
428.0073527956958
 20
266.9004347045895
 30
0.0
 70
    32
  0
VERTEX
  5
31B
330
318
100
AcDbEntity
  8
0
 62
    18
420
        0
100
AcDbVertex
100
AcDb3dPolylineVertex
 10
428.0073527956958
 20
228.8079031907417
 30
0.0
 70
    32
  0
VERTEX
  5
31C
330
318
100
AcDbEntity
  8
0
 62
    18
420
        0
100
AcDbVertex
100
AcDb3dPolylineVertex
 10
428.0073527956958
 20
216.123074556403
 30
0.0
 70
    32
  0
SEQEND
  5
31D
330
318
100
AcDbEntity
  8
Vector Layer 1
 62
    18
420
        0
370
    30
  0
POLYLINE
  5
31E
330
1F
100
AcDbEntity
  8
Vector Layer 1
 62
    18
420
        0
370
    30
100
AcDb3dPolyline
 66
     1
 10
0.0
 20
0.0
 30
0.0
 70
     8
  0
VERTEX
  5
31F
330
31E
100
AcDbEntity
  8
0
 62
    18
420
        0
100
AcDbVertex
100
AcDb3dPolylineVertex
 10
364.9092206875519
 20
228.8079031907417
 30
0.0
 70
    32
  0
VERTEX
  5
320
330
31E
100
AcDbEntity
  8
0
 62
    18
420
        0
100
AcDbVertex
100
AcDb3dPolylineVertex
 10
364.909220687552
 20
216.123074556403
 30
0.0
 70
    32
  0
VERTEX
  5
321
330
31E
100
AcDbEntity
  8
0
 62
    18
420
        0
100
AcDbVertex
100
AcDb3dPolylineVertex
 10
364.909220687552
 20
178.0305430425547
 30
0.0
 70
    32
  0
VERTEX
  5
322
330
31E
100
AcDbEntity
  8
0
 62
    18
420
        0
100
AcDbVertex
100
AcDb3dPolylineVertex
 10
364.9092206875519
 20
165.2637735456465
 30
0.0
 70
    32
  0
SEQEND
  5
323
330
31E
100
AcDbEntity
  8
Vector Layer 1
 62
    18
420
        0
370
    30
  0
POLYLINE
  5
324
330
1F
100
AcDbEntity
  8
Vector Layer 1
 62
    18
420
        0
370
    30
100
AcDb3dPolyline
 66
     1
 10
0.0
 20
0.0
 30
0.0
 70
     8
  0
VERTEX
  5
325
330
324
100
AcDbEntity
  8
0
 62
    18
420
        0
100
AcDbVertex
100
AcDb3dPolylineVertex
 10
364.909220687552
 20
127.171242031798
 30
0.0
 70
    32
  0
VERTEX
  5
326
330
324
100
AcDbEntity
  8
0
 62
    18
420
        0
100
AcDbVertex
100
AcDb3dPolylineVertex
 10
364.909220687552
 20
114.4921189518601
 30
0.0
 70
    32
  0
VERTEX
  5
327
330
324
100
AcDbEntity
  8
0
 62
    18
420
        0
100
AcDbVertex
100
AcDb3dPolylineVertex
 10
364.909220687552
 20
79.13873979705205
 30
0.0
 70
    32
  0
SEQEND
  5
328
330
324
100
AcDbEntity
  8
Vector Layer 1
 62
    18
420
        0
370
    30
  0
POLYLINE
  5
329
330
1F
100
AcDbEntity
  8
Vector Layer 1
 62
    18
420
        0
370
    30
100
AcDb3dPolyline
 66
     1
 10
0.0
 20
0.0
 30
0.0
 70
     8
  0
VERTEX
  5
32A
330
329
100
AcDbEntity
  8
0
 62
    18
420
        0
100
AcDbVertex
100
AcDb3dPolylineVertex
 10
326.3870130028114
 20
228.8079031907417
 30
0.0
 70
    32
  0
VERTEX
  5
32B
330
329
100
AcDbEntity
  8
0
 62
    18
420
        0
100
AcDbVertex
100
AcDb3dPolylineVertex
 10
326.3870130028115
 20
216.123074556403
 30
0.0
 70
    32
  0
VERTEX
  5
32C
330
329
100
AcDbEntity
  8
0
 62
    18
420
        0
100
AcDbVertex
100
AcDb3dPolylineVertex
 10
326.3870130028115
 20
178.0305430425546
 30
0.0
 70
    32
  0
VERTEX
  5
32D
330
329
100
AcDbEntity
  8
0
 62
    18
420
        0
100
AcDbVertex
100
AcDb3dPolylineVertex
 10
326.3870130028114
 20
165.2637735456466
 30
0.0
 70
    32
  0
SEQEND
  5
32E
330
329
100
AcDbEntity
  8
Vector Layer 1
 62
    18
420
        0
370
    30
  0
POLYLINE
  5
32F
330
1F
100
AcDbEntity
  8
Vector Layer 1
 62
    18
420
        0
370
    30
100
AcDb3dPolyline
 66
     1
 10
0.0
 20
0.0
 30
0.0
 70
     8
  0
VERTEX
  5
330
330
32F
100
AcDbEntity
  8
0
 62
    18
420
        0
100
AcDbVertex
100
AcDb3dPolylineVertex
 10
326.3870130028114
 20
127.171242031798
 30
0.0
 70
    32
  0
VERTEX
  5
331
330
32F
100
AcDbEntity
  8
0
 62
    18
420
        0
100
AcDbVertex
100
AcDb3dPolylineVertex
 10
326.3870130028114
 20
114.4921189518601
 30
0.0
 70
    32
  0
VERTEX
  5
332
330
32F
100
AcDbEntity
  8
0
 62
    18
420
        0
100
AcDbVertex
100
AcDb3dPolylineVertex
 10
326.3870130028114
 20
79.13873979705205
 30
0.0
 70
    32
  0
SEQEND
  5
333
330
32F
100
AcDbEntity
  8
Vector Layer 1
 62
    18
420
        0
370
    30
  0
POLYLINE
  5
334
330
1F
100
AcDbEntity
  8
Vector Layer 1
 62
    18
420
        0
370
    30
100
AcDb3dPolyline
 66
     1
 10
0.0
 20
0.0
 30
0.0
 70
     8
  0
VERTEX
  5
335
330
334
100
AcDbEntity
  8
0
 62
    18
420
        0
100
AcDbVertex
100
AcDb3dPolylineVertex
 10
458.968795154607
 20
178.0305430425547
 30
0.0
 70
    32
  0
VERTEX
  5
336
330
334
100
AcDbEntity
  8
0
 62
    18
420
        0
100
AcDbVertex
100
AcDb3dPolylineVertex
 10
428.0073527956958
 20
178.0305430425547
 30
0.0
 70
    32
  0
VERTEX
  5
337
330
334
100
AcDbEntity
  8
0
 62
    18
420
        0
100
AcDbVertex
100
AcDb3dPolylineVertex
 10
364.909220687552
 20
178.0305430425547
 30
0.0
 70
    32
  0
SEQEND
  5
338
330
334
100
AcDbEntity
  8
Vector Layer 1
 62
    18
420
        0
370
    30
  0
POLYLINE
  5
339
330
1F
100
AcDbEntity
  8
Vector Layer 1
 62
    18
420
        0
370
    30
100
AcDb3dPolyline
 66
     1
 10
0.0
 20
0.0
 30
0.0
 70
     8
  0
VERTEX
  5
33A
330
339
100
AcDbEntity
  8
0
 62
    18
420
        0
100
AcDbVertex
100
AcDb3dPolylineVertex
 10
458.968795154607
 20
216.123074556403
 30
0.0
 70
    32
  0
VERTEX
  5
33B
330
339
100
AcDbEntity
  8
0
 62
    18
420
        0
100
AcDbVertex
100
AcDb3dPolylineVertex
 10
428.0073527956958
 20
216.123074556403
 30
0.0
 70
    32
  0
VERTEX
  5
33C
330
339
100
AcDbEntity
  8
0
 62
    18
420
        0
100
AcDbVertex
100
AcDb3dPolylineVertex
 10
364.909220687552
 20
216.123074556403
 30
0.0
 70
    32
  0
SEQEND
  5
33D
330
339
100
AcDbEntity
  8
Vector Layer 1
 62
    18
420
        0
370
    30
  0
POLYLINE
  5
33E
330
1F
100
AcDbEntity
  8
Vector Layer 1
 62
    18
420
        0
370
    30
100
AcDb3dPolyline
 66
     1
 10
0.0
 20
0.0
 30
0.0
 70
     8
  0
VERTEX
  5
33F
330
33E
100
AcDbEntity
  8
0
 62
    18
420
        0
100
AcDbVertex
100
AcDb3dPolylineVertex
 10
458.968795154607
 20
114.4921189518601
 30
0.0
 70
    32
  0
VERTEX
  5
340
330
33E
100
AcDbEntity
  8
0
 62
    18
420
        0
100
AcDbVertex
100
AcDb3dPolylineVertex
 10
428.0073527956958
 20
114.4921189518601
 30
0.0
 70
    32
  0
VERTEX
  5
341
330
33E
100
AcDbEntity
  8
0
 62
    18
420
        0
100
AcDbVertex
100
AcDb3dPolylineVertex
 10
364.909220687552
 20
114.4921189518601
 30
0.0
 70
    32
  0
SEQEND
  5
342
330
33E
100
AcDbEntity
  8
Vector Layer 1
 62
    18
420
        0
370
    30
  0
POLYLINE
  5
343
330
1F
100
AcDbEntity
  8
Vector Layer 1
 62
    18
420
        0
370
    30
100
AcDb3dPolyline
 66
     1
 10
0.0
 20
0.0
 30
0.0
 70
     8
  0
VERTEX
  5
344
330
343
100
AcDbEntity
  8
0
 62
    18
420
        0
100
AcDbVertex
100
AcDb3dPolylineVertex
 10
428.0073527956958
 20
178.0305430425546
 30
0.0
 70
    32
  0
VERTEX
  5
345
330
343
100
AcDbEntity
  8
0
 62
    18
420
        0
100
AcDbVertex
100
AcDb3dPolylineVertex
 10
428.0073527956958
 20
165.2637735456466
 30
0.0
 70
    32
  0
VERTEX
  5
346
330
343
100
AcDbEntity
  8
0
 62
    18
420
        0
100
AcDbVertex
100
AcDb3dPolylineVertex
 10
428.0073527956958
 20
127.171242031798
 30
0.0
 70
    32
  0
VERTEX
  5
347
330
343
100
AcDbEntity
  8
0
 62
    18
420
        0
100
AcDbVertex
100
AcDb3dPolylineVertex
 10
428.0073527956958
 20
114.4921189518601
 30
0.0
 70
    32
  0
SEQEND
  5
348
330
343
100
AcDbEntity
  8
Vector Layer 1
 62
    18
420
        0
370
    30
  0
POLYLINE
  5
349
330
1F
100
AcDbEntity
  8
Vector Layer 1
 62
    18
420
        0
370
    30
100
AcDb3dPolyline
 66
     1
 10
0.0
 20
0.0
 30
0.0
 70
     8
  0
VERTEX
  5
34A
330
349
100
AcDbEntity
  8
0
 62
    18
420
        0
100
AcDbVertex
100
AcDb3dPolylineVertex
 10
428.0073527956958
 20
127.171242031798
 30
0.0
 70
    32
  0
VERTEX
  5
34B
330
349
100
AcDbEntity
  8
0
 62
    18
420
        0
100
AcDbVertex
100
AcDb3dPolylineVertex
 10
364.909220687552
 20
127.171242031798
 30
0.0
 70
    32
  0
VERTEX
  5
34C
330
349
100
AcDbEntity
  8
0
 62
    18
420
        0
100
AcDbVertex
100
AcDb3dPolylineVertex
 10
326.3870130028114
 20
127.171242031798
 30
0.0
 70
    32
  0
VERTEX
  5
34D
330
349
100
AcDbEntity
  8
0
 62
    18
420
        0
100
AcDbVertex
100
AcDb3dPolylineVertex
 10
262.9310536553165
 20
127.171242031798
 30
0.0
 70
    32
  0
SEQEND
  5
34E
330
349
100
AcDbEntity
  8
Vector Layer 1
 62
    18
420
        0
370
    30
  0
POLYLINE
  5
34F
330
1F
100
AcDbEntity
  8
Vector Layer 1
 62
    18
420
        0
370
    30
100
AcDb3dPolyline
 66
     1
 10
0.0
 20
0.0
 30
0.0
 70
     8
  0
VERTEX
  5
350
330
34F
100
AcDbEntity
  8
0
 62
    18
420
        0
100
AcDbVertex
100
AcDb3dPolylineVertex
 10
428.0073527956958
 20
165.2637735456466
 30
0.0
 70
    32
  0
VERTEX
  5
351
330
34F
100
AcDbEntity
  8
0
 62
    18
420
        0
100
AcDbVertex
100
AcDb3dPolylineVertex
 10
364.909220687552
 20
165.2637735456466
 30
0.0
 70
    32
  0
VERTEX
  5
352
330
34F
100
AcDbEntity
  8
0
 62
    18
420
        0
100
AcDbVertex
100
AcDb3dPolylineVertex
 10
326.3870130028114
 20
165.2637735456466
 30
0.0
 70
    32
  0
VERTEX
  5
353
330
34F
100
AcDbEntity
  8
0
 62
    18
420
        0
100
AcDbVertex
100
AcDb3dPolylineVertex
 10
262.9310536553165
 20
165.2637735456466
 30
0.0
 70
    32
  0
SEQEND
  5
354
330
34F
100
AcDbEntity
  8
Vector Layer 1
 62
    18
420
        0
370
    30
  0
POLYLINE
  5
355
330
1F
100
AcDbEntity
  8
Vector Layer 1
 62
    18
420
        0
370
    30
100
AcDb3dPolyline
 66
     1
 10
0.0
 20
0.0
 30
0.0
 70
     8
  0
VERTEX
  5
356
330
355
100
AcDbEntity
  8
0
 62
    18
420
        0
100
AcDbVertex
100
AcDb3dPolylineVertex
 10
262.9310536553165
 20
279.6465609304521
 30
0.0
 70
    32
  0
VERTEX
  5
357
330
355
100
AcDbEntity
  8
0
 62
    18
420
        0
100
AcDbVertex
100
AcDb3dPolylineVertex
 10
262.9310536553165
 20
266.9004347045895
 30
0.0
 70
    32
  0
VERTEX
  5
358
330
355
100
AcDbEntity
  8
0
 62
    18
420
        0
100
AcDbVertex
100
AcDb3dPolylineVertex
 10
262.9310536553165
 20
228.8079031907417
 30
0.0
 70
    32
  0
VERTEX
  5
359
330
355
100
AcDbEntity
  8
0
 62
    18
420
        0
100
AcDbVertex
100
AcDb3dPolylineVertex
 10
262.9310536553165
 20
216.123074556403
 30
0.0
 70
    32
  0
SEQEND
  5
35A
330
355
100
AcDbEntity
  8
Vector Layer 1
 62
    18
420
        0
370
    30
  0
POLYLINE
  5
35B
330
1F
100
AcDbEntity
  8
Vector Layer 1
 62
    18
420
        0
370
    30
100
AcDb3dPolyline
 66
     1
 10
0.0
 20
0.0
 30
0.0
 70
     8
  0
VERTEX
  5
35C
330
35B
100
AcDbEntity
  8
0
 62
    18
420
        0
100
AcDbVertex
100
AcDb3dPolylineVertex
 10
262.9310536553165
 20
178.0305430425546
 30
0.0
 70
    32
  0
VERTEX
  5
35D
330
35B
100
AcDbEntity
  8
0
 62
    18
420
        0
100
AcDbVertex
100
AcDb3dPolylineVertex
 10
262.9310536553165
 20
165.2637735456466
 30
0.0
 70
    32
  0
VERTEX
  5
35E
330
35B
100
AcDbEntity
  8
0
 62
    18
420
        0
100
AcDbVertex
100
AcDb3dPolylineVertex
 10
262.9310536553165
 20
127.171242031798
 30
0.0
 70
    32
  0
VERTEX
  5
35F
330
35B
100
AcDbEntity
  8
0
 62
    18
420
        0
100
AcDbVertex
100
AcDb3dPolylineVertex
 10
262.9310536553165
 20
114.4921189518601
 30
0.0
 70
    32
  0
SEQEND
  5
360
330
35B
100
AcDbEntity
  8
Vector Layer 1
 62
    18
420
        0
370
    30
  0
POLYLINE
  5
361
330
1F
100
AcDbEntity
  8
Vector Layer 1
 62
    18
420
        0
370
    30
100
AcDb3dPolyline
 66
     1
 10
0.0
 20
0.0
 30
0.0
 70
     8
  0
VERTEX
  5
362
330
361
100
AcDbEntity
  8
0
 62
    18
420
        0
100
AcDbVertex
100
AcDb3dPolylineVertex
 10
224.408845970576
 20
279.6465609304521
 30
0.0
 70
    32
  0
VERTEX
  5
363
330
361
100
AcDbEntity
  8
0
 62
    18
420
        0
100
AcDbVertex
100
AcDb3dPolylineVertex
 10
224.408845970576
 20
266.9004347045895
 30
0.0
 70
    32
  0
VERTEX
  5
364
330
361
100
AcDbEntity
  8
0
 62
    18
420
        0
100
AcDbVertex
100
AcDb3dPolylineVertex
 10
224.408845970576
 20
228.8079031907417
 30
0.0
 70
    32
  0
VERTEX
  5
365
330
361
100
AcDbEntity
  8
0
 62
    18
420
        0
100
AcDbVertex
100
AcDb3dPolylineVertex
 10
224.408845970576
 20
216.123074556403
 30
0.0
 70
    32
  0
SEQEND
  5
366
330
361
100
AcDbEntity
  8
Vector Layer 1
 62
    18
420
        0
370
    30
  0
POLYLINE
  5
367
330
1F
100
AcDbEntity
  8
Vector Layer 1
 62
    18
420
        0
370
    30
100
AcDb3dPolyline
 66
     1
 10
0.0
 20
0.0
 30
0.0
 70
     8
  0
VERTEX
  5
368
330
367
100
AcDbEntity
  8
0
 62
    18
420
        0
100
AcDbVertex
100
AcDb3dPolylineVertex
 10
224.408845970576
 20
178.0305430425546
 30
0.0
 70
    32
  0
VERTEX
  5
369
330
367
100
AcDbEntity
  8
0
 62
    18
420
        0
100
AcDbVertex
100
AcDb3dPolylineVertex
 10
224.408845970576
 20
165.2637735456466
 30
0.0
 70
    32
  0
VERTEX
  5
36A
330
367
100
AcDbEntity
  8
0
 62
    18
420
        0
100
AcDbVertex
100
AcDb3dPolylineVertex
 10
224.408845970576
 20
127.1712420317979
 30
0.0
 70
    32
  0
VERTEX
  5
36B
330
367
100
AcDbEntity
  8
0
 62
    18
420
        0
100
AcDbVertex
100
AcDb3dPolylineVertex
 10
224.408845970576
 20
114.4921189518601
 30
0.0
 70
    32
  0
SEQEND
  5
36C
330
367
100
AcDbEntity
  8
Vector Layer 1
 62
    18
420
        0
370
    30
  0
POLYLINE
  5
36D
330
1F
100
AcDbEntity
  8
Vector Layer 1
 62
    18
420
        0
370
    30
100
AcDb3dPolyline
 66
     1
 10
0.0
 20
0.0
 30
0.0
 70
     8
  0
VERTEX
  5
36E
330
36D
100
AcDbEntity
  8
0
 62
    18
420
        0
100
AcDbVertex
100
AcDb3dPolylineVertex
 10
161.6497524076977
 20
228.8079031907417
 30
0.0
 70
    32
  0
VERTEX
  5
36F
330
36D
100
AcDbEntity
  8
0
 62
    18
420
        0
100
AcDbVertex
100
AcDb3dPolylineVertex
 10
161.6497524076977
 20
216.123074556403
 30
0.0
 70
    32
  0
VERTEX
  5
370
330
36D
100
AcDbEntity
  8
0
 62
    18
420
        0
100
AcDbVertex
100
AcDb3dPolylineVertex
 10
161.6497524076977
 20
178.0305430425547
 30
0.0
 70
    32
  0
VERTEX
  5
371
330
36D
100
AcDbEntity
  8
0
 62
    18
420
        0
100
AcDbVertex
100
AcDb3dPolylineVertex
 10
161.6497524076977
 20
165.2637735456466
 30
0.0
 70
    32
  0
SEQEND
  5
372
330
36D
100
AcDbEntity
  8
Vector Layer 1
 62
    18
420
        0
370
    30
  0
POLYLINE
  5
373
330
1F
100
AcDbEntity
  8
Vector Layer 1
 62
    18
420
        0
370
    30
100
AcDb3dPolyline
 66
     1
 10
0.0
 20
0.0
 30
0.0
 70
     8
  0
VERTEX
  5
374
330
373
100
AcDbEntity
  8
0
 62
    18
420
        0
100
AcDbVertex
100
AcDb3dPolylineVertex
 10
161.6497524076977
 20
127.1712420317979
 30
0.0
 70
    32
  0
VERTEX
  5
375
330
373
100
AcDbEntity
  8
0
 62
    18
420
        0
100
AcDbVertex
100
AcDb3dPolylineVertex
 10
161.6497524076977
 20
114.4921189518601
 30
0.0
 70
    32
  0
VERTEX
  5
376
330
373
100
AcDbEntity
  8
0
 62
    18
420
        0
100
AcDbVertex
100
AcDb3dPolylineVertex
 10
161.6497524076977
 20
79.13873979705205
 30
0.0
 70
    32
  0
SEQEND
  5
377
330
373
100
AcDbEntity
  8
Vector Layer 1
 62
    18
420
        0
370
    30
  0
POLYLINE
  5
378
330
1F
100
AcDbEntity
  8
Vector Layer 1
 62
    18
420
        0
370
    30
100
AcDb3dPolyline
 66
     1
 10
0.0
 20
0.0
 30
0.0
 70
     8
  0
VERTEX
  5
379
330
378
100
AcDbEntity
  8
0
 62
    18
420
        0
100
AcDbVertex
100
AcDb3dPolylineVertex
 10
123.1275447229578
 20
228.8079031907417
 30
0.0
 70
    32
  0
VERTEX
  5
37A
330
378
100
AcDbEntity
  8
0
 62
    18
420
        0
100
AcDbVertex
100
AcDb3dPolylineVertex
 10
123.1275447229578
 20
216.123074556403
 30
0.0
 70
    32
  0
VERTEX
  5
37B
330
378
100
AcDbEntity
  8
0
 62
    18
420
        0
100
AcDbVertex
100
AcDb3dPolylineVertex
 10
123.1275447229578
 20
178.0305430425546
 30
0.0
 70
    32
  0
VERTEX
  5
37C
330
378
100
AcDbEntity
  8
0
 62
    18
420
        0
100
AcDbVertex
100
AcDb3dPolylineVertex
 10
123.1275447229578
 20
165.2637735456465
 30
0.0
 70
    32
  0
SEQEND
  5
37D
330
378
100
AcDbEntity
  8
Vector Layer 1
 62
    18
420
        0
370
    30
  0
POLYLINE
  5
37E
330
1F
100
AcDbEntity
  8
Vector Layer 1
 62
    18
420
        0
370
    30
100
AcDb3dPolyline
 66
     1
 10
0.0
 20
0.0
 30
0.0
 70
     8
  0
VERTEX
  5
37F
330
37E
100
AcDbEntity
  8
0
 62
    18
420
        0
100
AcDbVertex
100
AcDb3dPolylineVertex
 10
123.1275447229578
 20
127.171242031798
 30
0.0
 70
    32
  0
VERTEX
  5
380
330
37E
100
AcDbEntity
  8
0
 62
    18
420
        0
100
AcDbVertex
100
AcDb3dPolylineVertex
 10
123.1275447229578
 20
114.4921189518601
 30
0.0
 70
    32
  0
VERTEX
  5
381
330
37E
100
AcDbEntity
  8
0
 62
    18
420
        0
100
AcDbVertex
100
AcDb3dPolylineVertex
 10
123.1275447229578
 20
79.13873979705205
 30
0.0
 70
    32
  0
SEQEND
  5
382
330
37E
100
AcDbEntity
  8
Vector Layer 1
 62
    18
420
        0
370
    30
  0
POLYLINE
  5
383
330
1F
100
AcDbEntity
  8
Vector Layer 1
 62
    18
420
        0
370
    30
100
AcDb3dPolyline
 66
     1
 10
0.0
 20
0.0
 30
0.0
 70
     8
  0
VERTEX
  5
384
330
383
100
AcDbEntity
  8
0
 62
    18
420
        0
100
AcDbVertex
100
AcDb3dPolylineVertex
 10
326.3870130028114
 20
114.4921189518601
 30
0.0
 70
    32
  0
VERTEX
  5
385
330
383
100
AcDbEntity
  8
0
 62
    18
420
        0
100
AcDbVertex
100
AcDb3dPolylineVertex
 10
262.9310536553165
 20
114.4921189518601
 30
0.0
 70
    32
  0
VERTEX
  5
386
330
383
100
AcDbEntity
  8
0
 62
    18
420
        0
100
AcDbVertex
100
AcDb3dPolylineVertex
 10
224.408845970576
 20
114.4921189518601
 30
0.0
 70
    32
  0
VERTEX
  5
387
330
383
100
AcDbEntity
  8
0
 62
    18
420
        0
100
AcDbVertex
100
AcDb3dPolylineVertex
 10
161.6497524076978
 20
114.4921189518601
 30
0.0
 70
    32
  0
SEQEND
  5
388
330
383
100
AcDbEntity
  8
Vector Layer 1
 62
    18
420
        0
370
    30
  0
POLYLINE
  5
389
330
1F
100
AcDbEntity
  8
Vector Layer 1
 62
    18
420
        0
370
    30
100
AcDb3dPolyline
 66
     1
 10
0.0
 20
0.0
 30
0.0
 70
     8
  0
VERTEX
  5
38A
330
389
100
AcDbEntity
  8
0
 62
    18
420
        0
100
AcDbVertex
100
AcDb3dPolylineVertex
 10
123.1275447229578
 20
114.4921189518601
 30
0.0
 70
    32
  0
VERTEX
  5
38B
330
389
100
AcDbEntity
  8
0
 62
    18
420
        0
100
AcDbVertex
100
AcDb3dPolylineVertex
 10
59.64191945837227
 20
114.4921189518601
 30
0.0
 70
    32
  0
VERTEX
  5
38C
330
389
100
AcDbEntity
  8
0
 62
    18
420
        0
100
AcDbVertex
100
AcDb3dPolylineVertex
 10
28.70903483247014
 20
114.4921189518601
 30
0.0
 70
    32
  0
SEQEND
  5
38D
330
389
100
AcDbEntity
  8
Vector Layer 1
 62
    18
420
        0
370
    30
  0
POLYLINE
  5
38E
330
1F
100
AcDbEntity
  8
Vector Layer 1
 62
    18
420
        0
370
    30
100
AcDb3dPolyline
 66
     1
 10
0.0
 20
0.0
 30
0.0
 70
     8
  0
VERTEX
  5
38F
330
38E
100
AcDbEntity
  8
0
 62
    18
420
        0
100
AcDbVertex
100
AcDb3dPolylineVertex
 10
224.408845970576
 20
127.171242031798
 30
0.0
 70
    32
  0
VERTEX
  5
390
330
38E
100
AcDbEntity
  8
0
 62
    18
420
        0
100
AcDbVertex
100
AcDb3dPolylineVertex
 10
161.6497524076978
 20
127.171242031798
 30
0.0
 70
    32
  0
VERTEX
  5
391
330
38E
100
AcDbEntity
  8
0
 62
    18
420
        0
100
AcDbVertex
100
AcDb3dPolylineVertex
 10
123.1275447229578
 20
127.171242031798
 30
0.0
 70
    32
  0
VERTEX
  5
392
330
38E
100
AcDbEntity
  8
0
 62
    18
420
        0
100
AcDbVertex
100
AcDb3dPolylineVertex
 10
59.64191945837227
 20
127.171242031798
 30
0.0
 70
    32
  0
SEQEND
  5
393
330
38E
100
AcDbEntity
  8
Vector Layer 1
 62
    18
420
        0
370
    30
  0
POLYLINE
  5
394
330
1F
100
AcDbEntity
  8
Vector Layer 1
 62
    18
420
        0
370
    30
100
AcDb3dPolyline
 66
     1
 10
0.0
 20
0.0
 30
0.0
 70
     8
  0
VERTEX
  5
395
330
394
100
AcDbEntity
  8
0
 62
    18
420
        0
100
AcDbVertex
100
AcDb3dPolylineVertex
 10
224.408845970576
 20
165.2637735456466
 30
0.0
 70
    32
  0
VERTEX
  5
396
330
394
100
AcDbEntity
  8
0
 62
    18
420
        0
100
AcDbVertex
100
AcDb3dPolylineVertex
 10
161.6497524076978
 20
165.2637735456466
 30
0.0
 70
    32
  0
VERTEX
  5
397
330
394
100
AcDbEntity
  8
0
 62
    18
420
        0
100
AcDbVertex
100
AcDb3dPolylineVertex
 10
123.1275447229578
 20
165.2637735456466
 30
0.0
 70
    32
  0
VERTEX
  5
398
330
394
100
AcDbEntity
  8
0
 62
    18
420
        0
100
AcDbVertex
100
AcDb3dPolylineVertex
 10
59.64191945837227
 20
165.2637735456466
 30
0.0
 70
    32
  0
SEQEND
  5
399
330
394
100
AcDbEntity
  8
Vector Layer 1
 62
    18
420
        0
370
    30
  0
POLYLINE
  5
39A
330
1F
100
AcDbEntity
  8
Vector Layer 1
 62
    18
420
        0
370
    30
100
AcDb3dPolyline
 66
     1
 10
0.0
 20
0.0
 30
0.0
 70
     8
  0
VERTEX
  5
39B
330
39A
100
AcDbEntity
  8
0
 62
    18
420
        0
100
AcDbVertex
100
AcDb3dPolylineVertex
 10
59.64191945837223
 20
279.6465609304521
 30
0.0
 70
    32
  0
VERTEX
  5
39C
330
39A
100
AcDbEntity
  8
0
 62
    18
420
        0
100
AcDbVertex
100
AcDb3dPolylineVertex
 10
59.64191945837223
 20
266.9004347045895
 30
0.0
 70
    32
  0
VERTEX
  5
39D
330
39A
100
AcDbEntity
  8
0
 62
    18
420
        0
100
AcDbVertex
100
AcDb3dPolylineVertex
 10
59.64191945837223
 20
228.8079031907417
 30
0.0
 70
    32
  0
VERTEX
  5
39E
330
39A
100
AcDbEntity
  8
0
 62
    18
420
        0
100
AcDbVertex
100
AcDb3dPolylineVertex
 10
59.64191945837223
 20
216.123074556403
 30
0.0
 70
    32
  0
SEQEND
  5
39F
330
39A
100
AcDbEntity
  8
Vector Layer 1
 62
    18
420
        0
370
    30
  0
POLYLINE
  5
3A0
330
1F
100
AcDbEntity
  8
Vector Layer 1
 62
    18
420
        0
370
    30
100
AcDb3dPolyline
 66
     1
 10
0.0
 20
0.0
 30
0.0
 70
     8
  0
VERTEX
  5
3A1
330
3A0
100
AcDbEntity
  8
0
 62
    18
420
        0
100
AcDbVertex
100
AcDb3dPolylineVertex
 10
59.64191945837223
 20
178.0305430425547
 30
0.0
 70
    32
  0
VERTEX
  5
3A2
330
3A0
100
AcDbEntity
  8
0
 62
    18
420
        0
100
AcDbVertex
100
AcDb3dPolylineVertex
 10
59.64191945837223
 20
165.2637735456466
 30
0.0
 70
    32
  0
VERTEX
  5
3A3
330
3A0
100
AcDbEntity
  8
0
 62
    18
420
        0
100
AcDbVertex
100
AcDb3dPolylineVertex
 10
59.64191945837223
 20
127.171242031798
 30
0.0
 70
    32
  0
VERTEX
  5
3A4
330
3A0
100
AcDbEntity
  8
0
 62
    18
420
        0
100
AcDbVertex
100
AcDb3dPolylineVertex
 10
59.64191945837223
 20
114.4921189518601
 30
0.0
 70
    32
  0
SEQEND
  5
3A5
330
3A0
100
AcDbEntity
  8
Vector Layer 1
 62
    18
420
        0
370
    30
  0
POLYLINE
  5
3A6
330
1F
100
AcDbEntity
  8
Vector Layer 1
 62
    18
420
        0
370
    30
100
AcDb3dPolyline
 66
     1
 10
0.0
 20
0.0
 30
0.0
 70
     8
  0
VERTEX
  5
3A7
330
3A6
100
AcDbEntity
  8
0
 62
    18
420
        0
100
AcDbVertex
100
AcDb3dPolylineVertex
 10
326.3870130028114
 20
216.123074556403
 30
0.0
 70
    32
  0
VERTEX
  5
3A8
330
3A6
100
AcDbEntity
  8
0
 62
    18
420
        0
100
AcDbVertex
100
AcDb3dPolylineVertex
 10
262.9310536553165
 20
216.123074556403
 30
0.0
 70
    32
  0
VERTEX
  5
3A9
330
3A6
100
AcDbEntity
  8
0
 62
    18
420
        0
100
AcDbVertex
100
AcDb3dPolylineVertex
 10
224.408845970576
 20
216.123074556403
 30
0.0
 70
    32
  0
VERTEX
  5
3AA
330
3A6
100
AcDbEntity
  8
0
 62
    18
420
        0
100
AcDbVertex
100
AcDb3dPolylineVertex
 10
161.6497524076978
 20
216.123074556403
 30
0.0
 70
    32
  0
SEQEND
  5
3AB
330
3A6
100
AcDbEntity
  8
Vector Layer 1
 62
    18
420
        0
370
    30
  0
POLYLINE
  5
3AC
330
1F
100
AcDbEntity
  8
Vector Layer 1
 62
    18
420
        0
370
    30
100
AcDb3dPolyline
 66
     1
 10
0.0
 20
0.0
 30
0.0
 70
     8
  0
VERTEX
  5
3AD
330
3AC
100
AcDbEntity
  8
0
 62
    18
420
        0
100
AcDbVertex
100
AcDb3dPolylineVertex
 10
123.1275447229578
 20
216.123074556403
 30
0.0
 70
    32
  0
VERTEX
  5
3AE
330
3AC
100
AcDbEntity
  8
0
 62
    18
420
        0
100
AcDbVertex
100
AcDb3dPolylineVertex
 10
59.64191945837227
 20
216.123074556403
 30
0.0
 70
    32
  0
VERTEX
  5
3AF
330
3AC
100
AcDbEntity
  8
0
 62
    18
420
        0
100
AcDbVertex
100
AcDb3dPolylineVertex
 10
28.70903483247014
 20
216.123074556403
 30
0.0
 70
    32
  0
SEQEND
  5
3B0
330
3AC
100
AcDbEntity
  8
Vector Layer 1
 62
    18
420
        0
370
    30
  0
POLYLINE
  5
3B1
330
1F
100
AcDbEntity
  8
Vector Layer 1
 62
    18
420
        0
370
    30
100
AcDb3dPolyline
 66
     1
 10
0.0
 20
0.0
 30
0.0
 70
     8
  0
VERTEX
  5
3B2
330
3B1
100
AcDbEntity
  8
0
 62
    18
420
        0
100
AcDbVertex
100
AcDb3dPolylineVertex
 10
326.3870130028114
 20
178.0305430425547
 30
0.0
 70
    32
  0
VERTEX
  5
3B3
330
3B1
100
AcDbEntity
  8
0
 62
    18
420
        0
100
AcDbVertex
100
AcDb3dPolylineVertex
 10
262.9310536553165
 20
178.0305430425547
 30
0.0
 70
    32
  0
VERTEX
  5
3B4
330
3B1
100
AcDbEntity
  8
0
 62
    18
420
        0
100
AcDbVertex
100
AcDb3dPolylineVertex
 10
224.408845970576
 20
178.0305430425547
 30
0.0
 70
    32
  0
VERTEX
  5
3B5
330
3B1
100
AcDbEntity
  8
0
 62
    18
420
        0
100
AcDbVertex
100
AcDb3dPolylineVertex
 10
161.6497524076978
 20
178.0305430425547
 30
0.0
 70
    32
  0
SEQEND
  5
3B6
330
3B1
100
AcDbEntity
  8
Vector Layer 1
 62
    18
420
        0
370
    30
  0
POLYLINE
  5
3B7
330
1F
100
AcDbEntity
  8
Vector Layer 1
 62
    18
420
        0
370
    30
100
AcDb3dPolyline
 66
     1
 10
0.0
 20
0.0
 30
0.0
 70
     8
  0
VERTEX
  5
3B8
330
3B7
100
AcDbEntity
  8
0
 62
    18
420
        0
100
AcDbVertex
100
AcDb3dPolylineVertex
 10
123.1275447229578
 20
178.0305430425547
 30
0.0
 70
    32
  0
VERTEX
  5
3B9
330
3B7
100
AcDbEntity
  8
0
 62
    18
420
        0
100
AcDbVertex
100
AcDb3dPolylineVertex
 10
59.64191945837227
 20
178.0305430425547
 30
0.0
 70
    32
  0
VERTEX
  5
3BA
330
3B7
100
AcDbEntity
  8
0
 62
    18
420
        0
100
AcDbVertex
100
AcDb3dPolylineVertex
 10
28.70903483247014
 20
178.0305430425547
 30
0.0
 70
    32
  0
SEQEND
  5
3BB
330
3B7
100
AcDbEntity
  8
Vector Layer 1
 62
    18
420
        0
370
    30
  0
POLYLINE
  5
3BC
330
1F
100
AcDbEntity
  8
Vector Layer 1
 62
    18
420
        0
370
    30
100
AcDb3dPolyline
 66
     1
 10
0.0
 20
0.0
 30
0.0
 70
     8
  0
VERTEX
  5
3BD
330
3BC
100
AcDbEntity
  8
0
 62
    18
420
        0
100
AcDbVertex
100
AcDb3dPolylineVertex
 10
59.64191945837223
 20
468.2397372351423
 30
0.0
 70
    32
  0
VERTEX
  5
3BE
330
3BC
100
AcDbEntity
  8
0
 62
    18
420
        0
100
AcDbVertex
100
AcDb3dPolylineVertex
 10
59.64191945837223
 20
432.1318171377177
 30
0.0
 70
    32
  0
VERTEX
  5
3BF
330
3BC
100
AcDbEntity
  8
0
 62
    18
420
        0
100
AcDbVertex
100
AcDb3dPolylineVertex
 10
59.64191945837223
 20
419.3757536032439
 30
0.0
 70
    32
  0
SEQEND
  5
3C0
330
3BC
100
AcDbEntity
  8
Vector Layer 1
 62
    18
420
        0
370
    30
  0
POLYLINE
  5
3C1
330
1F
100
AcDbEntity
  8
Vector Layer 1
 62
    18
420
        0
370
    30
100
AcDb3dPolyline
 66
     1
 10
0.0
 20
0.0
 30
0.0
 70
     8
  0
VERTEX
  5
3C2
330
3C1
100
AcDbEntity
  8
0
 62
    18
420
        0
100
AcDbVertex
100
AcDb3dPolylineVertex
 10
59.64191945837223
 20
381.283222089396
 30
0.0
 70
    32
  0
VERTEX
  5
3C3
330
3C1
100
AcDbEntity
  8
0
 62
    18
420
        0
100
AcDbVertex
100
AcDb3dPolylineVertex
 10
59.64191945837223
 20
368.5983934550574
 30
0.0
 70
    32
  0
VERTEX
  5
3C4
330
3C1
100
AcDbEntity
  8
0
 62
    18
420
        0
100
AcDbVertex
100
AcDb3dPolylineVertex
 10
59.64191945837223
 20
330.5058619412087
 30
0.0
 70
    32
  0
VERTEX
  5
3C5
330
3C1
100
AcDbEntity
  8
0
 62
    18
420
        0
100
AcDbVertex
100
AcDb3dPolylineVertex
 10
59.64191945837223
 20
317.7390924443006
 30
0.0
 70
    32
  0
SEQEND
  5
3C6
330
3C1
100
AcDbEntity
  8
Vector Layer 1
 62
    18
420
        0
370
    30
  0
LWPOLYLINE
  5
3C7
330
1F
100
AcDbEntity
  8
Vector Layer 1
 62
    18
420
        0
370
    30
100
AcDbPolyline
 90
        8
 70
     0
 43
0.0
 10
-472.3829266427443
 20
481.9093463174578
 10
-472.3829266427443
 20
65.34934631745783
 10
-472.3829266427443
 20
65.34934631745783
 10
-15.18292664274432
 20
65.3493463174579
 10
-15.18292664274432
 20
65.3493463174579
 10
-15.18292664274441
 20
481.9093463174578
 10
-15.18292664274441
 20
481.9093463174578
 10
-472.3829266427443
 20
481.9093463174578
210
0.0
220
0.0
230
-1.0
  0
LWPOLYLINE
  5
3C8
330
1F
100
AcDbEntity
  8
Vector Layer 1
 62
    18
420
        0
370
    30
100
AcDbPolyline
 90
        8
 70
     0
 43
0.0
 10
43.67799480285261
 20
65.49547129448099
 10
43.67799480285261
 20
482.055471294481
 10
43.67799480285261
 20
482.055471294481
 10
24.62799480285261
 20
482.055471294481
 10
24.62799480285261
 20
482.055471294481
 10
24.62799480285315
 20
65.49547129448099
 10
24.62799480285315
 20
65.49547129448099
 10
43.67799480285261
 20
65.49547129448099
210
0.0
220
0.0
230
-1.0
  0
LWPOLYLINE
  5
3C9
330
1F
100
AcDbEntity
  8
Vector Layer 1
 62
    18
420
        0
370
    30
100
AcDbPolyline
 90
        8
 70
     0
 43
0.0
 10
-15.18289658479098
 20
6.63432233594557
 10
-15.18289658479098
 20
25.68432233594485
 10
-15.18289658479098
 20
25.68432233594485
 10
-472.3828965847911
 20
25.68432233594485
 10
-472.3828965847911
 20
25.68432233594485
 10
-472.3828965847911
 20
6.634322335945209
 10
-472.3828965847911
 20
6.634322335945209
 10
-15.18289658479098
 20
6.63432233594557
210
0.0
220
0.0
230
-1.0
  0
LWPOLYLINE
  5
3CA
330
1F
100
AcDbEntity
  8
Vector Layer 1
 62
    18
420
        0
370
    30
100
AcDbPolyline
 90
       78
 70
     0
 43
0.0
 10
-74.21881461239654
 20
17.1403115512727
 10
-77.69542369696043
 20
17.69999586629966
 10
-77.69542369696043
 20
17.69999586629966
 10
-81.06109469750162
 20
18.28510201859573
 10
-81.06109469750162
 20
18.28510201859573
 10
-84.2362560187669
 20
18.86619012642005
 10
-84.2362560187669
 20
18.86619012642005
 10
-87.24630895132637
 20
19.42832272338966
 10
-87.24630895132637
 20
19.42832272338966
 10
-92.72028706918771
 20
20.47367588567833
 10
-92.72028706918771
 20
20.47367588567833
 10
-96.17486258672434
 20
21.13368586588005
 10
-96.17486258672434
 20
21.13368586588005
 10
-100.696292308206
 20
21.97487271118263
 10
-100.696292308206
 20
21.97487271118263
 10
-104.0492626634643
 20
22.56457751083473
 10
-104.0492626634643
 20
22.56457751083473
 10
-105.5987413882432
 20
22.82907808113197
 10
-105.5987413882432
 20
22.82907808113197
 10
-109.0279156152127
 20
23.38224804687599
 10
-109.0279156152127
 20
23.38224804687599
 10
-112.4570898421823
 20
23.87260692405799
 10
-112.4570898421823
 20
23.87260692405799
 10
-114.2478808273775
 20
24.08241424846748
 10
-114.2478808273775
 20
24.08241424846748
 10
-116.0132705220025
 20
24.25143403101066
 10
-116.0132705220025
 20
24.25143403101066
 10
-118.197781511035
 20
24.43782799530128
 10
-118.197781511035
 20
24.43782799530128
 10
-123.0875299457879
 20
24.8216996102343
 10
-123.0875299457879
 20
24.8216996102343
 10
-127.4311506332826
 20
25.11854589271644
 10
-127.4311506332826
 20
25.11854589271644
 10
-128.8790241957809
 20
25.20939851093391
 10
-128.8790241957809
 20
25.20939851093391
 10
-133.0448358492846
 20
25.43594718265632
 10
-133.0448358492846
 20
25.43594718265632
 10
-137.7313739594763
 20
25.61187212753394
 10
-137.7313739594763
 20
25.61187212753394
 10
-140.1571972089251
 20
25.66326797294715
 10
-140.1571972089251
 20
25.66326797294715
 10
-142.3163069073874
 20
25.67835910606483
 10
-142.3163069073874
 20
25.67835910606483
 10
-144.4881172511348
 20
25.66209011364082
 10
-144.4881172511348
 20
25.66209011364082
 10
-146.6472269495971
 20
25.61769178199866
 10
-146.6472269495971
 20
25.61769178199866
 10
-151.2194592522232
 20
25.45009360599616
 10
-151.2194592522232
 20
25.45009360599616
 10
-156.1600102681163
 20
25.18319038438896
 10
-156.1600102681163
 20
25.18319038438896
 10
-161.3545741897109
 20
24.8310210495005
 10
-161.3545741897109
 20
24.8310210495005
 10
-166.5618387565906
 20
24.42270506906608
 10
-166.5618387565906
 20
24.42270506906608
 10
-168.9749613607543
 20
24.21363352823356
 10
-168.9749613607543
 20
24.21363352823356
 10
-170.4736375043929
 20
24.06566533136466
 10
-170.4736375043929
 20
24.06566533136466
 10
-171.9596130027464
 20
23.89295754718879
 10
-171.9596130027464
 20
23.89295754718879
 10
-175.3252840032905
 20
23.41453017282585
 10
-175.3252840032905
 20
23.41453017282585
 10
-179.2878853322331
 20
22.77724167394737
 10
-179.2878853322331
 20
22.77724167394737
 10
-182.9837731101892
 20
22.13378379631141
 10
-182.9837731101892
 20
22.13378379631141
 10
-187.3527950882541
 20
21.32758300590614
 10
-187.3527950882541
 20
21.32758300590614
 10
-193.2458945005276
 20
20.20738127517799
 10
-193.2458945005276
 20
20.20738127517799
 10
-197.8054261578686
 20
19.33620140838722
 10
-197.8054261578686
 20
19.33620140838722
 10
-202.2887539434992
 20
18.50247988987067
 10
-202.2887539434992
 20
18.50247988987067
 10
-206.5688714045626
 20
17.75115099239448
 10
-206.5688714045626
 20
17.75115099239448
 10
-210.3781642612039
 20
17.13362339980444
210
0.0
220
0.0
230
-1.0
  0
LWPOLYLINE
  5
3CB
330
1F
100
AcDbEntity
  8
Vector Layer 1
 62
    18
420
        0
370
    30
100
AcDbPolyline
 90
       52
 70
     0
 43
0.0
 10
-224.7072293623857
 20
18.06776346640755
 10
-224.7942973886091
 20
19.18555501985649
 10
-224.7942973886091
 20
19.18555501985649
 10
-224.9721064225998
 20
21.47855186748603
 10
-224.9721064225998
 20
21.47855186748603
 10
-225.0991128754503
 20
22.32135259199241
 10
-225.0991128754503
 20
22.32135259199241
 10
-225.1626161018756
 20
22.49472348976234
 10
-225.1626161018756
 20
22.49472348976234
 10
-225.2388199735858
 20
22.65323337602714
 10
-225.2388199735858
 20
22.65323337602714
 10
-225.8992535284084
 20
22.72670727062324
 10
-225.8992535284084
 20
22.72670727062324
 10
-227.1058148304882
 20
22.8069182782183
 10
-227.1058148304882
 20
22.8069182782183
 10
-228.7695993628297
 20
22.8814125804911
 10
-228.7695993628297
 20
22.8814125804911
 10
-231.131919385849
 20
22.95569190073112
 10
-231.131919385849
 20
22.95569190073112
 10
-233.7101503787141
 20
23.01221854972938
 10
-233.7101503787141
 20
23.01221854972938
 10
-236.3899865338596
 20
23.05286832141975
 10
-236.3899865338596
 20
23.05286832141975
 10
-239.819160760823
 20
23.08467355060676
 10
-239.819160760823
 20
23.08467355060676
 10
-243.1467298255061
 20
23.09709860372642
 10
-243.1467298255061
 20
23.09709860372642
 10
-246.9950253468762
 20
23.09043718862632
 10
-246.9950253468762
 20
23.09043718862632
 10
-250.2971931209891
 20
23.06595800209144
 10
-250.2971931209891
 20
23.06595800209144
 10
-253.2818447629758
 20
23.02641190576652
 10
-253.2818447629758
 20
23.02641190576652
 10
-256.1394899521121
 20
22.96963091182807
 10
-256.1394899521121
 20
22.96963091182807
 10
-258.5653132015565
 20
22.89946198749641
 10
-258.5653132015565
 20
22.89946198749641
 10
-260.2544990244682
 20
22.83037857103447
 10
-260.2544990244682
 20
22.83037857103447
 10
-261.473760971833
 20
22.76076375532249
 10
-261.473760971833
 20
22.76076375532249
 10
-262.261200979506
 20
22.69450538444618
 10
-262.261200979506
 20
22.69450538444618
 10
-262.4390100134968
 20
22.67392615366081
 10
-262.4390100134968
 20
22.67392615366081
 10
-262.5660164663472
 20
22.41274872112373
 10
-262.5660164663472
 20
22.41274872112373
 10
-262.7057235644828
 20
21.53148589420418
 10
-262.7057235644828
 20
21.53148589420418
 10
-262.9343351796137
 20
18.50859173822501
 10
-262.9343351796137
 20
18.50859173822501
 10
-262.9691792958125
 20
18.07426301201891
210
0.0
220
0.0
230
-1.0
  0
LWPOLYLINE
  5
3CC
330
1F
100
AcDbEntity
  8
Vector Layer 1
 62
    18
420
        0
370
    30
100
AcDbPolyline
 90
       78
 70
     0
 43
0.0
 10
-277.4096399720426
 20
17.13791342648619
 10
-280.9438501938144
 20
17.70694644737342
 10
-280.9438501938144
 20
17.70694644737342
 10
-284.6143366811937
 20
18.34649074363807
 10
-284.6143366811937
 20
18.34649074363807
 10
-289.0849638215313
 20
19.17168640780547
 10
-289.0849638215313
 20
19.17168640780547
 10
-294.1779225808362
 20
20.14055971193412
 10
-294.1779225808362
 20
20.14055971193412
 10
-299.4232890835618
 20
21.14193845081428
 10
-299.4232890835618
 20
21.14193845081428
 10
-303.8939162238993
 20
21.97326791572669
 10
-303.8939162238993
 20
21.97326791572669
 10
-307.373893032003
 20
22.58531116533378
 10
-307.373893032003
 20
22.58531116533378
 10
-308.8725691756389
 20
22.83984989214042
 10
-308.8725691756389
 20
22.83984989214042
 10
-312.1366350138967
 20
23.36701611566642
 10
-312.1366350138967
 20
23.36701611566642
 10
-315.6039111767153
 20
23.86464350509742
 10
-315.6039111767153
 20
23.86464350509742
 10
-317.3693008713372
 20
24.07312308836082
 10
-317.3693008713372
 20
24.07312308836082
 10
-319.0711873395339
 20
24.23836403179267
 10
-319.0711873395339
 20
24.23836403179267
 10
-321.3573034908429
 20
24.43405975389579
 10
-321.3573034908429
 20
24.43405975389579
 10
-326.247051925587
 20
24.81817663002113
 10
-326.247051925587
 20
24.81817663002113
 10
-330.7176790659246
 20
25.12414753723243
 10
-330.7176790659246
 20
25.12414753723243
 10
-332.3941642435511
 20
25.22601268577674
 10
-332.3941642435511
 20
25.22601268577674
 10
-336.2551604102062
 20
25.43621363926032
 10
-336.2551604102062
 20
25.43621363926032
 10
-340.8273927128242
 20
25.60810691404441
 10
-340.8273927128242
 20
25.60810691404441
 10
-343.3548211245491
 20
25.66307267236808
 10
-343.3548211245491
 20
25.66307267236808
 10
-345.5393321135777
 20
25.67825161504844
 10
-345.5393321135777
 20
25.67825161504844
 10
-347.6730405214661
 20
25.66236868190864
 10
-347.6730405214661
 20
25.66236868190864
 10
-349.9337553822049
 20
25.61541024732688
 10
-349.9337553822049
 20
25.61541024732688
 10
-354.3027773602621
 20
25.45494886922935
 10
-354.3027773602621
 20
25.45494886922935
 10
-359.3449335384268
 20
25.18467557716468
 10
-359.3449335384268
 20
25.18467557716468
 10
-364.4251916524468
 20
24.84058623600105
 10
-364.4251916524468
 20
24.84058623600105
 10
-369.6324562193172
 20
24.4336524991999
 10
-369.6324562193172
 20
24.4336524991999
 10
-372.1598846310421
 20
24.21561984109977
 10
-372.1598846310421
 20
24.21561984109977
 10
-373.6458601293929
 20
24.0693699865351
 10
-373.6458601293929
 20
24.0693699865351
 10
-375.1572369183139
 20
23.89404002714256
 10
-375.1572369183139
 20
23.89404002714256
 10
-378.5356085641371
 20
23.41395032692054
 10
-378.5356085641371
 20
23.41395032692054
 10
-382.5363118289278
 20
22.77028049516776
 10
-382.5363118289278
 20
22.77028049516776
 10
-386.0797918634567
 20
22.1531548886309
 10
-386.0797918634567
 20
22.1531548886309
 10
-389.9153867395418
 20
21.44723564672569
 10
-389.9153867395418
 20
21.44723564672569
 10
-393.8652874231922
 20
20.70095277118781
 10
-393.8652874231922
 20
20.70095277118781
 10
-399.1995584429131
 20
19.68212415266135
 10
-399.1995584429131
 20
19.68212415266135
 10
-402.5017262170261
 20
19.05888821172813
 10
-402.5017262170261
 20
19.05888821172813
 10
-405.6514862477184
 20
18.47378433036903
 10
-405.6514862477184
 20
18.47378433036903
 10
-409.829998546512
 20
17.74146847415069
 10
-409.829998546512
 20
17.74146847415069
 10
-413.5782465570732
 20
17.13458815829316
210
0.0
220
0.0
230
-1.0
  0
LINE
  5
3CD
330
1F
100
AcDbEntity
  8
Vector Layer 1
 62
    18
420
        0
370
    30
100
AcDbLine
 10
28.70903483246998
 20
6.633250704289467
 30
0.0
 11
28.70903483246998
 21
6.634321433682683
 31
0.0
  0
LWPOLYLINE
  5
3CE
330
1F
100
AcDbEntity
  8
Vector Layer 1
 62
    18
420
        0
370
    30
100
AcDbPolyline
 90
       32
 70
     0
 43
0.0
 10
-28.77253805889531
 20
22.97629989671806
 10
-31.6809858291756
 20
23.03184398698905
 10
-31.6809858291756
 20
23.03184398698905
 10
-35.63088651283135
 20
23.07775476265052
 10
-35.63088651283135
 20
23.07775476265052
 10
-38.99655751337404
 20
23.09533635664085
 10
-38.99655751337404
 20
23.09533635664085
 10
-42.33682722334658
 20
23.09541811037162
 10
-42.33682722334658
 20
23.09541811037162
 10
-45.8041033861698
 20
23.07753069686988
 10
-45.8041033861698
 20
23.07753069686988
 10
-49.61429697168982
 20
23.033915081502
 10
-49.61429697168982
 20
23.033915081502
 10
-52.30683377212329
 20
22.98387271452049
 10
-52.30683377212329
 20
22.98387271452049
 10
-54.82156153856539
 20
22.91732214975456
 10
-54.82156153856539
 20
22.91732214975456
 10
-56.68855639546937
 20
22.84715019750694
 10
-56.68855639546937
 20
22.84715019750694
 10
-58.13642995796634
 20
22.77002766418556
 10
-58.13642995796634
 20
22.77002766418556
 10
-59.01277448263556
 20
22.69965586948494
 10
-59.01277448263556
 20
22.69965586948494
 10
-59.24138609776665
 20
22.6736400156031
 10
-59.24138609776665
 20
22.6736400156031
 10
-59.36839255061727
 20
22.40722731638054
 10
-59.36839255061727
 20
22.40722731638054
 10
-59.49539900346788
 20
21.63350092458824
 10
-59.49539900346788
 20
21.63350092458824
 10
-59.67320803745874
 20
19.38073902416328
 10
-59.67320803745874
 20
19.38073902416328
 10
-59.77212670065135
 20
18.07584421290033
210
0.0
220
0.0
230
-1.0
  0
LINE
  5
3CF
330
1F
100
AcDbEntity
  8
Vector Layer 1
 62
    18
420
        0
370
    30
100
AcDbLine
 10
28.77253805889531
 20
22.97629989671806
 30
0.0
 11
28.70903483246998
 21
22.97308754564786
 31
0.0
  0
POLYLINE
  5
3D0
330
1F
100
AcDbEntity
  8
Vector Layer 1
 62
    18
420
        0
370
    30
100
AcDb3dPolyline
 66
     1
 10
0.0
 20
0.0
 30
0.0
 70
     8
  0
VERTEX
  5
3D1
330
3D0
100
AcDbEntity
  8
0
 62
    18
420
        0
100
AcDbVertex
100
AcDb3dPolylineVertex
 10
28.77253805889531
 20
18.3613089684441
 30
0.0
 70
    32
  0
VERTEX
  5
3D2
330
3D0
100
AcDbEntity
  8
0
 62
    18
420
        0
100
AcDbVertex
100
AcDb3dPolylineVertex
 10
28.77253805889531
 20
22.97629989671806
 30
0.0
 70
    32
  0
VERTEX
  5
3D3
330
3D0
100
AcDbEntity
  8
0
 62
    18
420
        0
100
AcDbVertex
100
AcDb3dPolylineVertex
 10
28.77253805889531
 20
25.68432233594485
 30
0.0
 70
    32
  0
SEQEND
  5
3D4
330
3D0
100
AcDbEntity
  8
Vector Layer 1
 62
    18
420
        0
370
    30
  0
POLYLINE
  5
3D5
330
1F
100
AcDbEntity
  8
Vector Layer 1
 62
    18
420
        0
370
    30
100
AcDb3dPolyline
 66
     1
 10
0.0
 20
0.0
 30
0.0
 70
     8
  0
VERTEX
  5
3D6
330
3D5
100
AcDbEntity
  8
0
 62
    18
420
        0
100
AcDbVertex
100
AcDb3dPolylineVertex
 10
458.9052919281189
 20
18.36738978065991
 30
0.0
 70
    32
  0
VERTEX
  5
3D7
330
3D5
100
AcDbEntity
  8
0
 62
    18
420
        0
100
AcDbVertex
100
AcDb3dPolylineVertex
 10
458.9052919281189
 20
22.97987283754447
 30
0.0
 70
    32
  0
VERTEX
  5
3D8
330
3D5
100
AcDbEntity
  8
0
 62
    18
420
        0
100
AcDbVertex
100
AcDb3dPolylineVertex
 10
458.9052919281189
 20
25.68432233594485
 30
0.0
 70
    32
  0
SEQEND
  5
3D9
330
3D5
100
AcDbEntity
  8
Vector Layer 1
 62
    18
420
        0
370
    30
  0
LWPOLYLINE
  5
3DA
330
1F
100
AcDbEntity
  8
Vector Layer 1
 62
    18
420
        0
370
    30
100
AcDbPolyline
 90
       34
 70
     0
 43
0.0
 10
-427.9080861092842
 20
18.06734801572024
 10
-427.9792206589127
 20
18.97178566742042
 10
-427.9792206589127
 20
18.97178566742042
 10
-428.157029692904
 20
21.29406094837287
 10
-428.157029692904
 20
21.29406094837287
 10
-428.2205329193295
 20
21.8313737182627
 10
-428.2205329193295
 20
21.8313737182627
 10
-428.3094374363251
 20
22.37832585859397
 10
-428.3094374363251
 20
22.37832585859397
 10
-428.4364438891762
 20
22.65288213777641
 10
-428.4364438891762
 20
22.65288213777641
 10
-429.084176798716
 20
22.72545219946006
 10
-429.084176798716
 20
22.72545219946006
 10
-430.2780374555149
 20
22.80537706899742
 10
-430.2780374555149
 20
22.80537706899742
 10
-432.1196310218537
 20
22.88755016613105
 10
-432.1196310218537
 20
22.88755016613105
 10
-434.4819510448814
 20
22.95974779415229
 10
-434.4819510448814
 20
22.95974779415229
 10
-437.250691717032
 20
23.0185650615702
 10
-437.250691717032
 20
23.0185650615702
 10
-440.4893562647313
 20
23.06353415536979
 10
-440.4893562647313
 20
23.06353415536979
 10
-444.4392569483958
 20
23.09241290378669
 10
-444.4392569483958
 20
23.09241290378669
 10
-447.7795266583757
 20
23.09749526071647
 10
-447.7795266583757
 20
23.09749526071647
 10
-450.8657834626538
 20
23.08697022485832
 10
-450.8657834626538
 20
23.08697022485832
 10
-453.6853267159449
 20
23.06393535423377
 10
-453.6853267159449
 20
23.06393535423377
 10
-456.9620931994994
 20
23.01870434570411
 10
-456.9620931994994
 20
23.01870434570411
 10
-458.9052919281189
 20
22.97987283754447
210
0.0
220
0.0
230
-1.0
  0
LINE
  5
3DB
330
1F
100
AcDbEntity
  8
Vector Layer 1
 62
    18
420
        0
370
    30
100
AcDbLine
 10
458.968795154607
 20
6.634321433682683
 30
0.0
 11
458.968795154607
 21
6.633250704289422
 31
0.0
  0
LWPOLYLINE
  5
3DC
330
1F
100
AcDbEntity
  8
Vector Layer 1
 62
    18
420
        0
370
    30
100
AcDbPolyline
 90
      308
 70
     0
 43
0.0
 10
28.77253805889531
 20
18.3613089684441
 10
31.70638711974573
 20
18.46077222265744
 10
31.70638711974573
 20
18.46077222265744
 10
36.26591877708469
 20
18.56667434014821
 10
36.26591877708469
 20
18.56667434014821
 10
38.76794589824283
 20
18.59828956760907
 10
38.76794589824283
 20
18.59828956760907
 10
40.97785817784444
 20
18.60629840530896
 10
40.97785817784444
 20
18.60629840530896
 10
43.17506981216099
 20
18.59402096309209
 10
43.17506981216099
 20
18.59402096309209
 10
45.32147886533727
 20
18.56432846226239
 10
45.32147886533727
 20
18.56432846226239
 10
49.72860277925542
 20
18.46188119687581
 10
49.72860277925542
 20
18.46188119687581
 10
54.66915379514467
 20
18.29362369217419
 10
54.66915379514467
 20
18.29362369217419
 10
59.77212670065134
 20
18.07584421290033
 10
59.77212670065134
 20
18.07584421290033
 10
59.77481319973922
 20
18.07572956122899
 10
59.77481319973922
 20
18.07572956122899
 10
65.08368292889476
 20
17.8139987770512
 10
65.08368292889476
 20
17.8139987770512
 10
67.67461456704722
 20
17.67115078606152
 10
67.67461456704722
 20
17.67115078606152
 10
69.23679393710973
 20
17.57086091079258
 10
69.23679393710973
 20
17.57086091079258
 10
70.55766104675609
 20
17.47233631052517
 10
70.55766104675609
 20
17.47233631052517
 10
73.93603269258234
 20
17.16904056705975
 10
73.93603269258234
 20
17.16904056705975
 10
77.96213724794672
 20
16.76001151241803
 10
77.96213724794672
 20
16.76001151241803
 10
82.25495535429736
 20
16.28696323074841
 10
82.25495535429736
 20
16.28696323074841
 10
86.96689475505504
 20
15.7357334021523
 10
86.96689475505504
 20
15.7357334021523
 10
92.37736964649107
 20
15.08636427559399
 10
92.37736964649107
 20
15.08636427559399
 10
96.50507936413591
 20
14.59104415812039
 10
96.50507936413591
 20
14.59104415812039
 10
100.9376045686222
 20
14.07348778285527
 10
100.9376045686222
 20
14.07348778285527
 10
104.9383078334194
 20
13.63270573057675
 10
104.9383078334194
 20
13.63270573057675
 10
109.078718196353
 20
13.21032508053326
 10
109.078718196353
 20
13.21032508053326
 10
112.584096295033
 20
12.89559971131825
 10
112.584096295033
 20
12.89559971131825
 10
114.4256898613685
 20
12.76202887632394
 10
114.4256898613685
 20
12.76202887632394
 10
117.8294627977679
 20
12.56796065904641
 10
117.8294627977679
 20
12.56796065904641
 10
122.7446125230909
 20
12.32458320893789
 10
122.7446125230909
 20
12.32458320893789
 10
122.8716189759416
 20
12.54349926151776
 10
122.8716189759416
 20
12.54349926151776
 10
122.9986254287923
 20
13.21685629524731
 10
122.9986254287923
 20
13.21685629524731
 10
123.1764344627833
 20
15.20997591652417
 10
123.1764344627833
 20
15.20997591652417
 10
123.3415428514893
 20
17.13078663386845
 10
123.3415428514893
 20
17.13078663386845
 10
123.4050460779146
 20
17.68719117083096
 10
123.4050460779146
 20
17.68719117083096
 10
123.5066512401952
 20
18.24523608126187
 10
123.5066512401952
 20
18.24523608126187
 10
123.633657693046
 20
18.49093632139706
 10
123.633657693046
 20
18.49093632139706
 10
124.34489382901
 20
18.54906398095631
 10
124.34489382901
 20
18.54906398095631
 10
125.8054680367933
 20
18.61692487635159
 10
125.8054680367933
 20
18.61692487635159
 10
128.1550874145317
 20
18.68589928783917
 10
128.1550874145317
 20
18.68589928783917
 10
131.1143377659536
 20
18.74251223244214
 10
131.1143377659536
 20
18.74251223244214
 10
134.5308113476381
 20
18.78454803266072
 10
134.5308113476381
 20
18.78454803266072
 10
138.0869920274583
 20
18.80986670889401
 10
138.0869920274583
 20
18.80986670889401
 10
142.6973262659396
 20
18.82004580535435
 10
142.6973262659396
 20
18.82004580535435
 10
146.8250359835881
 20
18.80836259164357
 10
146.8250359835881
 20
18.80836259164357
 10
150.4066179539785
 20
18.78131421842122
 10
150.4066179539785
 20
18.78131421842122
 10
153.6833844375272
 20
18.73946463503384
 10
153.6833844375272
 20
18.73946463503384
 10
156.5410296266685
 20
18.68341488279843
 10
156.5410296266685
 20
18.68341488279843
 10
158.6366360987054
 20
18.62240161933446
 10
158.6366360987054
 20
18.62240161933446
 10
160.0337070800634
 20
18.56145269908452
 10
160.0337070800634
 20
18.56145269908452
 10
160.8338477330229
 20
18.50560051836514
 10
160.8338477330229
 20
18.50560051836514
 10
160.9735548311587
 20
18.25800480284237
 10
160.9735548311587
 20
18.25800480284237
 10
161.1005612840095
 20
17.55512785949254
 10
161.1005612840095
 20
17.55512785949254
 10
161.2910709632855
 20
15.3730579558804
 10
161.2910709632855
 20
15.3730579558804
 10
161.4688799972766
 20
13.34220823087239
 10
161.4688799972766
 20
13.34220823087239
 10
161.6085870954124
 20
12.53486137427831
 10
161.6085870954124
 20
12.53486137427831
 10
161.7355935482631
 20
12.31445445158029
 10
161.7355935482631
 20
12.31445445158029
 10
166.7269471452965
 20
12.56140219308877
 10
166.7269471452965
 20
12.56140219308877
 10
169.2924774928812
 20
12.70306740440869
 10
169.2924774928812
 20
12.70306740440869
 10
170.9943639610808
 20
12.81393076219105
 10
170.9943639610808
 20
12.81393076219105
 10
172.2771291348732
 20
12.91178013720059
 10
172.2771291348732
 20
12.91178013720059
 10
175.4395898108562
 20
13.1960666243031
 10
175.4395898108562
 20
13.1960666243031
 10
179.4275924303689
 20
13.60027372278714
 10
179.4275924303689
 20
13.60027372278714
 10
183.6188053744428
 20
14.06078416146779
 10
183.6188053744428
 20
14.06078416146779
 10
188.5466557450509
 20
14.63642277755284
 10
188.5466557450509
 20
14.63642277755284
 10
194.2619461233334
 20
15.32271052636647
 10
194.2619461233334
 20
15.32271052636647
 10
198.2372480975611
 20
15.79918716587567
 10
198.2372480975611
 20
15.79918716587567
 10
202.4411616869201
 20
16.29028409757161
 10
202.4411616869201
 20
16.29028409757161
 10
206.657775921558
 20
16.75500106849217
 10
206.657775921558
 20
16.75500106849217
 10
210.6965811222038
 20
17.16602854766392
 10
210.6965811222038
 20
17.16602854766392
 10
214.1765579303075
 20
17.47874035276913
 10
214.1765579303075
 20
17.47874035276913
 10
216.0181514966397
 20
17.61227523126149
 10
216.0181514966397
 20
17.61227523126149
 10
219.4600263688882
 20
17.80838653482938
 10
219.4600263688882
 20
17.80838653482938
 10
224.6672909357586
 20
18.06604855694317
 10
224.6672909357586
 20
18.06604855694317
 10
229.7983516309187
 20
18.28637031950497
 10
229.7983516309187
 20
18.28637031950497
 10
234.7643039373732
 20
18.45738019980931
 10
234.7643039373732
 20
18.45738019980931
 10
239.4508420475566
 20
18.56675987877392
 10
239.4508420475566
 20
18.56675987877392
 10
241.8385633611459
 20
18.59752426185155
 10
241.8385633611459
 20
18.59752426185155
 10
244.150080803025
 20
18.60638015903973
 10
244.150080803025
 20
18.60638015903973
 10
246.3853943731938
 20
18.59352362789654
 10
246.3853943731938
 20
18.59352362789654
 10
248.5064021357971
 20
18.56402491368794
 10
248.5064021357971
 20
18.56402491368794
 10
252.9008254044244
 20
18.46189406551862
 10
252.9008254044244
 20
18.46189406551862
 10
257.7524719033134
 20
18.29699527658963
 10
257.7524719033134
 20
18.29699527658963
 10
262.8454306626184
 20
18.0803494039967
 10
262.8454306626184
 20
18.0803494039967
 10
268.1924023276244
 20
17.8173665765717
 10
268.1924023276244
 20
17.8173665765717
 10
270.8468371921997
 20
17.67137333788419
 10
270.8468371921997
 20
17.67137333788419
 10
272.447118498116
 20
17.56821981110119
 10
272.447118498116
 20
17.56821981110119
 10
273.7552849624762
 20
17.47026672997021
 10
273.7552849624762
 20
17.47026672997021
 10
277.019350800734
 20
17.17745438851857
 10
277.019350800734
 20
17.17745438851857
 10
281.0200540655246
 20
16.77213528790021
 10
281.0200540655246
 20
16.77213528790021
 10
285.439878624722
 20
16.28569756187939
 10
285.439878624722
 20
16.28569756187939
 10
290.1645186707605
 20
15.73301660456204
 10
290.1645186707605
 20
15.73301660456204
 10
295.6638980791871
 20
15.07274698056721
 10
295.6638980791871
 20
15.07274698056721
 10
299.7027032798329
 20
14.58831373490834
 10
299.7027032798329
 20
14.58831373490834
 10
304.1479291296004
 20
14.06932212748074
 10
304.1479291296004
 20
14.06932212748074
 10
308.2629382019565
 20
13.61643068232083
 10
308.2629382019565
 20
13.61643068232083
 10
312.1874375950369
 20
13.21698043980145
 10
312.1874375950369
 20
13.21698043980145
 10
315.781720210706
 20
12.89354981221699
 10
315.781720210706
 20
12.89354981221699
 10
317.6487150676083
 20
12.7588442657187
 10
317.6487150676083
 20
12.7588442657187
 10
321.0524880040016
 20
12.56549896337533
 10
321.0524880040016
 20
12.56549896337533
 10
325.9422364387459
 20
12.32320323624158
 10
325.9422364387459
 20
12.32320323624158
 10
326.0692428915963
 20
12.53823750056768
 10
326.0692428915963
 20
12.53823750056768
 10
326.1962493444468
 20
13.20307246484303
 10
326.1962493444468
 20
13.20307246484303
 10
326.3740583784376
 20
15.17937882580304
 10
326.3740583784376
 20
15.17937882580304
 10
326.5391667671432
 20
17.10482831038975
 10
326.5391667671432
 20
17.10482831038975
 10
326.6026699935685
 20
17.67414085306668
 10
326.6026699935685
 20
17.67414085306668
 10
326.7042751558488
 20
18.23218576349759
 10
326.7042751558488
 20
18.23218576349759
 10
326.8312816086993
 20
18.48639671840214
 10
326.8312816086993
 20
18.48639671840214
 10
327.3139061295312
 20
18.53408790864491
 10
327.3139061295312
 20
18.53408790864491
 10
328.6347732391764
 20
18.60270654000782
 10
328.6347732391764
 20
18.60270654000782
 10
330.6668764847844
 20
18.66855462827229
 10
330.6668764847844
 20
18.66855462827229
 10
333.4991203833505
 20
18.72933020033383
 10
333.4991203833505
 20
18.72933020033383
 10
336.8266894480335
 20
18.77539918460392
 10
336.8266894480335
 20
18.77539918460392
 10
340.8400933581092
 20
18.80779410042309
 10
340.8400933581092
 20
18.80779410042309
 10
344.9297011398953
 20
18.8197089497044
 10
344.9297011398953
 20
18.8197089497044
 10
348.7525953706953
 20
18.81401192583584
 10
348.7525953706953
 20
18.81401192583584
 10
352.8803050883365
 20
18.78840484060788
 10
352.8803050883365
 20
18.78840484060788
 10
356.6777980285664
 20
18.74273251332783
 10
356.6777980285664
 20
18.74273251332783
 10
359.5354432177026
 20
18.68827998675847
 10
359.5354432177026
 20
18.68827998675847
 10
361.7453554973013
 20
18.62564073242688
 10
361.7453554973013
 20
18.62564073242688
 10
363.1932290597969
 20
18.5637274209454
 10
363.1932290597969
 20
18.5637274209454
 10
364.0187710033252
 20
18.50693810023808
 10
364.0187710033252
 20
18.50693810023808
 10
364.0441722938953
 20
18.50468381680989
 10
364.0441722938953
 20
18.50468381680989
 10
364.1711787467458
 20
18.26629977859997
 10
364.1711787467458
 20
18.26629977859997
 10
364.2981851995963
 20
17.57386838831448
 10
364.2981851995963
 20
17.57386838831448
 10
364.488694878872
 20
15.4035967592194
 10
364.488694878872
 20
15.4035967592194
 10
364.6538032675777
 20
13.50570130981946
 10
364.6538032675777
 20
13.50570130981946
 10
364.7173064940029
 20
13.02098949589276
 10
364.7173064940029
 20
13.02098949589276
 10
364.8062110109983
 20
12.54479596652532
 10
364.8062110109983
 20
12.54479596652532
 10
364.9332174638488
 20
12.31777266897702
 10
364.9332174638488
 20
12.31777266897702
 10
369.7975646080229
 20
12.55601666607404
 10
369.7975646080229
 20
12.55601666607404
 10
372.3503943103179
 20
12.6957451466515
 10
372.3503943103179
 20
12.6957451466515
 10
373.925274325664
 20
12.79587984122777
 10
373.925274325664
 20
12.79587984122777
 10
375.3604472428747
 20
12.9029246185019
 10
375.3604472428747
 20
12.9029246185019
 10
378.751519533983
 20
13.20778692998433
 10
378.751519533983
 20
13.20778692998433
 10
382.6379169912082
 20
13.60249924101376
 10
382.6379169912082
 20
13.60249924101376
 10
386.91803445227
 20
14.07335682549023
 10
386.91803445227
 20
14.07335682549023
 10
391.6553751435936
 20
14.6268568340733
 10
391.6553751435936
 20
14.6268568340733
 10
397.2944616501557
 20
15.30390338339352
 10
397.2944616501557
 20
15.30390338339352
 10
401.4348720130819
 20
15.80004028119587
 10
401.4348720130819
 20
15.80004028119587
 10
405.7530914099989
 20
16.30399071611905
 10
405.7530914099989
 20
16.30399071611905
 10
409.8935017729375
 20
16.75992975868726
 10
409.8935017729375
 20
16.75992975868726
 10
413.8434024566021
 20
17.16154874600911
 10
413.8434024566021
 20
17.16154874600911
 10
417.3741818458585
 20
17.47891218699956
 10
417.3741818458585
 20
17.47891218699956
 10
419.1776734763419
 20
17.60960006751561
 10
419.1776734763419
 20
17.60960006751561
 10
422.6576502844579
 20
17.8078846577599
 10
422.6576502844579
 20
17.8078846577599
 10
427.9080861092842
 20
18.06734801572024
 10
427.9080861092842
 20
18.06734801572024
 10
428.0300232400531
 20
18.07337384261631
 10
428.0300232400531
 20
18.07337384261631
 10
433.1356826446612
 20
18.29166841544652
 10
433.1356826446612
 20
18.29166841544652
 10
437.8730233360017
 20
18.45430459417843
 10
437.8730233360017
 20
18.45430459417843
 10
442.6484659631974
 20
18.56671067513966
 10
442.6484659631974
 20
18.56671067513966
 10
445.0361872767953
 20
18.59750987925076
 10
445.0361872767953
 20
18.59750987925076
 10
447.3477047186825
 20
18.60638772882962
 10
447.3477047186825
 20
18.60638772882962
 10
449.5830182888592
 20
18.59355163611913
 10
449.5830182888592
 20
18.59355163611913
 10
451.7294273420403
 20
18.56376451291585
 10
451.7294273420403
 20
18.56376451291585
 10
456.111149965398
 20
18.46161928214574
 10
456.111149965398
 20
18.46161928214574
 10
458.9052919281189
 20
18.36738978065991
  0
LINE
  5
3DD
330
1F
100
AcDbEntity
  8
Vector Layer 1
 62
    18
420
        0
370
    30
100
AcDbLine
 10
-24.96138470243524
 20
79.19280430086615
 30
0.0
 11
-24.62799480285313
 21
79.19280430086615
 31
0.0
  0
LWPOLYLINE
  5
3DE
330
1F
100
AcDbEntity
  8
Vector Layer 1
 62
    18
420
        0
370
    30
100
AcDbPolyline
 90
      444
 70
     0
 43
0.0
 10
-24.62835936616968
 20
468.1801917976176
 10
-24.62852287363122
 20
465.6274144407269
 10
-24.62852287363122
 20
465.6274144407269
 10
-24.74715056490015
 20
461.0679762759322
 10
-24.74715056490015
 20
461.0679762759322
 10
-24.94963033269952
 20
457.219759663306
 10
-24.94963033269952
 20
457.219759663306
 10
-25.02360686134409
 20
455.9370207924306
 10
-25.02360686134409
 20
455.9370207924306
 10
-25.20008440088342
 20
453.6763522873235
 10
-25.20008440088342
 20
453.6763522873235
 10
-25.39643566679071
 20
451.5426876308178
 10
-25.39643566679071
 20
451.5426876308178
 10
-25.62516292404245
 20
449.4598245137528
 10
-25.62516292404245
 20
449.4598245137528
 10
-25.90330274175714
 20
447.2118563935058
 10
-25.90330274175714
 20
447.2118563935058
 10
-26.54585224460672
 20
442.6524182287111
 10
-26.54585224460672
 20
442.6524182287111
 10
-27.15587284635614
 20
438.7661004615044
 10
-27.15587284635614
 20
438.7661004615044
 10
-27.39498282741616
 20
437.2674550480064
 10
-27.39498282741616
 20
437.2674550480064
 10
-28.07552510570597
 20
433.2795342019185
 10
-28.07552510570597
 20
433.2795342019185
 10
-28.50560271810602
 20
430.8664610784895
 10
-28.50560271810602
 20
430.8664610784895
 10
-29.16360064815592
 20
427.1071471598843
 10
-29.16360064815592
 20
427.1071471598843
 10
-29.53025250505518
 20
425.0877859671201
 10
-29.53025250505518
 20
425.0877859671201
 10
-29.78867756198954
 20
423.5002378596011
 10
-29.78867756198954
 20
423.5002378596011
 10
-30.02907440733026
 20
421.8237870580609
 10
-30.02907440733026
 20
421.8237870580609
 10
-30.24290431808542
 20
420.1854374111013
 10
-30.24290431808542
 20
420.1854374111013
 10
-30.07854601215433
 20
420.0584335624998
 10
-30.07854601215433
 20
420.0584335624998
 10
-29.54258369278025
 20
419.9314297138982
 10
-29.54258369278025
 20
419.9314297138982
 10
-27.92061238359522
 20
419.7536243258561
 10
-27.92061238359522
 20
419.7536243258561
 10
-26.3135565884025
 20
419.5885193226741
 10
-26.3135565884025
 20
419.5885193226741
 10
-25.82626196216653
 20
419.5250173983733
 10
-25.82626196216653
 20
419.5250173983733
 10
-25.35790392231058
 20
419.4234143194921
 10
-25.35790392231058
 20
419.4234143194921
 10
-25.1318593985946
 20
419.2964104708905
 10
-25.1318593985946
 20
419.2964104708905
 10
-25.0761820800216
 20
418.9280993099461
 10
-25.0761820800216
 20
418.9280993099461
 10
-24.99044663976739
 20
417.9247689059941
 10
-24.99044663976739
 20
417.9247689059941
 10
-24.89814819168161
 20
416.3118200287547
 10
-24.89814819168161
 20
416.3118200287547
 10
-24.81897121738504
 20
414.3305599905709
 10
-24.81897121738504
 20
414.3305599905709
 10
-24.74766076873849
 20
411.8285841731209
 10
-24.74766076873849
 20
411.8285841731209
 10
-24.6921832926185
 20
409.0344995038874
 10
-24.6921832926185
 20
409.0344995038874
 10
-24.64837540458749
 20
405.4529909733243
 10
-24.64837540458749
 20
405.4529909733243
 10
-24.63185660909723
 20
402.5446028403494
 10
-24.63185660909723
 20
402.5446028403494
 10
-24.63118592571329
 20
399.1154989281083
 10
-24.63118592571329
 20
399.1154989281083
 10
-24.65223902534555
 20
395.6228930915663
 10
-24.65223902534555
 20
395.6228930915663
 10
-24.68684659074853
 20
392.7907072677523
 10
-24.68684659074853
 20
392.7907072677523
 10
-24.74245123933862
 20
389.8696187499172
 10
-24.74245123933862
 20
389.8696187499172
 10
-24.8089654691131
 20
387.4565456264882
 10
-24.8089654691131
 20
387.4565456264882
 10
-24.88355666469644
 20
385.4879859731646
 10
-24.88355666469644
 20
385.4879859731646
 10
-24.96403715681146
 20
383.9512394050861
 10
-24.96403715681146
 20
383.9512394050861
 10
-25.04245563816141
 20
382.8971074616934
 10
-25.04245563816141
 20
382.8971074616934
 10
-25.11211133073877
 20
382.2620882186858
 10
-25.11211133073877
 20
382.2620882186858
 10
-25.14015286039422
 20
382.0842828306437
 10
-25.14015286039422
 20
382.0842828306437
 10
-25.34384530853341
 20
381.9572789820422
 10
-25.34384530853341
 20
381.9572789820422
 10
-25.91463168930124
 20
381.8302751334406
 10
-25.91463168930124
 20
381.8302751334406
 10
-27.68175977539133
 20
381.6397693605384
 10
-27.68175977539133
 20
381.6397693605384
 10
-29.23644019435953
 20
381.4746643573564
 10
-29.23644019435953
 20
381.4746643573564
 10
-29.64437919925761
 20
381.4111624330556
 10
-29.64437919925761
 20
381.4111624330556
 10
-30.02706387113642
 20
381.3222597390346
 10
-30.02706387113642
 20
381.3222597390346
 10
-30.21146092485498
 20
381.195255890433
 10
-30.21146092485498
 20
381.195255890433
 10
-30.01708386015009
 20
379.6585093223546
 10
-30.01708386015009
 20
379.6585093223546
 10
-29.77911540340494
 20
378.0074592905348
 10
-29.77911540340494
 20
378.0074592905348
 10
-29.52611485790323
 20
376.4580123375961
 10
-29.52611485790323
 20
376.4580123375961
 10
-29.11941275667261
 20
374.2100442173491
 10
-29.11941275667261
 20
374.2100442173491
 10
-28.86455609869074
 20
372.6351964946902
 10
-28.86455609869074
 20
372.6351964946902
 10
-28.62914017509531
 20
370.9841464628704
 10
-28.62914017509531
 20
370.9841464628704
 10
-28.36401282619547
 20
368.9393845003859
 10
-28.36401282619547
 20
368.9393845003859
 10
-28.19383789371561
 20
367.4915406263285
 10
-28.19383789371561
 20
367.4915406263285
 10
-27.84891133379054
 20
364.0116351746466
 10
-27.84891133379054
 20
364.0116351746466
 10
-27.53167809318612
 20
359.6935043221948
 10
-27.53167809318612
 20
359.6935043221948
 10
-27.46998733352731
 20
358.7155746879631
 10
-27.46998733352731
 20
358.7155746879631
 10
-27.27744215797494
 20
354.6387511478541
 10
-27.27744215797494
 20
354.6387511478541
 10
-27.21301416229318
 20
352.1621761001244
 10
-27.21301416229318
 20
352.1621761001244
 10
-27.19027602743219
 20
350.0285114436187
 10
-27.19027602743219
 20
350.0285114436187
 10
-27.21216785978387
 20
347.8440452476725
 10
-27.21216785978387
 20
347.8440452476725
 10
-27.26682779859613
 20
345.6087775122857
 10
-27.26682779859613
 20
345.6087775122857
 10
-27.42432484697412
 20
342.2177747546249
 10
-27.42432484697412
 20
342.2177747546249
 10
-27.49287989210199
 20
340.8207324200081
 10
-27.49287989210199
 20
340.8207324200081
 10
-27.80620863508295
 20
336.4645004129759
 10
-27.80620863508295
 20
336.4645004129759
 10
-28.08352788757395
 20
333.5815130497212
 10
-28.08352788757395
 20
333.5815130497212
 10
-28.22159479927134
 20
332.2225718696849
 10
-28.22159479927134
 20
332.2225718696849
 10
-28.42002624343943
 20
330.5842222227252
 10
-28.42002624343943
 20
330.5842222227252
 10
-28.66314669918131
 20
328.7299660331429
 10
-28.66314669918131
 20
328.7299660331429
 10
-28.88747439455103
 20
327.1805190802044
 10
-28.88747439455103
 20
327.1805190802044
 10
-29.15440789531778
 20
325.5548698181048
 10
-29.15440789531778
 20
325.5548698181048
 10
-29.53019194673609
 20
323.4847070859
 10
-29.53019194673609
 20
323.4847070859
 10
-29.78855947326731
 20
321.8971589783809
 10
-29.78855947326731
 20
321.8971589783809
 10
-30.02719709943842
 20
320.2334085617009
 10
-30.02719709943842
 20
320.2334085617009
 10
-30.24271810125422
 20
318.5823585298811
 10
-30.24271810125422
 20
318.5823585298811
 10
-30.07375887703013
 20
318.4553546812796
 10
-30.07375887703013
 20
318.4553546812796
 10
-29.52857352565836
 20
318.328350832678
 10
-29.52857352565836
 20
318.328350832678
 10
-27.88843623470377
 20
318.1505454446359
 10
-27.88843623470377
 20
318.1505454446359
 10
-26.17107194732736
 20
317.9727400565937
 10
-26.17107194732736
 20
317.9727400565937
 10
-25.7535238511474
 20
317.909238132293
 10
-25.7535238511474
 20
317.909238132293
 10
-25.34371056627344
 20
317.8203354382719
 10
-25.34371056627344
 20
317.8203354382719
 10
-25.1268058068664
 20
317.6933315896704
 10
-25.1268058068664
 20
317.6933315896704
 10
-25.06015986274789
 20
317.1726158104042
 10
-25.06015986274789
 20
317.1726158104042
 10
-24.97225037883829
 20
316.0549819427107
 10
-24.97225037883829
 20
316.0549819427107
 10
-24.88449986051629
 20
314.4166322957511
 10
-24.88449986051629
 20
314.4166322957511
 10
-24.79870083402704
 20
312.1051622512033
 10
-24.79870083402704
 20
312.1051622512033
 10
-24.72821549247812
 20
309.3745795062705
 10
-24.72821549247812
 20
309.3745795062705
 10
-24.67276829551767
 20
306.1105805972113
 10
-24.67276829551767
 20
306.1105805972113
 10
-24.64196984838556
 20
302.9862859216138
 10
-24.64196984838556
 20
302.9862859216138
 10
-24.62894526790689
 20
299.5825827790929
 10
-24.62894526790689
 20
299.5825827790929
 10
-24.63572931360315
 20
296.3185838700337
 10
-24.63572931360315
 20
296.3185838700337
 10
-24.65790122818063
 20
293.4609972764994
 10
-24.65790122818063
 20
293.4609972764994
 10
-24.6939637071998
 20
290.7431149164267
 10
-24.6939637071998
 20
290.7431149164267
 10
-24.75325181554865
 20
287.8093260137315
 10
-24.75325181554865
 20
287.8093260137315
 10
-24.82180837463449
 20
285.4724551994635
 10
-24.82180837463449
 20
285.4724551994635
 10
-24.90308218072961
 20
283.4657943915594
 10
-24.90308218072961
 20
283.4657943915594
 10
-24.98171413015436
 20
282.0814524418027
 10
-24.98171413015436
 20
282.0814524418027
 10
-25.05919698547434
 20
281.1162231924312
 10
-25.05919698547434
 20
281.1162231924312
 10
-25.12586715292047
 20
280.5701066434446
 10
-25.12586715292047
 20
280.5701066434446
 10
-25.14066457819055
 20
280.4812039494235
 10
-25.14066457819055
 20
280.4812039494235
 10
-25.34895643066477
 20
280.354200100822
 10
-25.34895643066477
 20
280.354200100822
 10
-25.9288099057586
 20
280.2271962522204
 10
-25.9288099057586
 20
280.2271962522204
 10
-27.71360436748575
 20
280.0366904793182
 10
-27.71360436748575
 20
280.0366904793182
 10
-29.26389885019373
 20
279.8715854761362
 10
-29.26389885019373
 20
279.8715854761362
 10
-29.65805023979258
 20
279.8080835518354
 10
-29.65805023979258
 20
279.8080835518354
 10
-30.04032462905954
 20
279.7191808578144
 10
-30.04032462905954
 20
279.7191808578144
 10
-30.21558948825907
 20
279.5921770092128
 10
-30.21558948825907
 20
279.5921770092128
 10
-29.99962792467188
 20
277.9284265925328
 10
-29.99962792467188
 20
277.9284265925328
 10
-29.77522604536127
 20
276.3789796395943
 10
-29.77522604536127
 20
276.3789796395943
 10
-29.52392870258402
 20
274.8422330715158
 10
-29.52392870258402
 20
274.8422330715158
 10
-29.13741523098062
 20
272.7085684150102
 10
-29.13741523098062
 20
272.7085684150102
 10
-28.86656663488459
 20
271.0448179983302
 10
-28.86656663488459
 20
271.0448179983302
 10
-28.62895547222208
 20
269.3810675816502
 10
-28.62895547222208
 20
269.3810675816502
 10
-28.3642308361442
 20
267.3363056191657
 10
-28.3642308361442
 20
267.3363056191657
 10
-28.19544874500346
 20
265.9011621299685
 10
-28.19544874500346
 20
265.9011621299685
 10
-27.86095789741587
 20
262.535560142028
 10
-27.86095789741587
 20
262.535560142028
 10
-27.72851533960413
 20
260.8083078010472
 10
-27.72851533960413
 20
260.8083078010472
 10
-27.50296285223078
 20
257.6967135103099
 10
-27.50296285223078
 20
257.6967135103099
 10
-27.28368117879938
 20
253.1753765000956
 10
-27.28368117879938
 20
253.1753765000956
 10
-27.21413146328043
 20
250.6225991432049
 10
-27.21413146328043
 20
250.6225991432049
 10
-27.19027602743219
 20
248.4381329472587
 10
-27.19027602743219
 20
248.4381329472587
 10
-27.21199072670053
 20
246.2536667513125
 10
-27.21199072670053
 20
246.2536667513125
 10
-27.26693528961252
 20
244.0056986310655
 10
-27.26693528961252
 20
244.0056986310655
 10
-27.45440416406701
 20
239.9796766303971
 10
-27.45440416406701
 20
239.9796766303971
 10
-27.50909135412286
 20
238.9763462264451
 10
-27.50909135412286
 20
238.9763462264451
 10
-27.81384958099436
 20
234.7598184528744
 10
-27.81384958099436
 20
234.7598184528744
 10
-28.1337534434707
 20
231.4704187740949
 10
-28.1337534434707
 20
231.4704187740949
 10
-28.2425010449798
 20
230.4416876004226
 10
-28.2425010449798
 20
230.4416876004226
 10
-28.4494333631904
 20
228.7525364140223
 10
-28.4494333631904
 20
228.7525364140223
 10
-28.6666409141929
 20
227.1014863822025
 10
-28.6666409141929
 20
227.1014863822025
 10
-28.89136526655267
 20
225.5520394292639
 10
-28.89136526655267
 20
225.5520394292639
 10
-29.14316070150446
 20
224.0152928611854
 10
-29.14316070150446
 20
224.0152928611854
 10
-29.53011322092127
 20
221.8816282046798
 10
-29.53011322092127
 20
221.8816282046798
 10
-29.78650503229212
 20
220.3067804820209
 10
-29.78650503229212
 20
220.3067804820209
 10
-30.02531979154657
 20
218.6430300653409
 10
-30.02531979154657
 20
218.6430300653409
 10
-30.24088469814371
 20
216.991980033521
 10
-30.24088469814371
 20
216.991980033521
 10
-30.19039874147486
 20
216.9411784940804
 10
-30.19039874147486
 20
216.9411784940804
 10
-30.06885819505762
 20
216.8522758000594
 10
-30.06885819505762
 20
216.8522758000594
 10
-29.51408948968958
 20
216.7252719514578
 10
-29.51408948968958
 20
216.7252719514578
 10
-27.85594669651102
 20
216.5474665634157
 10
-27.85594669651102
 20
216.5474665634157
 10
-26.25795193981241
 20
216.3823615602337
 10
-26.25795193981241
 20
216.3823615602337
 10
-25.79787070821832
 20
216.318859635933
 10
-25.79787070821832
 20
216.318859635933
 10
-25.3302106029899
 20
216.2172565570517
 10
-25.3302106029899
 20
216.2172565570517
 10
-25.12212313484262
 20
216.0902527084502
 10
-25.12212313484262
 20
216.0902527084502
 10
-25.04540937017511
 20
215.4171323108621
 10
-25.04540937017511
 20
215.4171323108621
 10
-24.95767550539087
 20
214.2232961340078
 10
-24.95767550539087
 20
214.2232961340078
 10
-24.87681349586557
 20
212.6357480264887
 10
-24.87681349586557
 20
212.6357480264887
 10
-24.79274643730234
 20
210.3115775970808
 10
-24.79274643730234
 20
210.3115775970808
 10
-24.72768106531213
 20
207.74609985533
 10
-24.72768106531213
 20
207.74609985533
 10
-24.67273801635812
 20
204.5075017159911
 10
-24.67273801635812
 20
204.5075017159911
 10
-24.64189263652872
 20
201.3705066555334
 10
-24.64189263652872
 20
201.3705066555334
 10
-24.62894526790689
 20
197.9541031281524
 10
-24.62894526790689
 20
197.9541031281524
 10
-24.63575656484674
 20
194.7155049888135
 10
-24.63575656484674
 20
194.7155049888135
 10
-24.65776951383661
 20
191.8706187801393
 10
-24.65776951383661
 20
191.8706187801393
 10
-24.69401972364496
 20
189.1400360352065
 10
-24.69401972364496
 20
189.1400360352065
 10
-24.75333508323739
 20
186.2062471325113
 10
-24.75333508323739
 20
186.2062471325113
 10
-24.82192192148279
 20
183.8693763182432
 10
-24.82192192148279
 20
183.8693763182432
 10
-24.90322449277948
 20
181.8627155103391
 10
-24.90322449277948
 20
181.8627155103391
 10
-24.98192759822916
 20
180.4783735605825
 10
-24.98192759822916
 20
180.4783735605825
 10
-25.05950129102777
 20
179.5131443112109
 10
-25.05950129102777
 20
179.5131443112109
 10
-25.1263788707168
 20
178.9670277622243
 10
-25.1263788707168
 20
178.9670277622243
 10
-25.14323073696207
 20
178.8781250682033
 10
-25.14323073696207
 20
178.8781250682033
 10
-25.35812798809122
 20
178.7511212196018
 10
-25.35812798809122
 20
178.7511212196018
 10
-25.94901064704965
 20
178.6241173710003
 10
-25.94901064704965
 20
178.6241173710003
 10
-27.74573509763789
 20
178.4336115980979
 10
-27.74573509763789
 20
178.4336115980979
 10
-29.29146802496027
 20
178.268506594916
 10
-29.29146802496027
 20
178.268506594916
 10
-29.67185602258753
 20
178.2050046706152
 10
-29.67185602258753
 20
178.2050046706152
 10
-30.05001396011423
 20
178.1161019765941
 10
-30.05001396011423
 20
178.1161019765941
 10
-30.21824345659327
 20
177.9890981279926
 10
-30.21824345659327
 20
177.9890981279926
 10
-29.98392666648936
 20
176.2110442475713
 10
-29.98392666648936
 20
176.2110442475713
 10
-29.7673428661735
 20
174.7250992189334
 10
-29.7673428661735
 20
174.7250992189334
 10
-29.52174406122278
 20
173.2264538054354
 10
-29.52174406122278
 20
173.2264538054354
 10
-29.13748184513162
 20
171.10548953379
 10
-29.13748184513162
 20
171.10548953379
 10
-28.86669834922861
 20
169.44173911711
 10
-28.86669834922861
 20
169.44173911711
 10
-28.62914471696925
 20
167.77798870043
 10
-28.62914471696925
 20
167.77798870043
 10
-28.36444733213495
 20
165.7332267379454
 10
-28.36444733213495
 20
165.7332267379454
 10
-28.19570763181757
 20
164.2980832487482
 10
-28.19570763181757
 20
164.2980832487482
 10
-27.85010281871866
 20
160.8181777970664
 10
-27.85010281871866
 20
160.8181777970664
 10
-27.54119786094736
 20
156.6143504083559
 10
-27.54119786094736
 20
156.6143504083559
 10
-27.47677894901346
 20
155.6491211589843
 10
-27.47677894901346
 20
155.6491211589843
 10
-27.27720598053049
 20
151.4198930005536
 10
-27.27720598053049
 20
151.4198930005536
 10
-27.21313527893137
 20
148.9687187225441
 10
-27.21313527893137
 20
148.9687187225441
 10
-27.19027602743219
 20
146.8350540660385
 10
-27.19027602743219
 20
146.8350540660385
 10
-27.21204674314569
 20
144.6505878700922
 10
-27.21204674314569
 20
144.6505878700922
 10
-27.26445996831964
 20
142.4788220590061
 10
-27.26445996831964
 20
142.4788220590061
 10
-27.41166058849405
 20
139.2783250742477
 10
-27.41166058849405
 20
139.2783250742477
 10
-27.48960822891306
 20
137.6653761970084
 10
-27.48960822891306
 20
137.6653761970084
 10
-27.80510647367548
 20
133.2710430353956
 10
-27.80510647367548
 20
133.2710430353956
 10
-28.09331411193918
 20
130.2737522083996
 10
-28.09331411193918
 20
130.2737522083996
 10
-28.2202504045875
 20
129.0291144921047
 10
-28.2202504045875
 20
129.0291144921047
 10
-28.41471679281305
 20
127.4161656148653
 10
-28.41471679281305
 20
127.4161656148653
 10
-28.66649557422709
 20
125.4984075009822
 10
-28.66649557422709
 20
125.4984075009822
 10
-28.89126231741022
 20
123.9489605480436
 10
-28.89126231741022
 20
123.9489605480436
 10
-29.1386506206901
 20
122.4376147496855
 10
-29.1386506206901
 20
122.4376147496855
 10
-29.57048442434381
 20
120.0499423959768
 10
-29.57048442434381
 20
120.0499423959768
 10
-30.08601133894038
 20
117.0907527235613
 10
-30.08601133894038
 20
117.0907527235613
 10
-30.3946483261497
 20
115.3889011523008
 10
-30.3946483261497
 20
115.3889011523008
 10
-30.23594011138987
 20
115.2618973036993
 10
-30.23594011138987
 20
115.2618973036993
 10
-29.62565153907847
 20
115.1221930702376
 10
-29.62565153907847
 20
115.1221930702376
 10
-27.77435495924067
 20
114.9316872973353
 10
-27.77435495924067
 20
114.9316872973353
 10
-26.0293291456611
 20
114.7538819092932
 10
-26.0293291456611
 20
114.7538819092932
 10
-25.33144750665735
 20
114.6141776758315
 10
-25.33144750665735
 20
114.6141776758315
 10
-25.12169619869303
 20
114.48717382723
 10
-25.12169619869303
 20
114.48717382723
 10
-25.04290074180673
 20
113.7886526599216
 10
-25.04290074180673
 20
113.7886526599216
 10
-24.95519261430811
 20
112.5821160982071
 10
-24.95519261430811
 20
112.5821160982071
 10
-24.86714536022256
 20
110.8167626026459
 10
-24.86714536022256
 20
110.8167626026459
 10
-24.78539465736459
 20
108.4671914035177
 10
-24.78539465736459
 20
108.4671914035177
 10
-24.71707578968118
 20
105.6350055797037
 10
-24.71707578968118
 20
105.6350055797037
 10
-24.67234892915796
 20
102.8663216801904
 10
-24.67234892915796
 20
102.8663216801904
 10
-24.64193956922601
 20
99.7801281591734
 10
-24.64193956922601
 20
99.7801281591734
 10
-24.62894526790689
 20
96.37642501665252
 10
-24.62894526790689
 20
96.37642501665252
 10
-24.63567026924204
 20
93.12512649245347
 10
-24.63567026924204
 20
93.12512649245347
 10
-24.65881263088296
 20
90.15323643517779
 10
-24.65881263088296
 20
90.15323643517779
 10
-24.70098393034052
 20
87.13054483846148
 10
-24.70098393034052
 20
87.13054483846148
 10
-24.75481876205515
 20
84.55236671185053
 10
-24.75481876205515
 20
84.55236671185053
 10
-24.82203546833109
 20
82.26629743702307
 10
-24.82203546833109
 20
82.26629743702307
 10
-24.90336680482934
 20
80.25963662911896
 10
-24.90336680482934
 20
80.25963662911896
 10
-24.96138470243524
 20
79.19280430086615
  0
LINE
  5
3DF
330
1F
100
AcDbEntity
  8
Vector Layer 1
 62
    18
420
        0
370
    30
100
AcDbLine
 10
-24.62835935403642
 20
468.1803812294215
 30
0.0
 11
-24.62799480285263
 21
468.1803812294215
 31
0.0
  0
ENDSEC
  0
SECTION
  2
OBJECTS
  0
DICTIONARY
  5
C
330
0
100
AcDbDictionary
281
     1
  3
ACAD_CIP_PREVIOUS_PRODUCT_INFO
350
216
  3
ACAD_COLOR
350
6B
  3
ACAD_DETAILVIEWSTYLE
350
21B
  3
ACAD_GROUP
350
D
  3
ACAD_LAYOUT
350
1A
  3
ACAD_MATERIAL
350
6A
  3
ACAD_MLEADERSTYLE
350
12D
  3
ACAD_MLINESTYLE
350
17
  3
ACAD_PLOTSETTINGS
350
19
  3
ACAD_PLOTSTYLENAME
350
E
  3
ACAD_SCALELIST
350
10C
  3
ACAD_SECTIONVIEWSTYLE
350
219
  3
ACAD_TABLESTYLE
350
7E
  3
ACAD_VISUALSTYLE
350
EF
  3
ACDB_RECOMPOSE_DATA
350
3E2
  3
AcDbVariableDictionary
350
5E
  3
AcDsDecomposeData
350
3E8
  0
DICTIONARY
  5
1FF
330
2
100
AcDbDictionary
280
     1
281
     1
  3
ACAD_LAYERSTATES
360
200
  0
DICTIONARY
  5
13C
330
10
100
AcDbDictionary
280
     1
281
     1
  0
DICTIONARY
  5
1CE
330
1F
100
AcDbDictionary
280
     1
281
     1
  0
XRECORD
  5
216
102
{ACAD_REACTORS
330
C
102
}
330
C
100
AcDbXrecord
280
     1
300
ACD
300
2015
300

  0
DICTIONARY
  5
6B
102
{ACAD_REACTORS
330
C
102
}
330
C
100
AcDbDictionary
281
     1
  0
DICTIONARY
  5
21B
102
{ACAD_REACTORS
330
C
102
}
330
C
100
AcDbDictionary
281
     1
  3
Metric50
350
21C
  0
DICTIONARY
  5
D
102
{ACAD_REACTORS
330
C
102
}
330
C
100
AcDbDictionary
281
     1
  0
DICTIONARY
  5
1A
102
{ACAD_REACTORS
330
C
102
}
330
C
100
AcDbDictionary
281
     1
  3
Layout1
350
D3
  3
Layout2
350
D7
  3
Model
350
22
  0
DICTIONARY
  5
6A
102
{ACAD_REACTORS
330
C
102
}
330
C
100
AcDbDictionary
281
     1
  3
ByBlock
350
ED
  3
ByLayer
350
EC
  3
Global
350
EE
  0
DICTIONARY
  5
12D
102
{ACAD_REACTORS
330
C
102
}
330
C
100
AcDbDictionary
281
     1
  3
Annotative
350
13B
  3
Standard
350
12E
  0
DICTIONARY
  5
17
102
{ACAD_REACTORS
330
C
102
}
330
C
100
AcDbDictionary
281
     1
  3
Standard
350
18
  0
DICTIONARY
  5
19
102
{ACAD_REACTORS
330
C
102
}
330
C
100
AcDbDictionary
281
     1
  0
ACDBDICTIONARYWDFLT
  5
E
102
{ACAD_REACTORS
330
C
102
}
330
C
100
AcDbDictionary
281
     1
  3
Normal
350
F
100
AcDbDictionaryWithDefault
340
F
  0
DICTIONARY
  5
10C
102
{ACAD_REACTORS
330
C
102
}
330
C
100
AcDbDictionary
281
     1
  3
A0
350
10D
  3
A1
350
1BE
  3
A2
350
1BF
  3
A3
350
1C0
  3
A4
350
1C1
  3
A5
350
1C2
  3
A6
350
1C3
  3
A7
350
1C4
  3
A8
350
1C5
  3
A9
350
1C6
  3
B0
350
1C7
  3
B1
350
1C8
  3
B2
350
1C9
  3
B3
350
1CA
  3
B4
350
1CB
  3
B5
350
1CC
  3
B6
350
1CD
  0
DICTIONARY
  5
219
102
{ACAD_REACTORS
330
C
102
}
330
C
100
AcDbDictionary
281
     1
  3
Metric50
350
21A
  0
DICTIONARY
  5
7E
102
{ACAD_REACTORS
330
C
102
}
330
C
100
AcDbDictionary
281
     1
  3
Standard
350
7F
  0
DICTIONARY
  5
EF
102
{ACAD_REACTORS
330
C
102
}
330
C
100
AcDbDictionary
281
     1
  3
2dWireframe
350
F5
  3
Basic
350
F4
  3
Brighten
350
FB
  3
ColorChange
350
FF
  3
Conceptual
350
F8
  3
Dim
350
FA
  3
EdgeColorOff
350
1E6
  3
Facepattern
350
FE
  3
Flat
350
F0
  3
FlatWithEdges
350
F1
  3
Gouraud
350
F2
  3
GouraudWithEdges
350
F3
  3
Hidden
350
F7
  3
JitterOff
350
1E4
  3
Linepattern
350
FD
  3
OverhangOff
350
1E5
  3
Realistic
350
F9
  3
Shaded
350
1F3
  3
Shaded with edges
350
1F2
  3
Shades of Gray
350
1EF
  3
Sketchy
350
1F0
  3
Thicken
350
FC
  3
Wireframe
350
F6
  3
X-Ray
350
1F1
  0
XRECORD
  5
3E2
102
{ACAD_REACTORS
330
C
102
}
330
C
100
AcDbXrecord
280
     1
 90
        1
330
7F
  0
DICTIONARY
  5
5E
102
{ACAD_REACTORS
330
C
102
}
330
C
100
AcDbDictionary
281
     1
  3
CANNOSCALE
350
146
  3
CMLEADERSTYLE
350
145
  3
CTABLESTYLE
350
84
  3
CVIEWDETAILSTYLE
350
227
  3
CVIEWSECTIONSTYLE
350
228
  3
DIMASSOC
350
5F
  3
HIDETEXT
350
63
  3
LAYEREVAL
350
1AE
  3
LAYERNOTIFY
350
1AF
  3
XCLIPFRAME
350
3E0
  0
DICTIONARY
  5
3E8
102
{ACAD_REACTORS
330
C
102
}
330
C
100
AcDbDictionary
281
     1
  3
AcDsRecords
350
3EA
  3
AcDsSchemas
350
3E9
1001
ACAD
1070
     2
  0
DICTIONARY
  5
200
102
{ACAD_REACTORS
330
1FF
102
}
330
1FF
100
AcDbDictionary
281
     1
  0
ACDBDETAILVIEWSTYLE
  5
21C
102
{ACAD_XDICTIONARY
360
236
102
}
102
{ACAD_REACTORS
330
21B
102
}
330
21B
100
AcDbModelDocViewStyle
 70
     0
  3
Metric50
290
     0
100
AcDbDetailViewStyle
 70
     0
 71
     0
 90
        3
 71
     1
340
11
 62
   256
 40
5.0
340
0
 62
   256
 40
5.0
300

 40
0.0
280
     1
 71
     2
340
16
 90
       25
 62
   256
 71
     3
340
11
 62
   256
 40
5.0
 90
        0
 40
15.0
 90
        1
300
%<\AcVar ViewDetailId>% (%<\AcVar ViewScale \f "%sn">%)
 71
     4
340
16
 90
       25
 62
   256
340
16
 90
       25
 62
   256
280
     0
  0
LAYOUT
  5
D3
102
{ACAD_REACTORS
330
1A
102
}
330
1A
100
AcDbPlotSettings
  1

  2
C:\Documents and Settings\basas\Application Data\Autodesk\AutoCAD 2005\R16.1\enu\plotters\Default Windows System Printer.pc3
  4

  6

 40
0.0
 41
0.0
 42
0.0
 43
0.0
 44
0.0
 45
0.0
 46
0.0
 47
0.0
 48
0.0
 49
0.0
140
0.0
141
0.0
142
1.0
143
1.0
 70
   688
 72
     0
 73
     0
 74
     5
  7

 75
    16
147
1.0
 76
     0
 77
     2
 78
   300
148
0.0
149
0.0
100
AcDbLayout
  1
Layout1
 70
     1
 71
     1
 10
0.0
 20
0.0
 11
12.0
 21
9.0
 12
0.0
 22
0.0
 32
0.0
 14
0.0
 24
0.0
 34
0.0
 15
0.0
 25
0.0
 35
0.0
146
0.0
 13
0.0
 23
0.0
 33
0.0
 16
1.0
 26
0.0
 36
0.0
 17
0.0
 27
1.0
 37
0.0
 76
     0
330
D2
  0
LAYOUT
  5
D7
102
{ACAD_REACTORS
330
1A
102
}
330
1A
100
AcDbPlotSettings
  1

  2
C:\Documents and Settings\basas\Application Data\Autodesk\AutoCAD 2005\R16.1\enu\plotters\Default Windows System Printer.pc3
  4

  6

 40
0.0
 41
0.0
 42
0.0
 43
0.0
 44
0.0
 45
0.0
 46
0.0
 47
0.0
 48
0.0
 49
0.0
140
0.0
141
0.0
142
1.0
143
1.0
 70
   688
 72
     0
 73
     0
 74
     5
  7

 75
    16
147
1.0
 76
     0
 77
     2
 78
   300
148
0.0
149
0.0
100
AcDbLayout
  1
Layout2
 70
     1
 71
     2
 10
0.0
 20
0.0
 11
12.0
 21
9.0
 12
0.0
 22
0.0
 32
0.0
 14
0.0
 24
0.0
 34
0.0
 15
0.0
 25
0.0
 35
0.0
146
0.0
 13
0.0
 23
0.0
 33
0.0
 16
1.0
 26
0.0
 36
0.0
 17
0.0
 27
1.0
 37
0.0
 76
     0
330
D6
  0
LAYOUT
  5
22
102
{ACAD_XDICTIONARY
360
205
102
}
102
{ACAD_REACTORS
330
1A
102
}
330
1A
100
AcDbPlotSettings
  1

  2
none_device
  4
ISO_A4_(210.00_x_297.00_MM)
  6

 40
7.5
 41
20.0
 42
7.5
 43
20.0
 44
210.0
 45
297.0
 46
11.54999923706054
 47
-13.65000009536743
 48
0.0
 49
0.0
140
0.0
141
0.0
142
1.0
143
8.704084754739808
 70
 11952
 72
     1
 73
     0
 74
     0
  7

 75
     0
147
0.1148885871608098
 76
     0
 77
     2
 78
   300
148
0.0
149
0.0
100
AcDbLayout
  1
Model
 70
     1
 71
     0
 10
0.0
 20
0.0
 11
12.0
 21
9.0
 12
0.0
 22
0.0
 32
0.0
 14
0.0
 24
0.0
 34
0.0
 15
0.0
 25
0.0
 35
0.0
146
0.0
 13
0.0
 23
0.0
 33
0.0
 16
1.0
 26
0.0
 36
0.0
 17
0.0
 27
1.0
 37
0.0
 76
     0
330
1F
331
EA
1001
ACAD_PSEXT
1000
None
1000
None
1000
Not applicable
1000
The layout will not be plotted unless a new plotter configuration name is selected.
1070
     0
  0
MATERIAL
  5
ED
102
{ACAD_XDICTIONARY
360
1F9
102
}
102
{ACAD_REACTORS
330
6A
102
}
330
6A
100
AcDbMaterial
  1
ByBlock
 94
       63
  0
MATERIAL
  5
EC
102
{ACAD_XDICTIONARY
360
1F7
102
}
102
{ACAD_REACTORS
330
6A
102
}
330
6A
100
AcDbMaterial
  1
ByLayer
 94
       63
  0
MATERIAL
  5
EE
102
{ACAD_XDICTIONARY
360
173
102
}
102
{ACAD_REACTORS
330
6A
102
}
330
6A
100
AcDbMaterial
  1
Global
 43
0.0007999999797903
 43
0.0
 43
0.0
 43
0.0
 43
0.0
 43
0.0007999999797903
 43
0.0
 43
0.0
 43
0.0
 43
0.0
 43
1.0
 43
0.0
 43
0.0
 43
0.0
 43
0.0
 43
1.0
 49
0.0007999999797903
 49
0.0
 49
0.0
 49
0.0
 49
0.0
 49
0.0007999999797903
 49
0.0
 49
0.0
 49
0.0
 49
0.0
 49
1.0
 49
0.0
 49
0.0
 49
0.0
 49
0.0
 49
1.0
142
0.0007999999797903
142
0.0
142
0.0
142
0.0
142
0.0
142
0.0007999999797903
142
0.0
142
0.0
142
0.0
142
0.0
142
1.0
142
0.0
142
0.0
142
0.0
142
0.0
142
1.0
144
0.0007999999797903
144
0.0
144
0.0
144
0.0
144
0.0
144
0.0007999999797903
144
0.0
144
0.0
144
0.0
144
0.0
144
1.0
144
0.0
144
0.0
144
0.0
144
0.0
144
1.0
 94
       63
1001
ACAD
1070
    -1
1070
     3
1070
     0
1000

1071
        0
1070
     0
  0
MLEADERSTYLE
  5
13B
102
{ACAD_REACTORS
330
12D
102
}
330
12D
100
AcDbMLeaderStyle
170
     2
171
     1
172
     0
 90
        2
 40
0.0
 41
0.0
173
     1
 91
-1056964608
340
14
 92
       -2
290
     1
 42
2.0
291
     1
 43
8.0
  3
Standard
 44
4.0
300

342
11
174
     1
178
     1
175
     1
176
     0
 93
-1056964608
 45
4.0
292
     0
297
     0
 46
4.0
 94
-1056964608
 47
1.0
 49
1.0
140
1.0
293
     1
141
0.0
294
     1
177
     0
142
1.0
295
     0
296
     1
143
3.75
1001
ACAD_MLEADERVER
1070
     2
  0
MLEADERSTYLE
  5
12E
102
{ACAD_REACTORS
330
12D
102
}
330
12D
100
AcDbMLeaderStyle
170
     2
171
     1
172
     0
 90
        2
 40
0.0
 41
0.0
173
     1
 91
-1056964608
340
14
 92
       -2
290
     1
 42
2.0
291
     1
 43
8.0
  3
Standard
 44
4.0
300

342
11
174
     1
178
     1
175
     1
176
     0
 93
-1056964608
 45
4.0
292
     0
297
     0
 46
4.0
 94
-1056964608
 47
1.0
 49
1.0
140
1.0
293
     1
141
0.0
294
     1
177
     0
142
1.0
295
     0
296
     0
143
3.75
1001
ACAD_MLEADERVER
1070
     2
  0
MLINESTYLE
  5
18
102
{ACAD_REACTORS
330
17
102
}
330
17
100
AcDbMlineStyle
  2
STANDARD
 70
     0
  3

 62
   256
 51
90.0
 52
90.0
 71
     2
 49
0.5
 62
   256
  6
BYLAYER
 49
-0.5
 62
   256
  6
BYLAYER
  0
ACDBPLACEHOLDER
  5
F
102
{ACAD_REACTORS
330
E
102
}
330
E
  0
SCALE
  5
10D
102
{ACAD_REACTORS
330
10C
102
}
330
10C
100
AcDbScale
 70
     0
300
1:1
140
1.0
141
1.0
290
     1
  0
SCALE
  5
1BE
102
{ACAD_REACTORS
330
10C
102
}
330
10C
100
AcDbScale
 70
     0
300
1:2
140
1.0
141
2.0
290
     0
  0
SCALE
  5
1BF
102
{ACAD_REACTORS
330
10C
102
}
330
10C
100
AcDbScale
 70
     0
300
1:4
140
1.0
141
4.0
290
     0
  0
SCALE
  5
1C0
102
{ACAD_REACTORS
330
10C
102
}
330
10C
100
AcDbScale
 70
     0
300
1:5
140
1.0
141
5.0
290
     0
  0
SCALE
  5
1C1
102
{ACAD_REACTORS
330
10C
102
}
330
10C
100
AcDbScale
 70
     0
300
1:8
140
1.0
141
8.0
290
     0
  0
SCALE
  5
1C2
102
{ACAD_REACTORS
330
10C
102
}
330
10C
100
AcDbScale
 70
     0
300
1:10
140
1.0
141
10.0
290
     0
  0
SCALE
  5
1C3
102
{ACAD_REACTORS
330
10C
102
}
330
10C
100
AcDbScale
 70
     0
300
1:16
140
1.0
141
16.0
290
     0
  0
SCALE
  5
1C4
102
{ACAD_REACTORS
330
10C
102
}
330
10C
100
AcDbScale
 70
     0
300
1:20
140
1.0
141
20.0
290
     0
  0
SCALE
  5
1C5
102
{ACAD_REACTORS
330
10C
102
}
330
10C
100
AcDbScale
 70
     0
300
1:30
140
1.0
141
30.0
290
     0
  0
SCALE
  5
1C6
102
{ACAD_REACTORS
330
10C
102
}
330
10C
100
AcDbScale
 70
     0
300
1:40
140
1.0
141
40.0
290
     0
  0
SCALE
  5
1C7
102
{ACAD_REACTORS
330
10C
102
}
330
10C
100
AcDbScale
 70
     0
300
1:50
140
1.0
141
50.0
290
     0
  0
SCALE
  5
1C8
102
{ACAD_REACTORS
330
10C
102
}
330
10C
100
AcDbScale
 70
     0
300
1:100
140
1.0
141
100.0
290
     0
  0
SCALE
  5
1C9
102
{ACAD_REACTORS
330
10C
102
}
330
10C
100
AcDbScale
 70
     0
300
2:1
140
2.0
141
1.0
290
     0
  0
SCALE
  5
1CA
102
{ACAD_REACTORS
330
10C
102
}
330
10C
100
AcDbScale
 70
     0
300
4:1
140
4.0
141
1.0
290
     0
  0
SCALE
  5
1CB
102
{ACAD_REACTORS
330
10C
102
}
330
10C
100
AcDbScale
 70
     0
300
8:1
140
8.0
141
1.0
290
     0
  0
SCALE
  5
1CC
102
{ACAD_REACTORS
330
10C
102
}
330
10C
100
AcDbScale
 70
     0
300
10:1
140
10.0
141
1.0
290
     0
  0
SCALE
  5
1CD
102
{ACAD_REACTORS
330
10C
102
}
330
10C
100
AcDbScale
 70
     0
300
100:1
140
100.0
141
1.0
290
     0
  0
ACDBSECTIONVIEWSTYLE
  5
21A
102
{ACAD_XDICTIONARY
360
234
102
}
102
{ACAD_REACTORS
330
219
102
}
330
219
100
AcDbModelDocViewStyle
 70
     0
  3
Metric50
290
     0
100
AcDbSectionViewStyle
 70
     0
 71
     0
 90
      102
 71
     1
340
11
 62
   256
 40
5.0
340
0
340
0
 62
   256
 40
5.0
300
I, O, Q, S, X, Z
 40
10.0
 90
        0
 40
2.5
 90
        0
 71
     2
340
16
 90
       25
 62
   256
340
16
 90
       50
 62
   256
 40
5.0
 40
2.5
 40
5.0
 71
     3
340
11
 62
   256
 40
5.0
 90
        0
 40
15.0
 90
        1
300
%<\AcVar ViewSectionStartId>%-%<\AcVar ViewSectionEndId>% (%<\AcVar ViewScale \f "%sn">%)
 71
     4
 62
   256
 62
   257
300
ANSI31
 40
1.0
 90
        0
290
     0
290
     0
 90
        6
 40
0.0
 40
1.570796326794896
 40
0.2617993877991494
 40
1.308996938995747
 40
-0.2617993877991494
 40
1.832595714594046
  0
TABLESTYLE
  5
7F
102
{ACAD_XDICTIONARY
360
162
102
}
102
{ACAD_REACTORS
330
7E
102
}
330
7E
100
AcDbTableStyle
  3
Standard
 70
     0
 71
     0
 40
1.5
 41
1.5
280
     0
281
     0
  7
Standard
140
4.5
170
     2
 62
     0
 63
     7
283
     0
 90
      512
 91
        0
  1

274
    -2
284
     1
 64
     0
275
    -2
285
     1
 65
     0
276
    -2
286
     1
 66
     0
277
    -2
287
     1
 67
     0
278
    -2
288
     1
 68
     0
279
    -2
289
     1
 69
     0
  7
Standard
140
6.0
170
     5
 62
     0
 63
     7
283
     0
 90
      512
 91
        0
  1

274
    -2
284
     1
 64
     0
275
    -2
285
     1
 65
     0
276
    -2
286
     1
 66
     0
277
    -2
287
     1
 67
     0
278
    -2
288
     1
 68
     0
279
    -2
289
     1
 69
     0
  7
Standard
140
4.5
170
     5
 62
     0
 63
     7
283
     0
 90
      512
 91
        0
  1

274
    -2
284
     1
 64
     0
275
    -2
285
     1
 65
     0
276
    -2
286
     1
 66
     0
277
    -2
287
     1
 67
     0
278
    -2
288
     1
 68
     0
279
    -2
289
     1
 69
     0
  0
VISUALSTYLE
  5
F5
102
{ACAD_XDICTIONARY
360
3F5
102
}
102
{ACAD_REACTORS
330
EF
102
}
330
EF
100
AcDbVisualStyle
  2
2dWireframe
 70
     4
 71
     0
 72
     2
 73
     1
 90
        0
 40
-0.6
 41
-30.0
 62
     5
 63
     7
421
 16777215
 74
     1
 91
        4
 64
     7
 65
   257
 75
     1
175
     1
 42
1.0
 92
        0
 66
   257
 43
1.0
 76
     1
 77
     6
 78
     2
 67
     7
 79
     5
170
     0
171
     0
290
     0
174
     0
 93
        1
 44
0.0
173
     0
291
     0
 45
0.0
1001
ACAD
1000
AcDbSavedByObjectVersion
1070
     0
  0
VISUALSTYLE
  5
F4
102
{ACAD_XDICTIONARY
360
3F3
102
}
102
{ACAD_REACTORS
330
EF
102
}
330
EF
100
AcDbVisualStyle
  2
Basic
 70
     7
 71
     1
 72
     0
 73
     1
 90
        0
 40
-0.6
 41
-30.0
 62
     5
 63
     7
421
 16777215
 74
     0
 91
        4
 64
     7
 65
   257
 75
     1
175
     1
 42
1.0
 92
        8
 66
     7
 43
1.0
 76
     1
 77
     6
 78
     2
 67
     7
 79
     5
170
     0
171
     0
290
     0
174
     0
 93
        1
 44
0.0
173
     0
291
     1
 45
0.0
1001
ACAD
1000
AcDbSavedByObjectVersion
1070
     0
  0
VISUALSTYLE
  5
FB
102
{ACAD_XDICTIONARY
360
401
102
}
102
{ACAD_REACTORS
330
EF
102
}
330
EF
100
AcDbVisualStyle
  2
Brighten
 70
    12
 71
     2
 72
     2
 73
     1
 90
        0
 40
-0.6
 41
-30.0
 62
     5
 63
     7
421
 16777215
 74
     1
 91
        4
 64
     7
 65
   257
 75
     1
175
     1
 42
1.0
 92
        8
 66
     7
 43
1.0
 76
     1
 77
     6
 78
     2
 67
     7
 79
     5
170
     0
171
     0
290
     0
174
     0
 93
        1
 44
50.0
173
     0
291
     1
 45
0.0
1001
ACAD
1000
AcDbSavedByObjectVersion
1070
     0
  0
VISUALSTYLE
  5
FF
102
{ACAD_XDICTIONARY
360
409
102
}
102
{ACAD_REACTORS
330
EF
102
}
330
EF
100
AcDbVisualStyle
  2
ColorChange
 70
    16
 71
     2
 72
     2
 73
     3
 90
        0
 40
-0.6
 41
-30.0
 62
     5
 63
     8
421
  8421504
 74
     1
 91
        4
 64
     7
 65
   257
 75
     1
175
     1
 42
1.0
 92
        8
 66
     8
424
  8421504
 43
1.0
 76
     1
 77
     6
 78
     2
 67
     7
 79
     5
170
     0
171
     0
290
     0
174
     0
 93
        1
 44
0.0
173
     0
291
     1
 45
0.0
1001
ACAD
1000
AcDbSavedByObjectVersion
1070
     0
  0
VISUALSTYLE
  5
F8
102
{ACAD_XDICTIONARY
360
3FB
102
}
102
{ACAD_REACTORS
330
EF
102
}
330
EF
100
AcDbVisualStyle
  2
Conceptual
 70
     9
 71
     3
 72
     2
 73
     1
 90
        0
 40
-0.6
 41
-30.0
 62
     5
 63
     7
421
 16777215
 74
     2
 91
        2
 64
     7
 65
   257
 75
     1
175
     1
 42
40.0
 92
        8
 66
     7
 43
1.0
 76
     1
 77
     6
 78
     2
 67
     7
 79
     3
170
     0
171
     0
290
     0
174
     0
 93
        1
 44
0.0
173
     0
291
     0
 45
0.0
1001
ACAD
1000
AcDbSavedByObjectVersion
1070
     0
  0
VISUALSTYLE
  5
FA
102
{ACAD_XDICTIONARY
360
3FF
102
}
102
{ACAD_REACTORS
330
EF
102
}
330
EF
100
AcDbVisualStyle
  2
Dim
 70
    11
 71
     2
 72
     2
 73
     1
 90
        0
 40
-0.6
 41
-30.0
 62
     5
 63
     7
421
 16777215
 74
     1
 91
        4
 64
     7
 65
   257
 75
     1
175
     1
 42
1.0
 92
        8
 66
     7
 43
1.0
 76
     1
 77
     6
 78
     2
 67
     7
 79
     5
170
     0
171
     0
290
     0
174
     0
 93
        1
 44
-50.0
173
     0
291
     1
 45
0.0
1001
ACAD
1000
AcDbSavedByObjectVersion
1070
     0
  0
VISUALSTYLE
  5
1E6
102
{ACAD_XDICTIONARY
360
40F
102
}
102
{ACAD_REACTORS
330
EF
102
}
330
EF
100
AcDbVisualStyle
  2
EdgeColorOff
 70
    22
 71
     2
 72
     2
 73
     0
 90
        0
 40
-0.6
 41
-30.0
 62
     5
 63
     7
421
 16777215
 74
     1
 91
        4
 64
     7
 65
   257
 75
     1
175
     1
 42
1.0
 92
        8
 66
     7
 43
1.0
 76
     1
 77
     6
 78
     2
 67
     7
 79
     5
170
     0
171
     0
290
     0
174
     0
 93
        1
 44
0.0
173
     0
291
     1
 45
0.0
1001
ACAD
1000
AcDbSavedByObjectVersion
1070
     0
  0
VISUALSTYLE
  5
FE
102
{ACAD_XDICTIONARY
360
407
102
}
102
{ACAD_REACTORS
330
EF
102
}
330
EF
100
AcDbVisualStyle
  2
Facepattern
 70
    15
 71
     2
 72
     2
 73
     1
 90
        0
 40
-0.6
 41
-30.0
 62
     5
 63
     7
421
 16777215
 74
     1
 91
        4
 64
     7
 65
   257
 75
     1
175
     1
 42
1.0
 92
        8
 66
     7
 43
1.0
 76
     1
 77
     6
 78
     2
 67
     7
 79
     5
170
     0
171
     0
290
     0
174
     0
 93
        1
 44
0.0
173
     0
291
     1
 45
0.0
1001
ACAD
1000
AcDbSavedByObjectVersion
1070
     0
  0
VISUALSTYLE
  5
F0
102
{ACAD_XDICTIONARY
360
3EB
102
}
102
{ACAD_REACTORS
330
EF
102
}
330
EF
100
AcDbVisualStyle
  2
Flat
 70
     0
 71
     2
 72
     1
 73
     1
 90
        2
 40
-0.6
 41
30.0
 62
     5
 63
     7
421
 16777215
 74
     0
 91
        0
 64
     7
 65
   257
 75
     1
175
     1
 42
1.0
 92
        8
 66
     7
 43
1.0
 76
     1
 77
     6
 78
     2
 67
     7
 79
     5
170
     0
171
     0
290
     0
174
     0
 93
       13
 44
0.0
173
     0
291
     1
 45
0.0
1001
ACAD
1000
AcDbSavedByObjectVersion
1070
     0
  0
VISUALSTYLE
  5
F1
102
{ACAD_XDICTIONARY
360
3ED
102
}
102
{ACAD_REACTORS
330
EF
102
}
330
EF
100
AcDbVisualStyle
  2
FlatWithEdges
 70
     1
 71
     2
 72
     1
 73
     1
 90
        2
 40
-0.6
 41
30.0
 62
     5
 63
     7
421
 16777215
 74
     1
 91
        0
 64
     7
 65
   257
 75
     1
175
     1
 42
1.0
 92
        0
 66
   257
 43
1.0
 76
     1
 77
     6
 78
     2
 67
     7
 79
     5
170
     0
171
     0
290
     0
174
     0
 93
       13
 44
0.0
173
     0
291
     1
 45
0.0
1001
ACAD
1000
AcDbSavedByObjectVersion
1070
     0
  0
VISUALSTYLE
  5
F2
102
{ACAD_XDICTIONARY
360
3EF
102
}
102
{ACAD_REACTORS
330
EF
102
}
330
EF
100
AcDbVisualStyle
  2
Gouraud
 70
     2
 71
     2
 72
     2
 73
     1
 90
        2
 40
-0.6
 41
30.0
 62
     5
 63
     7
421
 16777215
 74
     0
 91
        0
 64
     7
 65
   257
 75
     1
175
     1
 42
1.0
 92
        0
 66
     7
 43
1.0
 76
     1
 77
     6
 78
     2
 67
     7
 79
     5
170
     0
171
     0
290
     0
174
     0
 93
       13
 44
0.0
173
     0
291
     1
 45
0.0
1001
ACAD
1000
AcDbSavedByObjectVersion
1070
     0
  0
VISUALSTYLE
  5
F3
102
{ACAD_XDICTIONARY
360
3F1
102
}
102
{ACAD_REACTORS
330
EF
102
}
330
EF
100
AcDbVisualStyle
  2
GouraudWithEdges
 70
     3
 71
     2
 72
     2
 73
     1
 90
        2
 40
-0.6
 41
30.0
 62
     5
 63
     7
421
 16777215
 74
     1
 91
        0
 64
     7
 65
   257
 75
     1
175
     1
 42
1.0
 92
        0
 66
   257
 43
1.0
 76
     1
 77
     6
 78
     2
 67
     7
 79
     5
170
     0
171
     0
290
     0
174
     0
 93
       13
 44
0.0
173
     0
291
     1
 45
0.0
1001
ACAD
1000
AcDbSavedByObjectVersion
1070
     0
  0
VISUALSTYLE
  5
F7
102
{ACAD_XDICTIONARY
360
3F9
102
}
102
{ACAD_REACTORS
330
EF
102
}
330
EF
100
AcDbVisualStyle
  2
Hidden
 70
     6
 71
     1
 72
     2
 73
     2
 90
        0
 40
-0.6
 41
-30.0
 62
     5
 63
     7
421
 16777215
 74
     2
 91
        2
 64
     7
 65
   257
 75
     2
175
     1
 42
40.0
 92
        0
 66
   257
 43
1.0
 76
     1
 77
     6
 78
     2
 67
     7
 79
     3
170
     0
171
     0
290
     0
174
     0
 93
        1
 44
0.0
173
     0
291
     0
 45
0.0
1001
ACAD
1000
AcDbSavedByObjectVersion
1070
     0
  0
VISUALSTYLE
  5
1E4
102
{ACAD_XDICTIONARY
360
40B
102
}
102
{ACAD_REACTORS
330
EF
102
}
330
EF
100
AcDbVisualStyle
  2
JitterOff
 70
    20
 71
     2
 72
     2
 73
     0
 90
        0
 40
-0.6
 41
-30.0
 62
     5
 63
     7
421
 16777215
 74
     1
 91
        4
 64
     7
 65
   257
 75
     1
175
     1
 42
1.0
 92
       10
 66
     7
 43
1.0
 76
     1
 77
     6
 78
     2
 67
     7
 79
     5
170
     0
171
     0
290
     0
174
     0
 93
        1
 44
0.0
173
     0
291
     1
 45
0.0
1001
ACAD
1000
AcDbSavedByObjectVersion
1070
     0
  0
VISUALSTYLE
  5
FD
102
{ACAD_XDICTIONARY
360
405
102
}
102
{ACAD_REACTORS
330
EF
102
}
330
EF
100
AcDbVisualStyle
  2
Linepattern
 70
    14
 71
     2
 72
     2
 73
     1
 90
        0
 40
-0.6
 41
-30.0
 62
     5
 63
     7
421
 16777215
 74
     1
 91
        4
 64
     7
 65
   257
 75
     7
175
     7
 42
1.0
 92
        8
 66
     7
 43
1.0
 76
     1
 77
     6
 78
     2
 67
     7
 79
     5
170
     0
171
     0
290
     0
174
     0
 93
        1
 44
0.0
173
     0
291
     1
 45
0.0
1001
ACAD
1000
AcDbSavedByObjectVersion
1070
     0
  0
VISUALSTYLE
  5
1E5
102
{ACAD_XDICTIONARY
360
40D
102
}
102
{ACAD_REACTORS
330
EF
102
}
330
EF
100
AcDbVisualStyle
  2
OverhangOff
 70
    21
 71
     2
 72
     2
 73
     0
 90
        0
 40
-0.6
 41
-30.0
 62
     5
 63
     7
421
 16777215
 74
     1
 91
        4
 64
     7
 65
   257
 75
     1
175
     1
 42
1.0
 92
        9
 66
     7
 43
1.0
 76
     1
 77
     6
 78
     2
 67
     7
 79
     5
170
     0
171
     0
290
     0
174
     0
 93
        1
 44
0.0
173
     0
291
     1
 45
0.0
1001
ACAD
1000
AcDbSavedByObjectVersion
1070
     0
  0
VISUALSTYLE
  5
F9
102
{ACAD_XDICTIONARY
360
3FD
102
}
102
{ACAD_REACTORS
330
EF
102
}
330
EF
100
AcDbVisualStyle
  2
Realistic
 70
     8
 71
     2
 72
     3
 73
     0
 90
        2
 40
-0.6
 41
30.0
 62
     5
 63
     7
421
 16777215
 74
     0
 91
        0
 64
     7
 65
   257
 75
     1
175
     1
 42
1.0
 92
        8
 66
   257
 43
1.0
 76
     1
 77
     6
 78
     2
 67
     7
 79
     3
170
     0
171
     0
290
     0
174
     0
 93
       13
 44
0.0
173
     0
291
     0
 45
0.0
1001
ACAD
1000
AcDbSavedByObjectVersion
1070
     0
  0
VISUALSTYLE
  5
1F3
102
{ACAD_XDICTIONARY
360
419
102
}
102
{ACAD_REACTORS
330
EF
102
}
330
EF
100
AcDbVisualStyle
  2
Shaded
 70
    27
 71
     2
 72
     2
 73
     1
 90
        2
 40
-0.6
 41
30.0
 62
     5
 63
     7
421
 16777215
 74
     0
 91
        4
 64
     7
 65
   257
 75
     1
175
     1
 42
1.0
 92
        8
 66
   257
 43
1.0
 76
     1
 77
     6
 78
     2
 67
     8
425
  7895160
 79
     3
170
     0
171
     0
290
     0
174
     0
 93
        5
 44
0.0
173
     0
291
     0
 45
0.0
1001
ACAD
1000
AcDbSavedByObjectVersion
1070
     0
  0
VISUALSTYLE
  5
1F2
102
{ACAD_XDICTIONARY
360
417
102
}
102
{ACAD_REACTORS
330
EF
102
}
330
EF
100
AcDbVisualStyle
  2
Shaded with edges
 70
    26
 71
     2
 72
     2
 73
     1
 90
        2
 40
-0.6
 41
30.0
 62
     5
 63
     7
421
 16777215
 74
     1
 91
       10
 64
     7
 65
   257
 75
     2
175
     1
 42
1.0
 92
        8
 66
   257
 43
1.0
 76
     1
 77
     6
 78
     2
 67
     7
 79
     3
170
     0
171
     0
290
     0
174
     0
 93
        5
 44
0.0
173
     0
291
     0
 45
0.0
1001
ACAD
1000
AcDbSavedByObjectVersion
1070
     0
  0
VISUALSTYLE
  5
1EF
102
{ACAD_XDICTIONARY
360
411
102
}
102
{ACAD_REACTORS
330
EF
102
}
330
EF
100
AcDbVisualStyle
  2
Shades of Gray
 70
    23
 71
     2
 72
     2
 73
     3
 90
        0
 40
-0.6
 41
-30.0
 62
     5
 63
     7
421
 16777215
 74
     2
 91
        2
 64
     7
 65
     7
 75
     1
175
     1
 42
40.0
 92
        8
 66
     7
 43
1.0
 76
     1
 77
     6
 78
     2
 67
     7
 79
     3
170
     0
171
     0
290
     0
174
     0
 93
        1
 44
0.0
173
     0
291
     0
 45
0.0
1001
ACAD
1000
AcDbSavedByObjectVersion
1070
     0
  0
VISUALSTYLE
  5
1F0
102
{ACAD_XDICTIONARY
360
413
102
}
102
{ACAD_REACTORS
330
EF
102
}
330
EF
100
AcDbVisualStyle
  2
Sketchy
 70
    24
 71
     1
 72
     2
 73
     2
 90
        0
 40
-0.6
 41
-30.0
 62
     5
 63
     7
421
 16777215
 74
     2
 91
        2
 64
     7
 65
     7
 75
     1
175
     1
 42
40.0
 92
       11
 66
     7
 43
1.0
 76
     1
 77
     6
 78
     2
 67
     7
 79
     6
170
     0
171
     0
290
     0
174
     0
 93
        1
 44
0.0
173
     0
291
     0
 45
0.0
1001
ACAD
1000
AcDbSavedByObjectVersion
1070
     0
  0
VISUALSTYLE
  5
FC
102
{ACAD_XDICTIONARY
360
403
102
}
102
{ACAD_REACTORS
330
EF
102
}
330
EF
100
AcDbVisualStyle
  2
Thicken
 70
    13
 71
     2
 72
     2
 73
     1
 90
        0
 40
-0.6
 41
-30.0
 62
     5
 63
     7
421
 16777215
 74
     1
 91
        4
 64
     7
 65
   257
 75
     1
175
     1
 42
1.0
 92
       12
 66
     7
 43
1.0
 76
     1
 77
     6
 78
     2
 67
     7
 79
     5
170
     0
171
     0
290
     0
174
     0
 93
        1
 44
0.0
173
     0
291
     1
 45
0.0
1001
ACAD
1000
AcDbSavedByObjectVersion
1070
     0
  0
VISUALSTYLE
  5
F6
102
{ACAD_XDICTIONARY
360
3F7
102
}
102
{ACAD_REACTORS
330
EF
102
}
330
EF
100
AcDbVisualStyle
  2
Wireframe
 70
     5
 71
     0
 72
     2
 73
     0
 90
        0
 40
-0.6
 41
-30.0
 62
     5
 63
     7
421
 16777215
 74
     1
 91
        4
 64
     7
 65
   257
 75
     1
175
     1
 42
1.0
 92
        0
 66
   257
 43
1.0
 76
     1
 77
     6
 78
     2
 67
     7
 79
     3
170
     0
171
     0
290
     0
174
     0
 93
        1
 44
0.0
173
     0
291
     0
 45
0.0
1001
ACAD
1000
AcDbSavedByObjectVersion
1070
     0
  0
VISUALSTYLE
  5
1F1
102
{ACAD_XDICTIONARY
360
415
102
}
102
{ACAD_REACTORS
330
EF
102
}
330
EF
100
AcDbVisualStyle
  2
X-Ray
 70
    25
 71
     2
 72
     2
 73
     1
 90
        1
 40
0.5
 41
-30.0
 62
     5
 63
     7
421
 16777215
 74
     1
 91
        0
 64
     7
 65
   257
 75
     1
175
     1
 42
1.0
 92
        8
 66
     7
 43
1.0
 76
     1
 77
     6
 78
     2
 67
     7
 79
     3
170
     0
171
     0
290
     0
174
     0
 93
       13
 44
0.0
173
     0
291
     0
 45
0.0
1001
ACAD
1000
AcDbSavedByObjectVersion
1070
     0
  0
DICTIONARYVAR
  5
146
102
{ACAD_REACTORS
330
5E
102
}
330
5E
100
DictionaryVariables
280
     0
  1
1:1
  0
DICTIONARYVAR
  5
145
102
{ACAD_REACTORS
330
5E
102
}
330
5E
100
DictionaryVariables
280
     0
  1
STANDARD
  0
DICTIONARYVAR
  5
84
102
{ACAD_REACTORS
330
5E
102
}
330
5E
100
DictionaryVariables
280
     0
  1
STANDARD
  0
DICTIONARYVAR
  5
227
102
{ACAD_REACTORS
330
5E
102
}
330
5E
100
DictionaryVariables
280
     0
  1
Metric50
  0
DICTIONARYVAR
  5
228
102
{ACAD_REACTORS
330
5E
102
}
330
5E
100
DictionaryVariables
280
     0
  1
Metric50
  0
DICTIONARYVAR
  5
5F
102
{ACAD_REACTORS
330
5E
102
}
330
5E
100
DictionaryVariables
280
     0
  1
2
  0
DICTIONARYVAR
  5
63
102
{ACAD_REACTORS
330
5E
102
}
330
5E
100
DictionaryVariables
280
     0
  1
1
  0
DICTIONARYVAR
  5
1AE
102
{ACAD_REACTORS
330
5E
102
}
330
5E
100
DictionaryVariables
280
     0
  1
0
  0
DICTIONARYVAR
  5
1AF
102
{ACAD_REACTORS
330
5E
102
}
330
5E
100
DictionaryVariables
280
     0
  1
0
  0
DICTIONARYVAR
  5
3E0
102
{ACAD_REACTORS
330
5E
102
}
330
5E
100
DictionaryVariables
280
     0
  1
2
  0
DICTIONARY
  5
3EA
102
{ACAD_REACTORS
330
3E8
102
}
330
3E8
100
AcDbDictionary
281
     1
  0
DICTIONARY
  5
3E9
102
{ACAD_REACTORS
330
3E8
102
}
330
3E8
100
AcDbDictionary
281
     1
  3
140686396586032
350
3E3
  3
140686396586048
350
3E4
  3
140686396586064
350
3E5
  3
140686396586080
350
3E6
  3
140686396586096
350
3E7
  0
DICTIONARY
  5
236
330
21C
100
AcDbDictionary
280
     1
281
     1
  3
ACAD_XREC_ROUNDTRIP
360
41C
  0
DICTIONARY
  5
205
330
22
100
AcDbDictionary
280
     1
281
     1
  0
DICTIONARY
  5
1F9
330
ED
100
AcDbDictionary
280
     1
281
     1
  3
FBXASSET
360
1FA
  0
DICTIONARY
  5
1F7
330
EC
100
AcDbDictionary
280
     1
281
     1
  3
FBXASSET
360
1F8
  0
DICTIONARY
  5
173
330
EE
100
AcDbDictionary
280
     1
281
     1
  3
BUMPTILE
360
175
  3
DIFFUSETILE
360
174
  3
FBXASSET
360
1FB
  3
OPACITYTILE
360
176
  3
REFLECTIONTILE
360
177
  0
DICTIONARY
  5
234
330
21A
100
AcDbDictionary
280
     1
281
     1
  3
ACAD_XREC_ROUNDTRIP
360
41B
  0
DICTIONARY
  5
162
330
7F
100
AcDbDictionary
280
     1
281
     1
  3
ACAD_ROUNDTRIP_2008_TABLESTYLE_CELLSTYLEMAP
360
3E1
  0
DICTIONARY
  5
3F5
330
F5
100
AcDbDictionary
280
     1
281
     1
  3
ACAD_XREC_ROUNDTRIP
360
3F6
  0
DICTIONARY
  5
3F3
330
F4
100
AcDbDictionary
280
     1
281
     1
  3
ACAD_XREC_ROUNDTRIP
360
3F4
  0
DICTIONARY
  5
401
330
FB
100
AcDbDictionary
280
     1
281
     1
  3
ACAD_XREC_ROUNDTRIP
360
402
  0
DICTIONARY
  5
409
330
FF
100
AcDbDictionary
280
     1
281
     1
  3
ACAD_XREC_ROUNDTRIP
360
40A
  0
DICTIONARY
  5
3FB
330
F8
100
AcDbDictionary
280
     1
281
     1
  3
ACAD_XREC_ROUNDTRIP
360
3FC
  0
DICTIONARY
  5
3FF
330
FA
100
AcDbDictionary
280
     1
281
     1
  3
ACAD_XREC_ROUNDTRIP
360
400
  0
DICTIONARY
  5
40F
330
1E6
100
AcDbDictionary
280
     1
281
     1
  3
ACAD_XREC_ROUNDTRIP
360
410
  0
DICTIONARY
  5
407
330
FE
100
AcDbDictionary
280
     1
281
     1
  3
ACAD_XREC_ROUNDTRIP
360
408
  0
DICTIONARY
  5
3EB
330
F0
100
AcDbDictionary
280
     1
281
     1
  3
ACAD_XREC_ROUNDTRIP
360
3EC
  0
DICTIONARY
  5
3ED
330
F1
100
AcDbDictionary
280
     1
281
     1
  3
ACAD_XREC_ROUNDTRIP
360
3EE
  0
DICTIONARY
  5
3EF
330
F2
100
AcDbDictionary
280
     1
281
     1
  3
ACAD_XREC_ROUNDTRIP
360
3F0
  0
DICTIONARY
  5
3F1
330
F3
100
AcDbDictionary
280
     1
281
     1
  3
ACAD_XREC_ROUNDTRIP
360
3F2
  0
DICTIONARY
  5
3F9
330
F7
100
AcDbDictionary
280
     1
281
     1
  3
ACAD_XREC_ROUNDTRIP
360
3FA
  0
DICTIONARY
  5
40B
330
1E4
100
AcDbDictionary
280
     1
281
     1
  3
ACAD_XREC_ROUNDTRIP
360
40C
  0
DICTIONARY
  5
405
330
FD
100
AcDbDictionary
280
     1
281
     1
  3
ACAD_XREC_ROUNDTRIP
360
406
  0
DICTIONARY
  5
40D
330
1E5
100
AcDbDictionary
280
     1
281
     1
  3
ACAD_XREC_ROUNDTRIP
360
40E
  0
DICTIONARY
  5
3FD
330
F9
100
AcDbDictionary
280
     1
281
     1
  3
ACAD_XREC_ROUNDTRIP
360
3FE
  0
DICTIONARY
  5
419
330
1F3
100
AcDbDictionary
280
     1
281
     1
  3
ACAD_XREC_ROUNDTRIP
360
41A
  0
DICTIONARY
  5
417
330
1F2
100
AcDbDictionary
280
     1
281
     1
  3
ACAD_XREC_ROUNDTRIP
360
418
  0
DICTIONARY
  5
411
330
1EF
100
AcDbDictionary
280
     1
281
     1
  3
ACAD_XREC_ROUNDTRIP
360
412
  0
DICTIONARY
  5
413
330
1F0
100
AcDbDictionary
280
     1
281
     1
  3
ACAD_XREC_ROUNDTRIP
360
414
  0
DICTIONARY
  5
403
330
FC
100
AcDbDictionary
280
     1
281
     1
  3
ACAD_XREC_ROUNDTRIP
360
404
  0
DICTIONARY
  5
3F7
330
F6
100
AcDbDictionary
280
     1
281
     1
  3
ACAD_XREC_ROUNDTRIP
360
3F8
  0
DICTIONARY
  5
415
330
1F1
100
AcDbDictionary
280
     1
281
     1
  3
ACAD_XREC_ROUNDTRIP
360
416
  0
XRECORD
  5
3E3
102
{ACAD_REACTORS
330
3E9
102
}
330
3E9
100
AcDbXrecord
280
     1
  1
AcDb_Thumbnail_Schema
102
{ATTRRECORD
341
3E4
  2
AcDbDs::TreatedAsObjectData
280
     1
291
     1
102
ATTRRECORD}
102
{ATTRRECORD
341
3E5
  2
AcDbDs::Legacy
280
     1
291
     1
102
ATTRRECORD}
  2
AcDbDs::ID
280
    10
 91
        8
102
{ATTRRECORD
341
3E6
  2
AcDs:Indexable
280
     1
291
     1
102
ATTRRECORD}
102
{ATTRRECORD
341
3E7
  2
AcDbDs::HandleAttribute
280
     7
282
     1
102
ATTRRECORD}
  2
Thumbnail_Data
280
    15
 91
        0
  0
XRECORD
  5
3E4
102
{ACAD_REACTORS
330
3E9
102
}
330
3E9
100
AcDbXrecord
280
     1
  1
AcDbDs::TreatedAsObjectDataSchema
  2
AcDbDs::TreatedAsObjectData
280
     1
 91
        0
  0
XRECORD
  5
3E5
102
{ACAD_REACTORS
330
3E9
102
}
330
3E9
100
AcDbXrecord
280
     1
  1
AcDbDs::LegacySchema
  2
AcDbDs::Legacy
280
     1
 91
        0
  0
XRECORD
  5
3E6
102
{ACAD_REACTORS
330
3E9
102
}
330
3E9
100
AcDbXrecord
280
     1
  1
AcDbDs::IndexedPropertySchema
  2
AcDs:Indexable
280
     1
 91
        0
  0
XRECORD
  5
3E7
102
{ACAD_REACTORS
330
3E9
102
}
330
3E9
100
AcDbXrecord
280
     1
  1
AcDbDs::HandleAttributeSchema
  2
AcDbDs::HandleAttribute
280
     7
 91
        1
284
     1
  0
XRECORD
  5
41C
102
{ACAD_REACTORS
330
236
102
}
330
236
100
AcDbXrecord
280
     1
102
DISPLAYNAME
  1
Metric50
102
FLAGS
 90
        0
  0
XRECORD
  5
1FA
102
{ACAD_REACTORS
330
1F9
102
}
330
1F9
100
AcDbXrecord
280
     1
 70
     1
 90
429727718
  1
D62C5603-E3A1-4AEA-B7FB-FE5D8D0755AF
310
504B03040A0000080000CC70623B3DEE336E79000000790000001B0000006175746F6465736B2D64657369676E2D7061636B6167652E786D6C3C3F786D6C2076657273696F6E3D22312E302220656E636F64696E673D227574662D3822203F3E3C666F726D6174733E3C666F726D61743E687474703A2F2F736368656D612E
310
6175746F6465736B2E636F6D2F64657369676E2D7061636B6167652F323030393C2F666F726D61743E3C2F666F726D6174733E504B0304140006080800CC70623BD486FD9CA0000000F4000000130000005B436F6E74656E745F54797065735D2E786D6C7D8EC10E82300C865F65E91D8A1E8C310C0EEA1BF002731658846E
310
D98AC1B77784ABF1D8FE5FBFBF75BBCE937A534CCEB38643598122B6FEE978D0B0485F9C41B54DDD7D022595594E1A469170414C76A4D9A4D207E29CF43ECE46F218070CC6BECC4078ACAA135ACF422C856C0E68EA1BF5669944DDD7BCDE7B1F8E415D77AECB980613C2E4AC91FC167A2B244592486606FC29C8FD7F045B9A
310
EF7053A7E60B504B0304140006080800CC70623B853B8169EB0000007C01000008000000636F72652E786D6C8D90416EC3201045AF62CDB6C206821CC7C244919D9CA01740401C94182C03558F5F9C3852BBEB6A467FFE9B197D7EFC9E1EC5975982F5AE035262288C535E5B377690E21535501C055FBC8FBF6C503839990E
310
5619041F179FE64D52DE45E362569DD7661365082642A11EB9E920A89B99642953CC8E702F67A9EE7234257977194EC9EAE275C4EABCCF5EAD5940D4AC6F0E35A568B8F43562CD7046CD199FD07E60174276A7BE677B5EADB0E0D14EEFFB6A31321A0D82627C4084204C3F096B71DD52F6819B16635EADF63F509AF53FA164
310
5DDCD1EDDD17164090FCC8732078B56691CB33A85CD7DCC40F504B0304140006080800CC70623B55019EA25F0000007C00000007000000636E782E786D6C4DCB3B0E80201045D1AD90E915ED2CF8AC45050C11660C8261F98AB1B07AC9C97D42D718D865D3E909258CFD00CCE24AC6E326A164D74DC0B4128928FF32603847
310
2BA13128B1252AC747C6BAB984FC68F0B87FE8960A5C09FE86CFB69FBA01504B0304140006080800CC70623BDBABAAF470010000D40300000C0000006662782F636F72652E786D6CC553D16E823014FD95A6AF4B694182CC941A83FA05FB810A9511A125A5257EFE2E82712ECEB8A7F100CD39F7F69E734AF9FADC366850B6
310
AF8DCE7018308C942E4C59EB2AC3DE1D498AD15A706B8CFB56869196ADCAF00863C12B6B7C374385D14E6907A836A59A41D9F7CA615434B0C8705F7CAA5606D23BA8E84F41278B93AC54100640439DE0BDB320004D43C63716C7C399D30917DCFBBA9CD9BA8469F5B156168B24CED3F7248AC8769F27244EB73B92EED8862C
310
B7F13E0C179B3C8F979C8ECD82BBBABDAA2BAC924E9558448CBD9330242CFA08E3154B5651FCC6D215639C8EE5774DBE2B5F6CF2B5768B68963BB5F5588420E442FC700B1139D4CB01F450C1E918227C2E09DF070D8140C84E1E9AAB8F1340832A9CB13130A5F1376A908D57309505ECF2A0DF179C4E9D30F5B239B87E3823
310
7A79C6F31DE1A8A5AEC08474B03C7837EAE4938639B44E5932B833D2C6B6B279CDC613877FA26EE21F4A2A4C63EC7F29A2F301D1F9F7A0E37D145F504B0304140006080800CC70623B9C113CC27E0000009D0000000B0000006662782F636E782E786D6C4DCCDF0A83201C86E15B91DFB94BFB330DD428C8FB886521330DA7
310
6397BF1A1DECE883878F57749FCDA1B7892F1BBC047A23808C7F84D9FA55424E0BE6803A256208E9EF06C84F9B91703228B1C690F78B66B34CD9A5439DF5CF0BFBF65E35BCA1B8D6A5C6F540381E886698B5741C695F9503EBA150A2F8958E3DC3EA0B504B0304140006080800CC70623B7DF2F77C2A010000120200003100
310
00006662782F41393633353835312D344632462D344230382D423046372D3739314545314133324237412F636F72652E786D6C8D51DB8EC22014FC15C2939B0D2DB4B45643319AE817EC0F6041255A68B86CFCFC856D4D76DF7CE190393373060EDB3DC707F856CE6B6B7A480A0C81328395DA5C7B18C3057510EC3873D686
310
3F34088C18550F330C39BB3A1BA7051AAC09CA84841A2BD5020AEF55806078A44B0FFD7053A328440C89E1EFC52486BBB8AA8214A99D789CF9E05200300FC927E4FB4D5B375D43103D5527440FB843077C5AA3F5861C8F645F5787F59E95B390B318B55CE45AA638FAA2957BD7248B390B7A7CC51F9C124149C82B8C378810
310
84AB2F42B7B8DD56F413775B8C5999E9FF4471926F8AA236A1AE96B8B3CC434E5839373893369E1FAF30EA395917409EB7F26AF8801C171837A4A6AC9C89E9F9C9B1A58BA30FD6A5EF5DDDCF894B9AD9B6A59C957943A9FCAE2FD5BC4DFE03504B0304140006080800CC70623BAD7543B64E01000033030000300000006662
310
782F41393633353835312D344632462D344230382D423046372D3739314545314133324237412F636E782E786D6CD593CD6EC32010845F0571AD6CE3D48AD20813A9873E410FBD12D82434182C7EAAE6EDBB2424CD25871E7B41D6EC30B3FA84F9E67BB2E40B4234DE8DB46F1925E094D7C6ED479AD3AE5951B2113C789FEE
310
6C943839C1488B4C05DF079FE72A69D8C96C13AAD6B8631503449F83828872B949AC57D26200B826A308D316B4064D6E46FCDA41C05550DC9E483A00797BFD207EFB092A45DE9514C1BBD22178396BD39D891265658C238DEA00936C654E5E433CB65A26D9F6EDB5EBC14EBF49A45CB856E66048291F6939A9A81BB5C89177
310
38143CA680F4AA299D66A042CEB3354A2684DC9D8D178FE0D9B8B41CAAD720F880EE7EF93C0C18769E099ECC04D5A102C8049A8A05632F4DDF376CF1DE0F6BB65C2F8627B65A33C6BB62177CEBBDAD973006829F89F22E814B54F4BC2BE347F8AA8F681390B50FA73F804400B5F542E796F19FF974E7F78DB802FE05E20750
310
4B0304140006080800CC70623BE75B7789680500003C100000340000006662782F41393633353835312D344632462D344230382D423046372D3739314545314133324237412F6F626A656374732E786D6CAD575B8F9B3818FD2B887D06C22499CB8AA1CA655245D5B455A356FB305264C061D8018C6C3393D95FBFC7600890
310
A4CD5EF210B0B1BFEBF98E3F7B1FF6596ABC522E1296DF9BAE3D320D9A872C4AF2F8DE2CE5CEBA358D0FBEC719939D65A691938CDE9B6ADAF4BD98B3B2D05311DD91329583D9D5FC0F438434A7A611A644887B5384CF34233629258BA878B12322891DEFF6B66BD70BFB62634E8AE781D082709A4B588AF91C528CDA28B73F
310
1C998EEF39EABBEFA97FBD6A7C7E9553F9D3D79FE442923C3C523610337627CB87ABE99D359D4CC6D6E4FACAB5E6ABF9D2726FC6A3C5F56271377BB88362213924694B38DD99FE47C48627A1E7D49F5A8BB5E1A74C0A599ED3B0F21F1E56366B89112D681E218F0915D0D6F17AD41FBA2A369DCF6335D62ABBD39779D5DDD1
310
11D4D8DE3CBB96B2E04FB8202E41051754A1AA8E8F76B4C6DFE810B580B1547F4B84911149794252234D024EF8BBE963A95AE27B3D310A9D5C215C7960FAEE415ED75694C6AFB17BCACA5D99A60A9AA65F217B0BFC53292ACB92BF283FAD0D3621576592CB5BED907C2FA8E9DF794E35E97BEA31BED21FEB401ABB94C44839
310
DCACBF0E1C5DA8DA5B2F4DFFD32AD86F543D9E565E7056502E157C00AD2671CD534549AB752FCA9CDA00677A313F04E51B22FF19E57B300579E3C97EB29F682D92935CEC18CF901B7B54FD8C51F362B56FC72FE0B3C1EAE335EDCCBF5AEC39ADB17DC238973F804BA5E6F6BFE7AF1FB32E523BE9F3BD571418E3631DCA4D48
310
5250CF639223210A9446CA30052EDF057BD35F8329C1ECD84552BF0DC8D18BE7BCE23BFE6BD960AB4A7DE79923A103BEBD80F911CBAA2C60DB19B01CF164A5583B772EE6D3FFA56666CBCDA74DC97724A48F9A58967497E489C4D979006FD7A05E227A1EBDD0F737C623387A9C844D3709995625106D157315F8B8392CD4E0
310
A0B9A720C4BE9829CEF37EA1E13111214D53925356365ADA634861B52519DD27A00AEB808EAF0628E6F435519D446F45CF2C9CF5214F0A15B2F6D06B79DA3EE3CBF7F56780D2F4E7EF73A0F5E5B02A38D07DC852C6B7C1FBB6664213E0C39E3EBA7FF4E1AD23EA2829407C85E586727488B751B2DB9502BC7B228A3FD68B6E
310
A65A22397E690AA8D158D7E404EC8CDA235CC3B7D1898680131CEC2CDF2638C65196279577750F15884AEE19F94199155B92B13297978469D4F8D358DF0AEF7631E28DC8F0D9F437D5D39A83B2231A1D52D543813A824EF8D44BCFF2FA6A31BD1E8DAD87F1CCB526B3879935BF59CDADD5C37479BB1CDD4CA7B3556B516589
310
EF352754B706114D9C885EC9131DE6EFEB43D99AFE2391C2F958179413D7CFEF6B1B6DB1E7600F00DE6E5C67454A339A4BA2E0FBA85ED26F045D454F463DBFCE484C2F90F2E5E3666003662ED8F755951A7D1BECD5B30B550B2785C8E7320B7292A4838DDA71BBC863ED7613CAF659337A3354231D4FF4A182A54904C2898C
310
98B28C4AD0CE056CCF332A80986E571EE9DBC305BB5FEB7E509220A58D25CF042D712A806AC0AD0C657FDEF80D2D9CEAA2EE4D1C76F60BFE74219A06527D6F82DF6412526107381E55E353090704D085B52408A8913C4ED159D79BDA71BB4BC506F4831350EB6F975CD22D69BF7AC49B91A2C0A9DDA3D5CA36AD20FC478E37
310
E61844E2352865EBCB61A275A65283CAAA9DD27703B4102F5AF51EF5F573B75CBB5AD38BC845F7A49F82A0966A49C2E3EA5EA0ECD326CD965F1DB402C6FA8B51A4658C5C5E2EC9E214602E55810345408596591009A82E7E7FFACA19EEA299B14A0081A705CB3296EBC14CDF658DCD336EA6D1136881AAEB87B81AB9EE53D5
310
F5EB8BC8362082DA24122F98680A4E7930C01A0079749CEA14382A0783E5EBA5A10F8C098456A03D6A4AEB6BB881E2513747552A5DB22C7EDAF83BD5528081A365F7FF06504B0304140006080000CC70623B000000000000000000000000350000006662782F41393633353835312D344632462D344230382D423046372D37
310
39314545314133324237412F76657274696365732E62696E504B0304140006080800CC70623BF270F1330600000004000000360000006662782F41393633353835312D344632462D344230382D423046372D3739314545314133324237412F747269616E676C65732E62696E636660600000504B0304140006080000CC7062
310
3B000000000000000000000000370000006662782F41393633353835312D344632462D344230382D423046372D3739314545314133324237412F617474726962757465732E62696E504B0304140006080800CC70623B08DA0BD19000000041010000360000006662782F41393633353835312D344632462D344230382D4230
310
46372D3739314545314133324237412F6469726563746F72792E786D6C858F410AC3201045AF22B36F53E9A60B35CBEEBAE80D244E44489C6234F4F835464A48035D0DF398FF9F8AF63D0E6CC63039F212F8F9020C7D47C6792B21C5FE7403D62A1188E2E60C98D7234A5830286103A55745067B9D86B8A3CF9C7F90C11DE6
310
07FB144396D7B6A82D282E9A152AD114D5EF2CB866EEE831B8EEA07A7BB5A8D7D61A2BAAEB7FD5F70921FF497D00504B0304140006080800CC70623BEDD1DC58FD000000A00100003B0000006662782F41393633353835312D344632462D344230382D423046372D3739314545314133324237412F7265736F75726365732F
310
636F72652E786D6C8D504B6E833010BD0A9A6D65B00922041947112427E8052C33A156828DFCA97AFC9A40A576D7CDCCE87D344F8F9FBFE667F689CE6B6B3A6039850C8DB2A336530731DC4903D95970676DF82583CCC8193B5861107C72362E3BA4AC096842428D1D7107A5F7182053CF7474E0D507CE32973124857FE48B
310
540F3961CEF244279DE03EB81420DB9EAC1384436FA353E879B1B182C7A8C75DA3C7F453DF353A1075D537A7BA6464B8F535A99AE14A9A2BBD90E350DD183B5CFABE3AF262350B1EF4FC9351399401471025A527C218A1E53BAB5A5AB765F5469B96525EACF23FA6B88CFF34456DC2A1DCE36E360F82A5202F42F062ED2BAD
310
579969AFDD8A6F504B010214000A0000080000CC70623B3DEE336E79000000790000001B00000000000000000000000000000000006175746F6465736B2D64657369676E2D7061636B6167652E786D6C504B01021400140006080800CC70623BD486FD9CA0000000F40000001300000000000000000000000000B20000005B
310
436F6E74656E745F54797065735D2E786D6C504B01021400140006080800CC70623B853B8169EB0000007C010000080000000000000000000000000083010000636F72652E786D6C504B01021400140006080800CC70623B55019EA25F0000007C000000070000000000000000000000000094020000636E782E786D6C504B
310
01021400140006080800CC70623BDBABAAF470010000D40300000C00000000000000000000000000180300006662782F636F72652E786D6C504B01021400140006080800CC70623B9C113CC27E0000009D0000000B00000000000000000000000000B20400006662782F636E782E786D6C504B01021400140006080800CC70
310
623B7DF2F77C2A010000120200003100000000000000000000000000590500006662782F41393633353835312D344632462D344230382D423046372D3739314545314133324237412F636F72652E786D6C504B01021400140006080800CC70623BAD7543B64E010000330300003000000000000000000000000000D2060000
310
6662782F41393633353835312D344632462D344230382D423046372D3739314545314133324237412F636E782E786D6C504B01021400140006080800CC70623BE75B7789680500003C10000034000000000000000000000000006E0800006662782F41393633353835312D344632462D344230382D423046372D3739314545
310
314133324237412F6F626A656374732E786D6C504B01021400140006080000CC70623B0000000000000000000000003500000000000000000000000000280E00006662782F41393633353835312D344632462D344230382D423046372D3739314545314133324237412F76657274696365732E62696E504B01021400140006
310
080800CC70623BF270F133060000000400000036000000000000000000000000007B0E00006662782F41393633353835312D344632462D344230382D423046372D3739314545314133324237412F747269616E676C65732E62696E504B01021400140006080000CC70623B0000000000000000000000003700000000000000
310
000000000000D50E00006662782F41393633353835312D344632462D344230382D423046372D3739314545314133324237412F617474726962757465732E62696E504B01021400140006080800CC70623B08DA0BD1900000004101000036000000000000000000000000002A0F00006662782F41393633353835312D344632
310
462D344230382D423046372D3739314545314133324237412F6469726563746F72792E786D6C504B01021400140006080800CC70623BEDD1DC58FD000000A00100003B000000000000000000000000000E1000006662782F41393633353835312D344632462D344230382D423046372D3739314545314133324237412F7265
310
736F75726365732F636F72652E786D6C504B0506000000000E000E0080040000641100000000
  0
XRECORD
  5
1F8
102
{ACAD_REACTORS
330
1F7
102
}
330
1F7
100
AcDbXrecord
280
     1
 70
     1
 90
429727718
  1
30362254-06B7-45E0-A893-8CFA70E3D6BC
310
504B03040A0000080000CC70623B3DEE336E79000000790000001B0000006175746F6465736B2D64657369676E2D7061636B6167652E786D6C3C3F786D6C2076657273696F6E3D22312E302220656E636F64696E673D227574662D3822203F3E3C666F726D6174733E3C666F726D61743E687474703A2F2F736368656D612E
310
6175746F6465736B2E636F6D2F64657369676E2D7061636B6167652F323030393C2F666F726D61743E3C2F666F726D6174733E504B0304140006080800CC70623BD486FD9CA0000000F4000000130000005B436F6E74656E745F54797065735D2E786D6C7D8EC10E82300C865F65E91D8A1E8C310C0EEA1BF002731658846E
310
D98AC1B77784ABF1D8FE5FBFBF75BBCE937A534CCEB38643598122B6FEE978D0B0485F9C41B54DDD7D022595594E1A469170414C76A4D9A4D207E29CF43ECE46F218070CC6BECC4078ACAA135ACF422C856C0E68EA1BF5669944DDD7BCDE7B1F8E415D77AECB980613C2E4AC91FC167A2B244592486606FC29C8FD7F045B9A
310
EF7053A7E60B504B0304140006080800CC70623B1EC5D7A3EB0000007C01000008000000636F72652E786D6C8D90416EC3201045AF82665B6103C6756C6122AB4D4ED00B204C5C94182C03558F5F9C3852BBEB6A467FFE9B197D71FC9E6FE8CBACC17AD7032D0820E3B41FAD9B7A48F1820F808E52ACDEC75F36404ECDA687
310
4D0629A6D5A76597B477D1B89855E747B38B2A041301E95B6E7A08FAD3CCAA50296647B8168BD2573599823EBB0CA76447F43862C7BCCF5EAC59410E4DDD9C7973C2755553CCCFA4C603E3040F1565ED3B1FDE4E432BCA0D9622DAF9795FAF464533826484B498524CD807E51D79ED187F21878E10516EF63F505AC67F42C9
310
BA58B1FDDD071640D2FCC87D2045B96591CB3DA85CB7DCE40F504B0304140006080800CC70623B55019EA25F0000007C00000007000000636E782E786D6C4DCB3B0E80201045D1AD90E915ED2CF8AC45050C11660C8261F98AB1B07AC9C97D42D718D865D3E909258CFD00CCE24AC6E326A164D74DC0B4128928FF32603847
310
2BA13128B1252AC747C6BAB984FC68F0B87FE8960A5C09FE86CFB69FBA01504B0304140006080800CC70623B8C9102E971010000D40300000C0000006662782F636F72652E786D6CC5535B6E833010BC8AE5DF0A6C08340F1947A84D4ED00B38C6A128602363A31CBFCB234A53A551FA553EC09AD9F5CE8C31DB9E9B1AF5CA
310
7695D1198E428A91D2D214952E33ECDD315861B4E5CC1AE3BE9561A445A3323CC098B3D21ADFCE9034DA29ED00D5A6503328BA4E398C640D8B0C77F253352214DE4145770A5B214FA2546114020D759C75CE8200340D19DE981F0F6746269C33EFAB6266AB02A655C74A59CCF365BADC27CB5D902ED22848F6340DF238A141
310
BE88E2F57B92BFEDF23523433367AE6A2EEAA455C2A902F398D2751045018D3FA264435F3771F242571B4A1919CA6F9A7C5B3CD9E42BED16F12C776AEB308F40C848FC700B1139D4891EF410CEC810227CC6846F8386402064270EF5C5C709A05E49676C024C61FC95EA45ED154CA5211D1FF4FB8291A913A68E9B83EBBB33
310
E2A7673CDE118E5AE8124C0807CB8377834E366998436B950D7A7746DAD846D4CFD978E0F04FD455FC5D49D2D4C6FE9722321F10997F0F32DC47FE05504B0304140006080800CC70623BFFEA85907E0000009D0000000B0000006662782F636E782E786D6C4DCCD10A83201886E15B91FFDC95D95A811AB6F23E625948A6C3
310
E9D8E5AF46073BFAE0E1E365ED67B3E8ADC3CB78C7815C7240DA3DFC64DCC221C519D7805AC182F7F1EF06C88D9BE6703008B6049F9E274D7A1E938DBB5AE3D6131B2589BA0D3D965551E0B2EA732C9B9A624AAEB41E3A557677029960D9AFB4EF11165F504B0304140006080800CC70623B4FEEA4082C0100001202000031
310
0000006662782F39464131463745442D413632322D343644302D413938332D3331353338454246344243312F636F72652E786D6C8D515B6EC32010BC0AE2AB55850DD871ED0813254D72825EC00192A2C460F1A872FC42ED48ED5F7E00CDCECCCEB26C731F6FE05B39AFADE921293004CA082BB5B9F43086336A21D870E6AC
310
0D7F68109861543DCC30E4ECE26C9C164858139409093556AA051CBC570102714B8F1E7AF1A5C6A11862480C7F2DA6415C878B2A4891CA89C7990F2E050073937C42DE1DB7E4F87ED8A36D4329AA9B3D46DBAEAD504556557BD81DEBDD0761E52CE42C462D17B996298E3E6BE59E35C962CE821E1FF18553435012728A7187
310
0841987E927A8D9B35ADDF70BBC6989599FE4F1427F9A4286A132ABAC49D651EF234CD5CE04CDA78BA3DC2A8FB645D00B9DF8B57E215725C60BCA2A463E54C4CE327C7A65E1C7DB02E7DEFCBF594B864C5CA6CDBD49C957943E9FA5D5FBAF336F90F504B0304140006080800CC70623BAD7543B64E01000033030000300000
310
006662782F39464131463745442D413632322D343644302D413938332D3331353338454246344243312F636E782E786D6CD593CD6EC32010845F0571AD6CE3D48AD20813A9873E410FBD12D82434182C7EAAE6EDBB2424CD25871E7B41D6EC30B3FA84F9E67BB2E40B4234DE8DB46F1925E094D7C6ED479AD3AE5951B2113C
310
789FEE6C943839C1488B4C05DF079FE72A69D8C96C13AAD6B8631503449F83828872B949AC57D26200B826A308D316B4064D6E46FCDA41C05550DC9E483A00797BFD207EFB092A45DE9514C1BBD22178396BD39D891265658C238DEA00936C654E5E433CB65A26D9F6EDB5EBC14EBF49A45CB856E66048291F6939A9A81BB5
310
C8917738143CA680F4AA299D66A042CEB3354A2684DC9D8D178FE0D9B8B41CAAD720F880EE7EF93C0C18769E099ECC04D5A102C8049A8A05632F4DDF376CF1DE0F6BB65C2F8627B65A33C6BB62177CEBBDAD973006829F89F22E814B54F4BC2BE347F8AA8F681390B50FA73F804400B5F542E796F19FF974E7F78DB802FE05
310
E207504B0304140006080800CC70623B16AB87BA640500003C100000340000006662782F39464131463745442D413632322D343644302D413938332D3331353338454246344243312F6F626A656374732E786D6CAD575B6FA33818FD2B887DE6924B3BED8A326A92B68A663B534DD4D13E548A0C38942D60649B369D5FBFC7
310
600890A493BDE42160637FD7F31D7FF63E6FB3D478A55C242CBF3247B66B1A340F5994E4F19559CA8D75611A9F7D8F33263BCB4C232719BD32D5B4E97B316765A1A722BA21652A07B3B7B33F0D11D29C9A46981221AE4C113ED38CD8A4942CA2E2C58E882476BCD9DA23BB5ED8171B73523C0F841684D35CC252CCE79062D4
310
468DFA43D7747CCF51DF7D4FFDEB5593E3AB9CCA9FBEFE241792E4E19EB28198C968BAB8199F5D5A67D3E9C49A9E8F47D6EC76B6B0469F26EEFC7C3EBFBCBEB98462213924694B38DD98FE1D62C393D073EA4FADC5DAF04326852CCF6958F90F0F2B9BB5C48816348F90C7840A68EB78EDF68723159BCEE7891A6B95DDE9D3
310
BCEAEEE8086A6C6F9E5D4B59F0175C10A7A0820BAA5055C7473B5AE3CFDD452D602CD5DF12616444529E90D448938013FE6EFA58AA96F85E4F8C42275708571E98FE6827AF6B2B4AE3D7D83D64E5A64C53054DD3AF90BD06FEA9149565C94FCA0F6B834DC85599E4F2423B24DF0B6AFA979E534DFA9E7A4CC6FA631D486393
310
921829879BF5D781A373557BCB85E97FB90DB62B558F8795179C15944B051F40AB495CF35451D26A4727654E6D8033BD98EF82F21D91FF8AF2DD9982BCF1643BDD4EB516C9492E368C67C88DED563FC36D5EACF66DFF057C3658BDBFA69DF9578B3DA735B64F18C7F20770A9D45CFCF7FCF563D6456A277DBEF78A02637CA2
310
43B90A490AEAB94F72244481D24819A6C0E59B606BFA4B3025981DBB48EAB701D97BF19C577CC77F2D1B6C55A9EF3C732474C0B727303F625995056C3B02963D9EAC146BE78EC5FCEC7FA999EBC5EACBAAE41B12D27B4D2C0BBA49F244E2ECDC81B76B502F113D8F5EE8FB1BE3111CDD4FC2AA9B844CAB1288B68AB90A7CDC
310
1C166AB0D3DC5310625FCC14E779BFD0709F8890A629C9292B1B2DED31A4B0DA928CEE135085754027E3018A397D4D5427D15BD1330B677DC8934285AC3DF45A9EB68FF8F2B8FC0A509AFEECFD0FF2DE25CC6047F7214B195F07EFEB9A094D800F7BFAE8FED187B78EA8A3A400F115961BCAD1215E47C966530AF0EE8128FE
310
58CEBB996A8964FFA529A046635D9353B0336A8F700DDF46271A024E70B0B37C9DE01847591E54DED53D54202AB947E4076556AC49C6CA5C9E1226B7F1A7B1BE15DEED62C41B91E1B3E9AFAAA735036547343A925075041DF0A9979E893B391F8FCFA6967B3EFB644DCF6E5CEBFAE272625DCC6FAF3FB93793C5F90CE1EF57
310
407342756B10D1C489E8953CD1617E5CEECAD6F4EF8914CE5D5D504E5C3F1F9736DA62CFC11E00BCDDB8CC8A9466349744C1F75EBDA4DF09BA8A9E8C7A7E9991989E20E5DBDD6A6003664ED8F7A04A8DBE0DF6EAD9B9AA858342E47399053949D2C146EDB85DE4B176BB0965FBAC19BD19AA918E27FA50C1D22402E144464C
310
59462568E704B6E71915404CB72B8FF4EDE184DDAF753F284990D2C6926782963815403548A70C657FDEF80D2D9CEAA2AE4C1C76F60BFE74219A06527D6582DF6412526107381E55E353090704D085B52408D0933C4ED159D79BDA71BB4BC506F4831350EB6F979CD22D69BF7AC49B91A2C0A9DDA3D5CA36AD20FC478E37E6
310
1844E2352865EBCB6EA275A652E3836BE04EFB400BF1A2556F515F1FBB35B2AB35BD889C744FFA1004B5544B121E57F70215746DD2F5E2C1412B602CBF19455AC6C8E5E9922C4E01E65215385004546899059180EAFCF7A707CE7017CD8CDB0410789AB32C63B91E5CEBBBACB17AC6CD347A022D5075FD106377347AAABA7E
310
7D11590744509B44E205134DC1290F06580320F78E537D3D73540E06CB970B431F185308AD40BBD794D6D77003C5A36E8EAA54BA64597CD8F83BD552A080A365F7FF06504B0304140006080000CC70623B000000000000000000000000350000006662782F39464131463745442D413632322D343644302D413938332D3331
310
353338454246344243312F76657274696365732E62696E504B0304140006080800CC70623BF270F1330600000004000000360000006662782F39464131463745442D413632322D343644302D413938332D3331353338454246344243312F747269616E676C65732E62696E636660600000504B0304140006080000CC70623B
310
000000000000000000000000370000006662782F39464131463745442D413632322D343644302D413938332D3331353338454246344243312F617474726962757465732E62696E504B0304140006080800CC70623B08DA0BD19000000041010000360000006662782F39464131463745442D413632322D343644302D413938
310
332D3331353338454246344243312F6469726563746F72792E786D6C858F410AC3201045AF22B36F53E9A60B35CBEEBAE80D244E44489C6234F4F835464A48035D0DF398FF9F8AF63D0E6CC63039F212F8F9020C7D47C6792B21C5FE7403D62A1188E2E60C98D7234A5830286103A55745067B9D86B8A3CF9C7F90C11DE607
310
FB144396D7B6A82D282E9A152AD114D5EF2CB866EEE831B8EEA07A7BB5A8D7D61A2BAAEB7FD5F70921FF497D00504B0304140006080800CC70623B0D6EF93BFE000000A00100003B0000006662782F39464131463745442D413632322D343644302D413938332D3331353338454246344243312F7265736F75726365732F63
310
6F72652E786D6C8D50596E833010BD0A9ADFCA60B334011947A8694ED00B586642AC041B79A97AFC9A40A5F6AF3F33A3B7689E1E3F7DCD8FEC139DD7D6F4C0720A191A65476DA61E62B892236427C19DB5E1970C322367EC618541F0C9D9B8EC90B226A009093576C41D94DE63804C3DD2D18357379C652E63480A7FCF17A9
310
EE72C29CE5894E3AC17D702940B63D59270887DE46A7D0F36263058F518FBB468FE9A7BE6A7420864373B8D4873369AA8691FA421B3294352543C5CAF65C0F6FEF43CB8BD52C78D0F34F46E550061C419494B6843142CB0F5677F4B52BEB177AEC28E5C52AFF638ACBF84F53D42654E51E77B379102C05791282176B5F693D
310
CB4C7BED567C03504B010214000A0000080000CC70623B3DEE336E79000000790000001B00000000000000000000000000000000006175746F6465736B2D64657369676E2D7061636B6167652E786D6C504B01021400140006080800CC70623BD486FD9CA0000000F40000001300000000000000000000000000B20000005B
310
436F6E74656E745F54797065735D2E786D6C504B01021400140006080800CC70623B1EC5D7A3EB0000007C010000080000000000000000000000000083010000636F72652E786D6C504B01021400140006080800CC70623B55019EA25F0000007C000000070000000000000000000000000094020000636E782E786D6C504B
310
01021400140006080800CC70623B8C9102E971010000D40300000C00000000000000000000000000180300006662782F636F72652E786D6C504B01021400140006080800CC70623BFFEA85907E0000009D0000000B00000000000000000000000000B30400006662782F636E782E786D6C504B01021400140006080800CC70
310
623B4FEEA4082C0100001202000031000000000000000000000000005A0500006662782F39464131463745442D413632322D343644302D413938332D3331353338454246344243312F636F72652E786D6C504B01021400140006080800CC70623BAD7543B64E010000330300003000000000000000000000000000D5060000
310
6662782F39464131463745442D413632322D343644302D413938332D3331353338454246344243312F636E782E786D6C504B01021400140006080800CC70623B16AB87BA640500003C1000003400000000000000000000000000710800006662782F39464131463745442D413632322D343644302D413938332D3331353338
310
454246344243312F6F626A656374732E786D6C504B01021400140006080000CC70623B0000000000000000000000003500000000000000000000000000270E00006662782F39464131463745442D413632322D343644302D413938332D3331353338454246344243312F76657274696365732E62696E504B01021400140006
310
080800CC70623BF270F133060000000400000036000000000000000000000000007A0E00006662782F39464131463745442D413632322D343644302D413938332D3331353338454246344243312F747269616E676C65732E62696E504B01021400140006080000CC70623B0000000000000000000000003700000000000000
310
000000000000D40E00006662782F39464131463745442D413632322D343644302D413938332D3331353338454246344243312F617474726962757465732E62696E504B01021400140006080800CC70623B08DA0BD190000000410100003600000000000000000000000000290F00006662782F39464131463745442D413632
310
322D343644302D413938332D3331353338454246344243312F6469726563746F72792E786D6C504B01021400140006080800CC70623B0D6EF93BFE000000A00100003B000000000000000000000000000D1000006662782F39464131463745442D413632322D343644302D413938332D3331353338454246344243312F7265
310
736F75726365732F636F72652E786D6C504B0506000000000E000E0080040000641100000000
  0
XRECORD
  5
175
102
{ACAD_REACTORS
330
173
102
}
330
173
100
AcDbXrecord
280
     1
270
     1
271
     1
  0
XRECORD
  5
174
102
{ACAD_REACTORS
330
173
102
}
330
173
100
AcDbXrecord
280
     1
270
     1
271
     1
  0
XRECORD
  5
1FB
102
{ACAD_REACTORS
330
173
102
}
330
173
100
AcDbXrecord
280
     1
 70
     0
 90
1673772943
  1
ECE7A1D2-D628-4531-984C-D00F80459256
310
504B03040A0000080000CC70623B3DEE336E79000000790000001B0000006175746F6465736B2D64657369676E2D7061636B6167652E786D6C3C3F786D6C2076657273696F6E3D22312E302220656E636F64696E673D227574662D3822203F3E3C666F726D6174733E3C666F726D61743E687474703A2F2F736368656D612E
310
6175746F6465736B2E636F6D2F64657369676E2D7061636B6167652F323030393C2F666F726D61743E3C2F666F726D6174733E504B0304140006080800CC70623BD486FD9CA0000000F4000000130000005B436F6E74656E745F54797065735D2E786D6C7D8EC10E82300C865F65E91D8A1E8C310C0EEA1BF002731658846E
310
D98AC1B77784ABF1D8FE5FBFBF75BBCE937A534CCEB38643598122B6FEE978D0B0485F9C41B54DDD7D022595594E1A469170414C76A4D9A4D207E29CF43ECE46F218070CC6BECC4078ACAA135ACF422C856C0E68EA1BF5669944DDD7BCDE7B1F8E415D77AECB980613C2E4AC91FC167A2B244592486606FC29C8FD7F045B9A
310
EF7053A7E60B504B0304140006080800CC70623BD9DDAED0EC0000007C01000008000000636F72652E786D6C8D90416EC3201045AF82665B61836D9CD8C2444DD39CA01740405C94182C03558F5F9C3852BBEB6A467FFE9B197D7EF89E6EE8CB2CC17A37002D0820E394D7D68D03A478C17B4007C117EFE32F1B20272733C0
310
2A83E0E3E2D3BC49CABB685CCCAAF3DA6CA20CC14440EA969B0182FA34932C648AD911AEC52CD5558EA6A0CF2EC329598D1E47ACCEFBECC59A050463A7EA5833865FEBDD0E37353BE3EE8DBDE3F6786A48D375FBF6CC78B9C282473B3DEFABC5C86834888A900E538A49F5419B9EB47DD5BC907D4F082F57FB1F28CDFA9F50
310
B22ED6D5F6EE030B20687EE43E10BC5CB3C8E51E54AE6B6EE207504B0304140006080800CC70623B55019EA25F0000007C00000007000000636E782E786D6C4DCB3B0E80201045D1AD90E915ED2CF8AC45050C11660C8261F98AB1B07AC9C97D42D718D865D3E909258CFD00CCE24AC6E326A164D74DC0B4128928FF326038
310
472BA13128B1252AC747C6BAB984FC68F0B87FE8960A5C09FE86CFB69FBA01504B0304140006080800CC70623BA24EB22D72010000D40300000C0000006662782F636F72652E786D6CC5535B6E833010BC8AE5DF0A6C5E49888CA3A6694ED00B38E05014B091B1518EDFE511A5A9D228FD2A1F60CDEC7A67C6986DCE4D8D7A
310
69BA4AAB0C073EC548AA5C17952A33ECECD15B61B4E1CC686DBF9561A44423333CC098B3D268D7CE50AE9595CA02AA74216750749DB418E5352C32DCE59FB211BE70162ABA93DF8AFC244AE9073ED050C759670D0840D390E18DF9F1706664C23973AE2A66B62A605A75ACA4C13C4976E1364A12EF355A2EBD384AF65EFA96
310
BC7B8BED2EA6719AAE16FB8491A199335B351775B991C2CA02F390D2D40B028F861F41BCA68B7518BFD0D59A524686F29B26D7164F36B94AD9289CE54E6D1DE6010819891F6E21228B3AD1831EC219194284CF98F06DD01008846CC5A1BEF83801D4CBDC6A1303536877A57A513B0953A94FC707FDBE6064EA84A9E3E6E0FA
310
EE8CF0E9198F7784A316AA0413C2C2F2E0ECA0934D1AE6D05A69BCDE9E91D2A611F573361E38FC1375157F5752AE6B6DFE4B11990F88CCBF0719EE23FF02504B0304140006080800CC70623B408A7D3B7C0000009D0000000B0000006662782F636E782E786D6C4DCCD10A83201886E15B91FFDC552A92A0064DBC8F581632
310
D3703A76F9ABD1C18E3E78F878E5F0D9027ABBFCF2292AE86E2D20171F69F6715550CB827B40839639A5F2770314A7CD293819B45C73AAFB45B35BA61ACAA1C1C7E7855C58C15BC331339661262CC762340413D68D77DA5B42298546CBE6573AF60CEB2F504B0304140006080800CC70623B449FB9BD290100001202000031
310
0000006662782F36394639363044362D344446342D343946362D394244322D3234314243333846323333332F636F72652E786D6C8D515B6EC32010BC0AE22B55850D98B871848994463E412FE002495162B07854397EA176A4F62F3F2C9A9D991D587EB84F37F0AD7D30CEF6905418026DA553C65E7A98E219ED203808EE9D
310
8B7F6810D871D23D2C3014FCE25D9A57483A1BB58D19B54EE9151C43D0110279CB971E06F9A5A7B11A53CC8C70ADE6515EC78BAE4895DB992778883E0700CB907242D17643D7E2538BD869608875438BBAE38922CAC8F1BDD90DB4691A5E2F42C153326A951B95E398B3D1FE599322163C9AE9115F7A3D46ADA0A018778810
310
84E907617BDCEE297BC5BB3DC6BC2EF47FA234AB2745C9D8D8D035EE220B50105E2F0DC1954B9FB747187D9F9D8FA0CCDB042D5FA0C015C65B42DF78BD10F3F3B363CB56C7109DCFDFBBB97E662ED92EB62D13BC2E1BCAE5777DB9966D8A1F504B0304140006080800CC70623BAD7543B64E01000033030000300000006662
310
782F36394639363044362D344446342D343946362D394244322D3234314243333846323333332F636E782E786D6CD593CD6EC32010845F0571AD6CE3D48AD20813A9873E410FBD12D82434182C7EAAE6EDBB2424CD25871E7B41D6EC30B3FA84F9E67BB2E40B4234DE8DB46F1925E094D7C6ED479AD3AE5951B2113C789FEE
310
6C943839C1488B4C05DF079FE72A69D8C96C13AAD6B8631503449F83828872B949AC57D26200B826A308D316B4064D6E46FCDA41C05550DC9E483A00797BFD207EFB092A45DE9514C1BBD22178396BD39D891265658C238DEA00936C654E5E433CB65A26D9F6EDB5EBC14EBF49A45CB856E66048291F6939A9A81BB5C89177
310
38143CA680F4AA299D66A042CEB3354A2684DC9D8D178FE0D9B8B41CAAD720F880EE7EF93C0C18769E099ECC04D5A102C8049A8A05632F4DDF376CF1DE0F6BB65C2F8627B65A33C6BB62177CEBBDAD973006829F89F22E814B54F4BC2BE347F8AA8F681390B50FA73F804400B5F542E796F19FF974E7F78DB802FE05E20750
310
4B0304140006080800CC70623B8D05915C650500003B100000340000006662782F36394639363044362D344446342D343946362D394244322D3234314243333846323333332F6F626A656374732E786D6CAD575B6FA33814FE2B887D06429276DA1565D4266D158D3A339A6846FB502932E050B66023DB74D2FDF5FB190C01
310
9276B2973C046C8ECFF53B17071F77456EBD502133CEAE6CDF9DD81665314F32965ED995DA3A17B6F5310C04E7AA47665B8C14F4CAD6DB7618A48257A5D94AE89654B91AEDDEDDFC61C998326A5B714EA4BCB265FC440BE2924AF184CA6737218AB8E976E7FA6E4338649B0A523E8D98964450A6A029F619B8588D52FE7039
310
B1BD30F0F4F730D0FF866AF6369557DB33949F31A9088B0F848DD8CCFCF9F2767A76E99CCDE733677E3EF59D9BBB9BA5E37F984D16E78BC5E5F5ED25044B25C0C96822E8D60EEFE11B91C581D77CEA34368A1F5329E68CD1B8B61F16D63A1B8E092D294B10C78C4A48EB593D192E7DED9BDEE7995E1B91FDEDD3ACEA9FE831
310
6A756F9F7D4D79F4274C90A7A04248AA51D5F8C718DAE06FB2F75AC4796EBE65D22A88A22223B995679120E2D50E41AA49C260C046A35368846B0BECD0DFF3EBEB8AD4F835768F69B9ADF25C43D30E6B646F807FAA64AD59F61715C7A54127C4AACA98BA3006A9D792DAE165E0D59B61A01FB3A9F9D838D2DAE62445C86166
310
F37564E842E7DE6A69879FEEA2DD5AE7E371E1A5E025154AC307D06A03D73EB5978C58FFA4C8E9033066E0F3BD53BEC1F39F91BE7B55103791EDE6BBB991A2046172CB4581D8B893FA674DDA17A77B3B7C413D1B511FD2743BFF8A38F03A658705E3ADF8015C3A3417FF3D7E439FF591DA0B5F18BC20C1B8981957AE6392A3
310
F43C640C01D1A0B4728E2DD4F26DB4B3C3152A252A3B4E913CEC1C72F012782FF88EFF8637AA552DBEF76408E8A8DE9E50F9E1CB3A2DA0DB1B6039A893B56063DC5B3E3FFB5F72E67AB9FEB4AEC496C4F4C1149625DD662C53E89D7BF0F6151A046260D1337DFDC94502430F83B0EE07A130A224BCAD7DAE1D9FB6CD422FF6
310
920702629C4BB9AE79C12F243C6432A6794E18E5552BA56B431AAB5D91317302B2B071E86C3A42B1A02F999E24061403B5D0EB639195DA655DD3EBEAB4FB862DDF579F014AD0E73C22F99E28DA57FB98E75C6CA2D74D53086D600F4786E0FE3144B771A8A7B900F03594DB8A633CBC49B2EDB69228BB479CF863B5E807AAAB
310
23872F6DFEB4129B949CA33823F58830E86D65621E10047D9DB34D862E8EAC3C2ABC2F7B2C40D67CDFE01F5545B92105AF983AC54D93D69E56FB8E797F88913F898A9FEC705D3F9D1B54EC8426FB500D40A03BD0119B06E1B95DDC7EB8F6975367793EBD70E66733DFB9BC982F9CE564727731999F5D4ECFCE3B8D6A4DC2A0
310
6D50FD148437D110834A64C6CDDF57FBACB5C307A2A477DFE4939736CFEF2B175371E0E10CF0DD1D5C15654E0BCA14D1E87DD02FF93782A162C0A3D95F1524A52770F972BF1EE9809D13CE7DD599467F8ECE9ADD85CE85A34CD45355448C64F9E8A031DC2D596ACC6E5DD93D9B82DE2EF5CAF81363A8E47996A0DE24564A79
310
4115AACE09C55E14540231FDA13C319787134EBF34E3A022514E5B4D9E0826E25C02D5805B15ABE1BEF51B26383D445DD9E875EE33FE4C22DA16427D65A3BCA92CA6D28DD01DF5DC53330704308475351050232CCD31583787BA75774AFB06E5070DD0C8EF484E19968C5D83BA5B90B244D31E54D55A372320FE4786B7EA58
310
44E135AA5467CB7EA333A61683CC6A8C3257034C10CF46F40EF9F5BE59BE5BD30C3C72D235E95D10345C1D45445A5F0BB47E46A5EBE5570F9380B5FA629579952296A773720405982B9DE04011506178964401AA8BDF1FBF0A8EAB6861DD6580C0E38217056766716DAEB2D6FA0917D3E4116581EADB879C4E7CFFB11EFACD
310
3D641311495D92C8676CB409A72D18610D803CE8A626049E8EC1887CB5B44CC39883690DDA8399B4B9855B481E7D71D4A9D22F96E5BB73BF5793020C02137BF837504B0304140006080000CC70623B000000000000000000000000350000006662782F36394639363044362D344446342D343946362D394244322D32343142
310
43333846323333332F76657274696365732E62696E504B0304140006080800CC70623BF270F1330600000004000000360000006662782F36394639363044362D344446342D343946362D394244322D3234314243333846323333332F747269616E676C65732E62696E636660600000504B0304140006080000CC70623B0000
310
00000000000000000000370000006662782F36394639363044362D344446342D343946362D394244322D3234314243333846323333332F617474726962757465732E62696E504B0304140006080800CC70623B08DA0BD19000000041010000360000006662782F36394639363044362D344446342D343946362D394244322D
310
3234314243333846323333332F6469726563746F72792E786D6C858F410AC3201045AF22B36F53E9A60B35CBEEBAE80D244E44489C6234F4F835464A48035D0DF398FF9F8AF63D0E6CC63039F212F8F9020C7D47C6792B21C5FE7403D62A1188E2E60C98D7234A5830286103A55745067B9D86B8A3CF9C7F90C11DE607FB14
310
4396D7B6A82D282E9A152AD114D5EF2CB866EEE831B8EEA07A7BB5A8D7D61A2BAAEB7FD5F70921FF497D00504B0304140006080800CC70623BCA768048FE000000A00100003B0000006662782F36394639363044362D344446342D343946362D394244322D3234314243333846323333332F7265736F75726365732F636F72
310
652E786D6C8D50596E833010BD0A9ADFCA60D600328E9AA639412F609909B1126CE4A5EAF16B0295DABFFECC8CDEA2797AECF8353F924FB44E193D409E5248504B332A3D0D10FC95B4901C39B3C6F85F3248B49871801506CE266BC2B243D2688FDA47549B11775038871E12F988C7004EDE7016A9083E2ADC3D5D84BC8B09
310
D33C8D74D471E6BC8D0192EDC93A815B742658898E651BCB59086ADC356A8C3FD555A1055ED7E7E254D615792D0F075295F585746FF53B694EE78A565DD736979A65AB9933AFE69F8CD2A2F038022F28ED489E135A7CE4554F9BBEA85E68DB53CAB255FEC71496F19FA6A0B42F8B3DEE6673C0F318E4497096AD7DC5F52C33
310
EEB55BFE0D504B010214000A0000080000CC70623B3DEE336E79000000790000001B00000000000000000000000000000000006175746F6465736B2D64657369676E2D7061636B6167652E786D6C504B01021400140006080800CC70623BD486FD9CA0000000F40000001300000000000000000000000000B20000005B436F
310
6E74656E745F54797065735D2E786D6C504B01021400140006080800CC70623BD9DDAED0EC0000007C010000080000000000000000000000000083010000636F72652E786D6C504B01021400140006080800CC70623B55019EA25F0000007C000000070000000000000000000000000095020000636E782E786D6C504B0102
310
1400140006080800CC70623BA24EB22D72010000D40300000C00000000000000000000000000190300006662782F636F72652E786D6C504B01021400140006080800CC70623B408A7D3B7C0000009D0000000B00000000000000000000000000B50400006662782F636E782E786D6C504B01021400140006080800CC70623B
310
449FB9BD290100001202000031000000000000000000000000005A0500006662782F36394639363044362D344446342D343946362D394244322D3234314243333846323333332F636F72652E786D6C504B01021400140006080800CC70623BAD7543B64E010000330300003000000000000000000000000000D20600006662
310
782F36394639363044362D344446342D343946362D394244322D3234314243333846323333332F636E782E786D6C504B01021400140006080800CC70623B8D05915C650500003B10000034000000000000000000000000006E0800006662782F36394639363044362D344446342D343946362D394244322D32343142433338
310
46323333332F6F626A656374732E786D6C504B01021400140006080000CC70623B0000000000000000000000003500000000000000000000000000250E00006662782F36394639363044362D344446342D343946362D394244322D3234314243333846323333332F76657274696365732E62696E504B010214001400060808
310
00CC70623BF270F13306000000040000003600000000000000000000000000780E00006662782F36394639363044362D344446342D343946362D394244322D3234314243333846323333332F747269616E676C65732E62696E504B01021400140006080000CC70623B00000000000000000000000037000000000000000000
310
00000000D20E00006662782F36394639363044362D344446342D343946362D394244322D3234314243333846323333332F617474726962757465732E62696E504B01021400140006080800CC70623B08DA0BD190000000410100003600000000000000000000000000270F00006662782F36394639363044362D344446342D
310
343946362D394244322D3234314243333846323333332F6469726563746F72792E786D6C504B01021400140006080800CC70623BCA768048FE000000A00100003B000000000000000000000000000B1000006662782F36394639363044362D344446342D343946362D394244322D3234314243333846323333332F7265736F
310
75726365732F636F72652E786D6C504B0506000000000E000E0080040000621100000000
  0
XRECORD
  5
176
102
{ACAD_REACTORS
330
173
102
}
330
173
100
AcDbXrecord
280
     1
270
     1
271
     1
  0
XRECORD
  5
177
102
{ACAD_REACTORS
330
173
102
}
330
173
100
AcDbXrecord
280
     1
270
     1
271
     1
  0
XRECORD
  5
41B
102
{ACAD_REACTORS
330
234
102
}
330
234
100
AcDbXrecord
280
     1
102
DISPLAYNAME
  1
Metric50
102
FLAGS
 90
        0
  0
CELLSTYLEMAP
  5
3E1
102
{ACAD_REACTORS
330
162
102
}
330
162
100
AcDbCellStyleMap
 90
        3
300
CELLSTYLE
  1
TABLEFORMAT_BEGIN
 90
        5
170
     1
 91
        0
 92
    32768
 62
   257
 93
        1
300
CONTENTFORMAT
  1
CONTENTFORMAT_BEGIN
 90
        0
 91
        0
 92
      512
 93
        0
300

 40
0.0
140
1.0
 94
        5
 62
     0
340
11
144
6.0
309
CONTENTFORMAT_END
171
     1
301
MARGIN
  1
CELLMARGIN_BEGIN
 40
1.5
 40
1.5
 40
1.5
 40
1.5
 40
4.5
 40
4.5
309
CELLMARGIN_END
 94
        6
 95
        1
302
GRIDFORMAT
  1
GRIDFORMAT_BEGIN
 90
        0
 91
        1
 62
     0
 92
       -2
340
14
 93
        0
 40
1.125
309
GRIDFORMAT_END
 95
        2
302
GRIDFORMAT
  1
GRIDFORMAT_BEGIN
 90
        0
 91
        1
 62
     0
 92
       -2
340
14
 93
        0
 40
1.125
309
GRIDFORMAT_END
 95
        4
302
GRIDFORMAT
  1
GRIDFORMAT_BEGIN
 90
        0
 91
        1
 62
     0
 92
       -2
340
14
 93
        0
 40
1.125
309
GRIDFORMAT_END
 95
        8
302
GRIDFORMAT
  1
GRIDFORMAT_BEGIN
 90
        0
 91
        1
 62
     0
 92
       -2
340
14
 93
        0
 40
1.125
309
GRIDFORMAT_END
 95
       16
302
GRIDFORMAT
  1
GRIDFORMAT_BEGIN
 90
        0
 91
        1
 62
     0
 92
       -2
340
14
 93
        0
 40
1.125
309
GRIDFORMAT_END
 95
       32
302
GRIDFORMAT
  1
GRIDFORMAT_BEGIN
 90
        0
 91
        1
 62
     0
 92
       -2
340
14
 93
        0
 40
1.125
309
GRIDFORMAT_END
309
TABLEFORMAT_END
  1
CELLSTYLE_BEGIN
 90
        1
 91
        1
300
_TITLE
309
CELLSTYLE_END
300
CELLSTYLE
  1
TABLEFORMAT_BEGIN
 90
        5
170
     1
 91
        0
 92
        0
 62
   257
 93
        1
300
CONTENTFORMAT
  1
CONTENTFORMAT_BEGIN
 90
        0
 91
        0
 92
      512
 93
        0
300

 40
0.0
140
1.0
 94
        5
 62
     0
340
11
144
4.5
309
CONTENTFORMAT_END
171
     1
301
MARGIN
  1
CELLMARGIN_BEGIN
 40
1.5
 40
1.5
 40
1.5
 40
1.5
 40
4.5
 40
4.5
309
CELLMARGIN_END
 94
        6
 95
        1
302
GRIDFORMAT
  1
GRIDFORMAT_BEGIN
 90
        0
 91
        1
 62
     0
 92
       -2
340
14
 93
        0
 40
1.125
309
GRIDFORMAT_END
 95
        2
302
GRIDFORMAT
  1
GRIDFORMAT_BEGIN
 90
        0
 91
        1
 62
     0
 92
       -2
340
14
 93
        0
 40
1.125
309
GRIDFORMAT_END
 95
        4
302
GRIDFORMAT
  1
GRIDFORMAT_BEGIN
 90
        0
 91
        1
 62
     0
 92
       -2
340
14
 93
        0
 40
1.125
309
GRIDFORMAT_END
 95
        8
302
GRIDFORMAT
  1
GRIDFORMAT_BEGIN
 90
        0
 91
        1
 62
     0
 92
       -2
340
14
 93
        0
 40
1.125
309
GRIDFORMAT_END
 95
       16
302
GRIDFORMAT
  1
GRIDFORMAT_BEGIN
 90
        0
 91
        1
 62
     0
 92
       -2
340
14
 93
        0
 40
1.125
309
GRIDFORMAT_END
 95
       32
302
GRIDFORMAT
  1
GRIDFORMAT_BEGIN
 90
        0
 91
        1
 62
     0
 92
       -2
340
14
 93
        0
 40
1.125
309
GRIDFORMAT_END
309
TABLEFORMAT_END
  1
CELLSTYLE_BEGIN
 90
        2
 91
        1
300
_HEADER
309
CELLSTYLE_END
300
CELLSTYLE
  1
TABLEFORMAT_BEGIN
 90
        5
170
     1
 91
        0
 92
        0
 62
   257
 93
        1
300
CONTENTFORMAT
  1
CONTENTFORMAT_BEGIN
 90
        0
 91
        0
 92
      512
 93
        0
300

 40
0.0
140
1.0
 94
        2
 62
     0
340
11
144
4.5
309
CONTENTFORMAT_END
171
     1
301
MARGIN
  1
CELLMARGIN_BEGIN
 40
1.5
 40
1.5
 40
1.5
 40
1.5
 40
4.5
 40
4.5
309
CELLMARGIN_END
 94
        6
 95
        1
302
GRIDFORMAT
  1
GRIDFORMAT_BEGIN
 90
        0
 91
        1
 62
     0
 92
       -2
340
14
 93
        0
 40
1.125
309
GRIDFORMAT_END
 95
        2
302
GRIDFORMAT
  1
GRIDFORMAT_BEGIN
 90
        0
 91
        1
 62
     0
 92
       -2
340
14
 93
        0
 40
1.125
309
GRIDFORMAT_END
 95
        4
302
GRIDFORMAT
  1
GRIDFORMAT_BEGIN
 90
        0
 91
        1
 62
     0
 92
       -2
340
14
 93
        0
 40
1.125
309
GRIDFORMAT_END
 95
        8
302
GRIDFORMAT
  1
GRIDFORMAT_BEGIN
 90
        0
 91
        1
 62
     0
 92
       -2
340
14
 93
        0
 40
1.125
309
GRIDFORMAT_END
 95
       16
302
GRIDFORMAT
  1
GRIDFORMAT_BEGIN
 90
        0
 91
        1
 62
     0
 92
       -2
340
14
 93
        0
 40
1.125
309
GRIDFORMAT_END
 95
       32
302
GRIDFORMAT
  1
GRIDFORMAT_BEGIN
 90
        0
 91
        1
 62
     0
 92
       -2
340
14
 93
        0
 40
1.125
309
GRIDFORMAT_END
309
TABLEFORMAT_END
  1
CELLSTYLE_BEGIN
 90
        3
 91
        2
300
_DATA
309
CELLSTYLE_END
  0
XRECORD
  5
3F6
102
{ACAD_REACTORS
330
3F5
102
}
330
3F5
100
AcDbXrecord
280
     1
102
RTVSPost2010Prop28
280
     1
102
RTVSPost2010PropOp28
 70
     1
102
RTVSPost2010Prop29
280
     1
102
RTVSPost2010PropOp29
 70
     1
102
RTVSPost2010Prop30
280
     0
102
RTVSPost2010PropOp30
 70
     1
102
RTVSPost2010Prop31
280
     0
102
RTVSPost2010PropOp31
 70
     1
102
RTVSPost2010Prop32
280
     0
102
RTVSPost2010PropOp32
 70
     1
102
RTVSPost2010Prop33
280
     0
102
RTVSPost2010PropOp33
 70
     1
102
RTVSPost2010Prop34
280
     0
102
RTVSPost2010PropOp34
 70
     1
102
RTVSPost2010Prop35
280
     0
102
RTVSPost2010PropOp35
 70
     1
102
RTVSPost2010Prop36
280
     0
102
RTVSPost2010PropOp36
 70
     1
102
RTVSPost2010Prop37
 90
       50
102
RTVSPost2010PropOp37
 70
     1
102
RTVSPost2010Prop38
140
0.0
102
RTVSPost2010PropOp38
 70
     1
102
RTVSPost2010Prop39
140
1.0
102
RTVSPost2010PropOp39
 70
     1
102
RTVSPost2010Prop40
 90
        0
102
RTVSPost2010PropOp40
 70
     1
102
RTVSPost2010Prop41ColorIndex
 90
       18
102
RTVSPost2010Prop41ColorRGB
 90
        0
102
RTVSPost2010PropOp41
 70
     1
102
RTVSPost2010Prop42
 90
       50
102
RTVSPost2010PropOp42
 70
     1
102
RTVSPost2010Prop43
 90
        3
102
RTVSPost2010PropOp43
 70
     1
102
RTVSPost2010Prop44ColorIndex
 90
        5
102
RTVSPost2010Prop44ColorRGB
 90
      255
102
RTVSPost2010PropOp44
 70
     1
102
RTVSPost2010Prop45
280
     0
102
RTVSPost2010PropOp45
 70
     1
102
RTVSPost2010Prop46
 90
       50
102
RTVSPost2010PropOp46
 70
     1
102
RTVSPost2010Prop47
 90
       50
102
RTVSPost2010PropOp47
 70
     1
102
RTVSPost2010Prop48
 90
       50
102
RTVSPost2010PropOp48
 70
     1
102
RTVSPost2010Prop49
280
     0
102
RTVSPost2010PropOp49
 70
     1
102
RTVSPost2010Prop50
 90
       50
102
RTVSPost2010PropOp50
 70
     1
102
RTVSPost2010Prop51ColorIndex
 90
      256
102
RTVSPost2010Prop51ColorRGB
 90
-16777216
102
RTVSPost2010PropOp51
 70
     0
102
RTVSPost2010Prop52
140
1.0
102
RTVSPost2010PropOp52
 70
     0
102
RTVSPost2010Prop53
 90
        2
102
RTVSPost2010PropOp53
 70
     1
102
RTVSPost2010Prop54
  1
strokes_ogs.tif
102
RTVSPost2010PropOp54
 70
     1
102
RTVSPost2010Prop55
280
     0
102
RTVSPost2010PropOp55
 70
     1
102
RTVSPost2010Prop56
140
1.0
102
RTVSPost2010PropOp56
 70
     1
102
RTVSPost2010Prop57
140
1.0
102
RTVSPost2010PropOp57
 70
     1
102
RTVSPropertyOp0
 70
     1
102
RTVSPropertyOp1
 70
     1
102
RTVSPropertyOp2
 70
     1
102
RTVSPropertyOp3
 70
     1
102
RTVSPropertyOp4
 70
     1
102
RTVSPropertyOp5
 70
     1
102
RTVSPropertyOp6
 70
     1
102
RTVSPropertyOp7
 70
     1
102
RTVSPropertyOp8
 70
     1
102
RTVSPropertyOp9
 70
     1
102
RTVSPropertyOp10
 70
     1
102
RTVSPropertyOp11
 70
     1
102
RTVSPropertyOp12
 70
     1
102
RTVSPropertyOp13
 70
     1
102
RTVSPropertyOp14
 70
     1
102
RTVSPropertyOp15
 70
     1
102
RTVSPropertyOp16
 70
     1
102
RTVSPropertyOp17
 70
     1
102
RTVSPropertyOp18
 70
     1
102
RTVSPropertyOp19
 70
     1
102
RTVSPropertyOp20
 70
     1
102
RTVSPropertyOp21
 70
     1
102
RTVSPropertyOp22
 70
     1
102
RTVSPropertyOp23
 70
     1
102
RTVSPropertyOp24
 70
     1
102
RTVSPropertyOp25
 70
     1
102
RTVSPropertyOp26
 70
     1
102
RTVSPropertyOp27
 70
     1
102
RTVSPropertyOp28
 70
     1
102
RTVSPropertyOp29
 70
     1
102
RTVSPropertyOp30
 70
     1
102
RTVSPropertyOp31
 70
     1
102
RTVSPropertyOp32
 70
     1
102
RTVSPropertyOp33
 70
     1
102
RTVSPropertyOp34
 70
     1
102
RTVSPropertyOp35
 70
     1
102
RTVSPropertyOp36
 70
     1
102
RTVSPropertyOp37
 70
     1
102
RTVSPropertyOp38
 70
     1
102
RTVSPropertyOp39
 70
     1
102
RTVSPropertyOp40
 70
     1
102
RTVSPropertyOp41
 70
     1
102
RTVSPropertyOp42
 70
     1
102
RTVSPropertyOp43
 70
     1
102
RTVSPropertyOp44
 70
     1
102
RTVSPropertyOp45
 70
     1
102
RTVSPropertyOp46
 70
     1
102
RTVSPropertyOp47
 70
     1
102
RTVSPropertyOp48
 70
     1
102
RTVSPropertyOp49
 70
     1
102
RTVSPropertyOp50
 70
     1
102
RTVSPropertyOp51
 70
     0
102
RTVSPropertyOp52
 70
     0
102
RTVSPropertyOp53
 70
     1
102
RTVSPropertyOp54
 70
     1
102
RTVSPropertyOp55
 70
     1
102
RTVSPropertyOp56
 70
     1
102
RTVSPropertyOp57
 70
     1
102
RTVSPropertyOp58
 70
     1
102
RTVSPropertyOp59
 70
     1
102
RTVSPropertyOp60
 70
     1
102
RTVSPropertyOp61
 70
     1
102
RTVSPropertyOp62
 70
     1
  0
XRECORD
  5
3F4
102
{ACAD_REACTORS
330
3F3
102
}
330
3F3
100
AcDbXrecord
280
     1
102
RTVSPost2010Prop28
280
     0
102
RTVSPost2010PropOp28
 70
     1
102
RTVSPost2010Prop29
280
     1
102
RTVSPost2010PropOp29
 70
     1
102
RTVSPost2010Prop30
280
     1
102
RTVSPost2010PropOp30
 70
     1
102
RTVSPost2010Prop31
280
     0
102
RTVSPost2010PropOp31
 70
     1
102
RTVSPost2010Prop32
280
     0
102
RTVSPost2010PropOp32
 70
     1
102
RTVSPost2010Prop33
280
     0
102
RTVSPost2010PropOp33
 70
     1
102
RTVSPost2010Prop34
280
     0
102
RTVSPost2010PropOp34
 70
     1
102
RTVSPost2010Prop35
280
     0
102
RTVSPost2010PropOp35
 70
     1
102
RTVSPost2010Prop36
280
     0
102
RTVSPost2010PropOp36
 70
     1
102
RTVSPost2010Prop37
 90
       50
102
RTVSPost2010PropOp37
 70
     1
102
RTVSPost2010Prop38
140
0.0
102
RTVSPost2010PropOp38
 70
     1
102
RTVSPost2010Prop39
140
1.0
102
RTVSPost2010PropOp39
 70
     1
102
RTVSPost2010Prop40
 90
        0
102
RTVSPost2010PropOp40
 70
     1
102
RTVSPost2010Prop41ColorIndex
 90
       18
102
RTVSPost2010Prop41ColorRGB
 90
        0
102
RTVSPost2010PropOp41
 70
     1
102
RTVSPost2010Prop42
 90
       50
102
RTVSPost2010PropOp42
 70
     1
102
RTVSPost2010Prop43
 90
        3
102
RTVSPost2010PropOp43
 70
     1
102
RTVSPost2010Prop44ColorIndex
 90
        5
102
RTVSPost2010Prop44ColorRGB
 90
      255
102
RTVSPost2010PropOp44
 70
     1
102
RTVSPost2010Prop45
280
     0
102
RTVSPost2010PropOp45
 70
     1
102
RTVSPost2010Prop46
 90
       50
102
RTVSPost2010PropOp46
 70
     1
102
RTVSPost2010Prop47
 90
       50
102
RTVSPost2010PropOp47
 70
     1
102
RTVSPost2010Prop48
 90
       50
102
RTVSPost2010PropOp48
 70
     1
102
RTVSPost2010Prop49
280
     0
102
RTVSPost2010PropOp49
 70
     1
102
RTVSPost2010Prop50
 90
       50
102
RTVSPost2010PropOp50
 70
     1
102
RTVSPost2010Prop51ColorIndex
 90
      256
102
RTVSPost2010Prop51ColorRGB
 90
-16777216
102
RTVSPost2010PropOp51
 70
     0
102
RTVSPost2010Prop52
140
1.0
102
RTVSPost2010PropOp52
 70
     0
102
RTVSPost2010Prop53
 90
        2
102
RTVSPost2010PropOp53
 70
     1
102
RTVSPost2010Prop54
  1
strokes_ogs.tif
102
RTVSPost2010PropOp54
 70
     1
102
RTVSPost2010Prop55
280
     0
102
RTVSPost2010PropOp55
 70
     1
102
RTVSPost2010Prop56
140
1.0
102
RTVSPost2010PropOp56
 70
     1
102
RTVSPost2010Prop57
140
1.0
102
RTVSPost2010PropOp57
 70
     1
102
RTVSPropertyOp0
 70
     1
102
RTVSPropertyOp1
 70
     1
102
RTVSPropertyOp2
 70
     1
102
RTVSPropertyOp3
 70
     1
102
RTVSPropertyOp4
 70
     1
102
RTVSPropertyOp5
 70
     1
102
RTVSPropertyOp6
 70
     1
102
RTVSPropertyOp7
 70
     1
102
RTVSPropertyOp8
 70
     1
102
RTVSPropertyOp9
 70
     1
102
RTVSPropertyOp10
 70
     1
102
RTVSPropertyOp11
 70
     1
102
RTVSPropertyOp12
 70
     1
102
RTVSPropertyOp13
 70
     1
102
RTVSPropertyOp14
 70
     1
102
RTVSPropertyOp15
 70
     1
102
RTVSPropertyOp16
 70
     1
102
RTVSPropertyOp17
 70
     1
102
RTVSPropertyOp18
 70
     1
102
RTVSPropertyOp19
 70
     1
102
RTVSPropertyOp20
 70
     1
102
RTVSPropertyOp21
 70
     1
102
RTVSPropertyOp22
 70
     1
102
RTVSPropertyOp23
 70
     1
102
RTVSPropertyOp24
 70
     1
102
RTVSPropertyOp25
 70
     1
102
RTVSPropertyOp26
 70
     1
102
RTVSPropertyOp27
 70
     1
102
RTVSPropertyOp28
 70
     1
102
RTVSPropertyOp29
 70
     1
102
RTVSPropertyOp30
 70
     1
102
RTVSPropertyOp31
 70
     1
102
RTVSPropertyOp32
 70
     1
102
RTVSPropertyOp33
 70
     1
102
RTVSPropertyOp34
 70
     1
102
RTVSPropertyOp35
 70
     1
102
RTVSPropertyOp36
 70
     1
102
RTVSPropertyOp37
 70
     1
102
RTVSPropertyOp38
 70
     1
102
RTVSPropertyOp39
 70
     1
102
RTVSPropertyOp40
 70
     1
102
RTVSPropertyOp41
 70
     1
102
RTVSPropertyOp42
 70
     1
102
RTVSPropertyOp43
 70
     1
102
RTVSPropertyOp44
 70
     1
102
RTVSPropertyOp45
 70
     1
102
RTVSPropertyOp46
 70
     1
102
RTVSPropertyOp47
 70
     1
102
RTVSPropertyOp48
 70
     1
102
RTVSPropertyOp49
 70
     1
102
RTVSPropertyOp50
 70
     1
102
RTVSPropertyOp51
 70
     0
102
RTVSPropertyOp52
 70
     0
102
RTVSPropertyOp53
 70
     1
102
RTVSPropertyOp54
 70
     1
102
RTVSPropertyOp55
 70
     1
102
RTVSPropertyOp56
 70
     1
102
RTVSPropertyOp57
 70
     1
102
RTVSPropertyOp58
 70
     1
102
RTVSPropertyOp59
 70
     1
102
RTVSPropertyOp60
 70
     1
102
RTVSPropertyOp61
 70
     1
102
RTVSPropertyOp62
 70
     1
  0
XRECORD
  5
402
102
{ACAD_REACTORS
330
401
102
}
330
401
100
AcDbXrecord
280
     1
102
RTVSPost2010Prop28
280
     0
102
RTVSPost2010PropOp28
 70
     1
102
RTVSPost2010Prop29
280
     1
102
RTVSPost2010PropOp29
 70
     1
102
RTVSPost2010Prop30
280
     1
102
RTVSPost2010PropOp30
 70
     1
102
RTVSPost2010Prop31
280
     0
102
RTVSPost2010PropOp31
 70
     1
102
RTVSPost2010Prop32
280
     0
102
RTVSPost2010PropOp32
 70
     1
102
RTVSPost2010Prop33
280
     0
102
RTVSPost2010PropOp33
 70
     1
102
RTVSPost2010Prop34
280
     0
102
RTVSPost2010PropOp34
 70
     1
102
RTVSPost2010Prop35
280
     0
102
RTVSPost2010PropOp35
 70
     1
102
RTVSPost2010Prop36
280
     0
102
RTVSPost2010PropOp36
 70
     1
102
RTVSPost2010Prop37
 90
       50
102
RTVSPost2010PropOp37
 70
     1
102
RTVSPost2010Prop38
140
0.0
102
RTVSPost2010PropOp38
 70
     1
102
RTVSPost2010Prop39
140
1.0
102
RTVSPost2010PropOp39
 70
     1
102
RTVSPost2010Prop40
 90
        0
102
RTVSPost2010PropOp40
 70
     1
102
RTVSPost2010Prop41ColorIndex
 90
       18
102
RTVSPost2010Prop41ColorRGB
 90
        0
102
RTVSPost2010PropOp41
 70
     1
102
RTVSPost2010Prop42
 90
       50
102
RTVSPost2010PropOp42
 70
     1
102
RTVSPost2010Prop43
 90
        3
102
RTVSPost2010PropOp43
 70
     1
102
RTVSPost2010Prop44ColorIndex
 90
        5
102
RTVSPost2010Prop44ColorRGB
 90
      255
102
RTVSPost2010PropOp44
 70
     1
102
RTVSPost2010Prop45
280
     0
102
RTVSPost2010PropOp45
 70
     1
102
RTVSPost2010Prop46
 90
       50
102
RTVSPost2010PropOp46
 70
     1
102
RTVSPost2010Prop47
 90
       50
102
RTVSPost2010PropOp47
 70
     1
102
RTVSPost2010Prop48
 90
       50
102
RTVSPost2010PropOp48
 70
     1
102
RTVSPost2010Prop49
280
     0
102
RTVSPost2010PropOp49
 70
     1
102
RTVSPost2010Prop50
 90
       50
102
RTVSPost2010PropOp50
 70
     1
102
RTVSPost2010Prop51ColorIndex
 90
      256
102
RTVSPost2010Prop51ColorRGB
 90
-16777216
102
RTVSPost2010PropOp51
 70
     0
102
RTVSPost2010Prop52
140
1.0
102
RTVSPost2010PropOp52
 70
     0
102
RTVSPost2010Prop53
 90
        2
102
RTVSPost2010PropOp53
 70
     1
102
RTVSPost2010Prop54
  1
strokes_ogs.tif
102
RTVSPost2010PropOp54
 70
     1
102
RTVSPost2010Prop55
280
     0
102
RTVSPost2010PropOp55
 70
     1
102
RTVSPost2010Prop56
140
1.0
102
RTVSPost2010PropOp56
 70
     1
102
RTVSPost2010Prop57
140
1.0
102
RTVSPost2010PropOp57
 70
     1
102
RTVSPropertyOp0
 70
     1
102
RTVSPropertyOp1
 70
     1
102
RTVSPropertyOp2
 70
     1
102
RTVSPropertyOp3
 70
     1
102
RTVSPropertyOp4
 70
     1
102
RTVSPropertyOp5
 70
     1
102
RTVSPropertyOp6
 70
     1
102
RTVSPropertyOp7
 70
     1
102
RTVSPropertyOp8
 70
     1
102
RTVSPropertyOp9
 70
     1
102
RTVSPropertyOp10
 70
     1
102
RTVSPropertyOp11
 70
     1
102
RTVSPropertyOp12
 70
     1
102
RTVSPropertyOp13
 70
     1
102
RTVSPropertyOp14
 70
     1
102
RTVSPropertyOp15
 70
     1
102
RTVSPropertyOp16
 70
     1
102
RTVSPropertyOp17
 70
     1
102
RTVSPropertyOp18
 70
     1
102
RTVSPropertyOp19
 70
     1
102
RTVSPropertyOp20
 70
     1
102
RTVSPropertyOp21
 70
     1
102
RTVSPropertyOp22
 70
     1
102
RTVSPropertyOp23
 70
     1
102
RTVSPropertyOp24
 70
     1
102
RTVSPropertyOp25
 70
     1
102
RTVSPropertyOp26
 70
     1
102
RTVSPropertyOp27
 70
     1
102
RTVSPropertyOp28
 70
     1
102
RTVSPropertyOp29
 70
     1
102
RTVSPropertyOp30
 70
     1
102
RTVSPropertyOp31
 70
     1
102
RTVSPropertyOp32
 70
     1
102
RTVSPropertyOp33
 70
     1
102
RTVSPropertyOp34
 70
     1
102
RTVSPropertyOp35
 70
     1
102
RTVSPropertyOp36
 70
     1
102
RTVSPropertyOp37
 70
     1
102
RTVSPropertyOp38
 70
     1
102
RTVSPropertyOp39
 70
     1
102
RTVSPropertyOp40
 70
     1
102
RTVSPropertyOp41
 70
     1
102
RTVSPropertyOp42
 70
     1
102
RTVSPropertyOp43
 70
     1
102
RTVSPropertyOp44
 70
     1
102
RTVSPropertyOp45
 70
     1
102
RTVSPropertyOp46
 70
     1
102
RTVSPropertyOp47
 70
     1
102
RTVSPropertyOp48
 70
     1
102
RTVSPropertyOp49
 70
     1
102
RTVSPropertyOp50
 70
     1
102
RTVSPropertyOp51
 70
     0
102
RTVSPropertyOp52
 70
     0
102
RTVSPropertyOp53
 70
     1
102
RTVSPropertyOp54
 70
     1
102
RTVSPropertyOp55
 70
     1
102
RTVSPropertyOp56
 70
     1
102
RTVSPropertyOp57
 70
     1
102
RTVSPropertyOp58
 70
     1
102
RTVSPropertyOp59
 70
     1
102
RTVSPropertyOp60
 70
     1
102
RTVSPropertyOp61
 70
     1
102
RTVSPropertyOp62
 70
     1
  0
XRECORD
  5
40A
102
{ACAD_REACTORS
330
409
102
}
330
409
100
AcDbXrecord
280
     1
102
RTVSPost2010Prop28
280
     0
102
RTVSPost2010PropOp28
 70
     1
102
RTVSPost2010Prop29
280
     1
102
RTVSPost2010PropOp29
 70
     1
102
RTVSPost2010Prop30
280
     1
102
RTVSPost2010PropOp30
 70
     1
102
RTVSPost2010Prop31
280
     0
102
RTVSPost2010PropOp31
 70
     1
102
RTVSPost2010Prop32
280
     0
102
RTVSPost2010PropOp32
 70
     1
102
RTVSPost2010Prop33
280
     0
102
RTVSPost2010PropOp33
 70
     1
102
RTVSPost2010Prop34
280
     0
102
RTVSPost2010PropOp34
 70
     1
102
RTVSPost2010Prop35
280
     0
102
RTVSPost2010PropOp35
 70
     1
102
RTVSPost2010Prop36
280
     0
102
RTVSPost2010PropOp36
 70
     1
102
RTVSPost2010Prop37
 90
       50
102
RTVSPost2010PropOp37
 70
     1
102
RTVSPost2010Prop38
140
0.0
102
RTVSPost2010PropOp38
 70
     1
102
RTVSPost2010Prop39
140
1.0
102
RTVSPost2010PropOp39
 70
     1
102
RTVSPost2010Prop40
 90
        0
102
RTVSPost2010PropOp40
 70
     1
102
RTVSPost2010Prop41ColorIndex
 90
       18
102
RTVSPost2010Prop41ColorRGB
 90
        0
102
RTVSPost2010PropOp41
 70
     1
102
RTVSPost2010Prop42
 90
       50
102
RTVSPost2010PropOp42
 70
     1
102
RTVSPost2010Prop43
 90
        3
102
RTVSPost2010PropOp43
 70
     1
102
RTVSPost2010Prop44ColorIndex
 90
        5
102
RTVSPost2010Prop44ColorRGB
 90
      255
102
RTVSPost2010PropOp44
 70
     1
102
RTVSPost2010Prop45
280
     0
102
RTVSPost2010PropOp45
 70
     1
102
RTVSPost2010Prop46
 90
       50
102
RTVSPost2010PropOp46
 70
     1
102
RTVSPost2010Prop47
 90
       50
102
RTVSPost2010PropOp47
 70
     1
102
RTVSPost2010Prop48
 90
       50
102
RTVSPost2010PropOp48
 70
     1
102
RTVSPost2010Prop49
280
     0
102
RTVSPost2010PropOp49
 70
     1
102
RTVSPost2010Prop50
 90
       50
102
RTVSPost2010PropOp50
 70
     1
102
RTVSPost2010Prop51ColorIndex
 90
      256
102
RTVSPost2010Prop51ColorRGB
 90
-16777216
102
RTVSPost2010PropOp51
 70
     0
102
RTVSPost2010Prop52
140
1.0
102
RTVSPost2010PropOp52
 70
     0
102
RTVSPost2010Prop53
 90
        2
102
RTVSPost2010PropOp53
 70
     1
102
RTVSPost2010Prop54
  1
strokes_ogs.tif
102
RTVSPost2010PropOp54
 70
     1
102
RTVSPost2010Prop55
280
     0
102
RTVSPost2010PropOp55
 70
     1
102
RTVSPost2010Prop56
140
1.0
102
RTVSPost2010PropOp56
 70
     1
102
RTVSPost2010Prop57
140
1.0
102
RTVSPost2010PropOp57
 70
     1
102
RTVSPropertyOp0
 70
     1
102
RTVSPropertyOp1
 70
     1
102
RTVSPropertyOp2
 70
     1
102
RTVSPropertyOp3
 70
     1
102
RTVSPropertyOp4
 70
     1
102
RTVSPropertyOp5
 70
     1
102
RTVSPropertyOp6
 70
     1
102
RTVSPropertyOp7
 70
     1
102
RTVSPropertyOp8
 70
     1
102
RTVSPropertyOp9
 70
     1
102
RTVSPropertyOp10
 70
     1
102
RTVSPropertyOp11
 70
     1
102
RTVSPropertyOp12
 70
     1
102
RTVSPropertyOp13
 70
     1
102
RTVSPropertyOp14
 70
     1
102
RTVSPropertyOp15
 70
     1
102
RTVSPropertyOp16
 70
     1
102
RTVSPropertyOp17
 70
     1
102
RTVSPropertyOp18
 70
     1
102
RTVSPropertyOp19
 70
     1
102
RTVSPropertyOp20
 70
     1
102
RTVSPropertyOp21
 70
     1
102
RTVSPropertyOp22
 70
     1
102
RTVSPropertyOp23
 70
     1
102
RTVSPropertyOp24
 70
     1
102
RTVSPropertyOp25
 70
     1
102
RTVSPropertyOp26
 70
     1
102
RTVSPropertyOp27
 70
     1
102
RTVSPropertyOp28
 70
     1
102
RTVSPropertyOp29
 70
     1
102
RTVSPropertyOp30
 70
     1
102
RTVSPropertyOp31
 70
     1
102
RTVSPropertyOp32
 70
     1
102
RTVSPropertyOp33
 70
     1
102
RTVSPropertyOp34
 70
     1
102
RTVSPropertyOp35
 70
     1
102
RTVSPropertyOp36
 70
     1
102
RTVSPropertyOp37
 70
     1
102
RTVSPropertyOp38
 70
     1
102
RTVSPropertyOp39
 70
     1
102
RTVSPropertyOp40
 70
     1
102
RTVSPropertyOp41
 70
     1
102
RTVSPropertyOp42
 70
     1
102
RTVSPropertyOp43
 70
     1
102
RTVSPropertyOp44
 70
     1
102
RTVSPropertyOp45
 70
     1
102
RTVSPropertyOp46
 70
     1
102
RTVSPropertyOp47
 70
     1
102
RTVSPropertyOp48
 70
     1
102
RTVSPropertyOp49
 70
     1
102
RTVSPropertyOp50
 70
     1
102
RTVSPropertyOp51
 70
     0
102
RTVSPropertyOp52
 70
     0
102
RTVSPropertyOp53
 70
     1
102
RTVSPropertyOp54
 70
     1
102
RTVSPropertyOp55
 70
     1
102
RTVSPropertyOp56
 70
     1
102
RTVSPropertyOp57
 70
     1
102
RTVSPropertyOp58
 70
     1
102
RTVSPropertyOp59
 70
     1
102
RTVSPropertyOp60
 70
     1
102
RTVSPropertyOp61
 70
     1
102
RTVSPropertyOp62
 70
     1
  0
XRECORD
  5
3FC
102
{ACAD_REACTORS
330
3FB
102
}
330
3FB
100
AcDbXrecord
280
     1
102
RTVSPost2010Prop28
280
     0
102
RTVSPost2010PropOp28
 70
     1
102
RTVSPost2010Prop29
280
     1
102
RTVSPost2010PropOp29
 70
     1
102
RTVSPost2010Prop30
280
     1
102
RTVSPost2010PropOp30
 70
     1
102
RTVSPost2010Prop31
280
     0
102
RTVSPost2010PropOp31
 70
     1
102
RTVSPost2010Prop32
280
     0
102
RTVSPost2010PropOp32
 70
     1
102
RTVSPost2010Prop33
280
     0
102
RTVSPost2010PropOp33
 70
     1
102
RTVSPost2010Prop34
280
     0
102
RTVSPost2010PropOp34
 70
     1
102
RTVSPost2010Prop35
280
     0
102
RTVSPost2010PropOp35
 70
     1
102
RTVSPost2010Prop36
280
     0
102
RTVSPost2010PropOp36
 70
     1
102
RTVSPost2010Prop37
 90
       50
102
RTVSPost2010PropOp37
 70
     1
102
RTVSPost2010Prop38
140
0.0
102
RTVSPost2010PropOp38
 70
     1
102
RTVSPost2010Prop39
140
1.0
102
RTVSPost2010PropOp39
 70
     1
102
RTVSPost2010Prop40
 90
        0
102
RTVSPost2010PropOp40
 70
     1
102
RTVSPost2010Prop41ColorIndex
 90
       18
102
RTVSPost2010Prop41ColorRGB
 90
        0
102
RTVSPost2010PropOp41
 70
     1
102
RTVSPost2010Prop42
 90
       50
102
RTVSPost2010PropOp42
 70
     1
102
RTVSPost2010Prop43
 90
        3
102
RTVSPost2010PropOp43
 70
     1
102
RTVSPost2010Prop44ColorIndex
 90
        5
102
RTVSPost2010Prop44ColorRGB
 90
      255
102
RTVSPost2010PropOp44
 70
     1
102
RTVSPost2010Prop45
280
     0
102
RTVSPost2010PropOp45
 70
     1
102
RTVSPost2010Prop46
 90
       50
102
RTVSPost2010PropOp46
 70
     1
102
RTVSPost2010Prop47
 90
       50
102
RTVSPost2010PropOp47
 70
     1
102
RTVSPost2010Prop48
 90
       50
102
RTVSPost2010PropOp48
 70
     1
102
RTVSPost2010Prop49
280
     0
102
RTVSPost2010PropOp49
 70
     1
102
RTVSPost2010Prop50
 90
       50
102
RTVSPost2010PropOp50
 70
     1
102
RTVSPost2010Prop51ColorIndex
 90
      256
102
RTVSPost2010Prop51ColorRGB
 90
-16777216
102
RTVSPost2010PropOp51
 70
     0
102
RTVSPost2010Prop52
140
1.0
102
RTVSPost2010PropOp52
 70
     0
102
RTVSPost2010Prop53
 90
        2
102
RTVSPost2010PropOp53
 70
     1
102
RTVSPost2010Prop54
  1
strokes_ogs.tif
102
RTVSPost2010PropOp54
 70
     1
102
RTVSPost2010Prop55
280
     0
102
RTVSPost2010PropOp55
 70
     1
102
RTVSPost2010Prop56
140
1.0
102
RTVSPost2010PropOp56
 70
     1
102
RTVSPost2010Prop57
140
1.0
102
RTVSPost2010PropOp57
 70
     1
102
RTVSPropertyOp0
 70
     1
102
RTVSPropertyOp1
 70
     1
102
RTVSPropertyOp2
 70
     1
102
RTVSPropertyOp3
 70
     1
102
RTVSPropertyOp4
 70
     1
102
RTVSPropertyOp5
 70
     1
102
RTVSPropertyOp6
 70
     1
102
RTVSPropertyOp7
 70
     1
102
RTVSPropertyOp8
 70
     1
102
RTVSPropertyOp9
 70
     1
102
RTVSPropertyOp10
 70
     1
102
RTVSPropertyOp11
 70
     1
102
RTVSPropertyOp12
 70
     1
102
RTVSPropertyOp13
 70
     1
102
RTVSPropertyOp14
 70
     1
102
RTVSPropertyOp15
 70
     1
102
RTVSPropertyOp16
 70
     1
102
RTVSPropertyOp17
 70
     1
102
RTVSPropertyOp18
 70
     1
102
RTVSPropertyOp19
 70
     1
102
RTVSPropertyOp20
 70
     1
102
RTVSPropertyOp21
 70
     1
102
RTVSPropertyOp22
 70
     1
102
RTVSPropertyOp23
 70
     1
102
RTVSPropertyOp24
 70
     1
102
RTVSPropertyOp25
 70
     1
102
RTVSPropertyOp26
 70
     1
102
RTVSPropertyOp27
 70
     1
102
RTVSPropertyOp28
 70
     1
102
RTVSPropertyOp29
 70
     1
102
RTVSPropertyOp30
 70
     1
102
RTVSPropertyOp31
 70
     1
102
RTVSPropertyOp32
 70
     1
102
RTVSPropertyOp33
 70
     1
102
RTVSPropertyOp34
 70
     1
102
RTVSPropertyOp35
 70
     1
102
RTVSPropertyOp36
 70
     1
102
RTVSPropertyOp37
 70
     1
102
RTVSPropertyOp38
 70
     1
102
RTVSPropertyOp39
 70
     1
102
RTVSPropertyOp40
 70
     1
102
RTVSPropertyOp41
 70
     1
102
RTVSPropertyOp42
 70
     1
102
RTVSPropertyOp43
 70
     1
102
RTVSPropertyOp44
 70
     1
102
RTVSPropertyOp45
 70
     1
102
RTVSPropertyOp46
 70
     1
102
RTVSPropertyOp47
 70
     1
102
RTVSPropertyOp48
 70
     1
102
RTVSPropertyOp49
 70
     1
102
RTVSPropertyOp50
 70
     1
102
RTVSPropertyOp51
 70
     0
102
RTVSPropertyOp52
 70
     0
102
RTVSPropertyOp53
 70
     1
102
RTVSPropertyOp54
 70
     1
102
RTVSPropertyOp55
 70
     1
102
RTVSPropertyOp56
 70
     1
102
RTVSPropertyOp57
 70
     1
102
RTVSPropertyOp58
 70
     1
102
RTVSPropertyOp59
 70
     1
102
RTVSPropertyOp60
 70
     1
102
RTVSPropertyOp61
 70
     1
102
RTVSPropertyOp62
 70
     1
  0
XRECORD
  5
400
102
{ACAD_REACTORS
330
3FF
102
}
330
3FF
100
AcDbXrecord
280
     1
102
RTVSPost2010Prop28
280
     0
102
RTVSPost2010PropOp28
 70
     1
102
RTVSPost2010Prop29
280
     1
102
RTVSPost2010PropOp29
 70
     1
102
RTVSPost2010Prop30
280
     1
102
RTVSPost2010PropOp30
 70
     1
102
RTVSPost2010Prop31
280
     0
102
RTVSPost2010PropOp31
 70
     1
102
RTVSPost2010Prop32
280
     0
102
RTVSPost2010PropOp32
 70
     1
102
RTVSPost2010Prop33
280
     0
102
RTVSPost2010PropOp33
 70
     1
102
RTVSPost2010Prop34
280
     0
102
RTVSPost2010PropOp34
 70
     1
102
RTVSPost2010Prop35
280
     0
102
RTVSPost2010PropOp35
 70
     1
102
RTVSPost2010Prop36
280
     0
102
RTVSPost2010PropOp36
 70
     1
102
RTVSPost2010Prop37
 90
       50
102
RTVSPost2010PropOp37
 70
     1
102
RTVSPost2010Prop38
140
0.0
102
RTVSPost2010PropOp38
 70
     1
102
RTVSPost2010Prop39
140
1.0
102
RTVSPost2010PropOp39
 70
     1
102
RTVSPost2010Prop40
 90
        0
102
RTVSPost2010PropOp40
 70
     1
102
RTVSPost2010Prop41ColorIndex
 90
       18
102
RTVSPost2010Prop41ColorRGB
 90
        0
102
RTVSPost2010PropOp41
 70
     1
102
RTVSPost2010Prop42
 90
       50
102
RTVSPost2010PropOp42
 70
     1
102
RTVSPost2010Prop43
 90
        3
102
RTVSPost2010PropOp43
 70
     1
102
RTVSPost2010Prop44ColorIndex
 90
        5
102
RTVSPost2010Prop44ColorRGB
 90
      255
102
RTVSPost2010PropOp44
 70
     1
102
RTVSPost2010Prop45
280
     0
102
RTVSPost2010PropOp45
 70
     1
102
RTVSPost2010Prop46
 90
       50
102
RTVSPost2010PropOp46
 70
     1
102
RTVSPost2010Prop47
 90
       50
102
RTVSPost2010PropOp47
 70
     1
102
RTVSPost2010Prop48
 90
       50
102
RTVSPost2010PropOp48
 70
     1
102
RTVSPost2010Prop49
280
     0
102
RTVSPost2010PropOp49
 70
     1
102
RTVSPost2010Prop50
 90
       50
102
RTVSPost2010PropOp50
 70
     1
102
RTVSPost2010Prop51ColorIndex
 90
      256
102
RTVSPost2010Prop51ColorRGB
 90
-16777216
102
RTVSPost2010PropOp51
 70
     0
102
RTVSPost2010Prop52
140
1.0
102
RTVSPost2010PropOp52
 70
     0
102
RTVSPost2010Prop53
 90
        2
102
RTVSPost2010PropOp53
 70
     1
102
RTVSPost2010Prop54
  1
strokes_ogs.tif
102
RTVSPost2010PropOp54
 70
     1
102
RTVSPost2010Prop55
280
     0
102
RTVSPost2010PropOp55
 70
     1
102
RTVSPost2010Prop56
140
1.0
102
RTVSPost2010PropOp56
 70
     1
102
RTVSPost2010Prop57
140
1.0
102
RTVSPost2010PropOp57
 70
     1
102
RTVSPropertyOp0
 70
     1
102
RTVSPropertyOp1
 70
     1
102
RTVSPropertyOp2
 70
     1
102
RTVSPropertyOp3
 70
     1
102
RTVSPropertyOp4
 70
     1
102
RTVSPropertyOp5
 70
     1
102
RTVSPropertyOp6
 70
     1
102
RTVSPropertyOp7
 70
     1
102
RTVSPropertyOp8
 70
     1
102
RTVSPropertyOp9
 70
     1
102
RTVSPropertyOp10
 70
     1
102
RTVSPropertyOp11
 70
     1
102
RTVSPropertyOp12
 70
     1
102
RTVSPropertyOp13
 70
     1
102
RTVSPropertyOp14
 70
     1
102
RTVSPropertyOp15
 70
     1
102
RTVSPropertyOp16
 70
     1
102
RTVSPropertyOp17
 70
     1
102
RTVSPropertyOp18
 70
     1
102
RTVSPropertyOp19
 70
     1
102
RTVSPropertyOp20
 70
     1
102
RTVSPropertyOp21
 70
     1
102
RTVSPropertyOp22
 70
     1
102
RTVSPropertyOp23
 70
     1
102
RTVSPropertyOp24
 70
     1
102
RTVSPropertyOp25
 70
     1
102
RTVSPropertyOp26
 70
     1
102
RTVSPropertyOp27
 70
     1
102
RTVSPropertyOp28
 70
     1
102
RTVSPropertyOp29
 70
     1
102
RTVSPropertyOp30
 70
     1
102
RTVSPropertyOp31
 70
     1
102
RTVSPropertyOp32
 70
     1
102
RTVSPropertyOp33
 70
     1
102
RTVSPropertyOp34
 70
     1
102
RTVSPropertyOp35
 70
     1
102
RTVSPropertyOp36
 70
     1
102
RTVSPropertyOp37
 70
     1
102
RTVSPropertyOp38
 70
     1
102
RTVSPropertyOp39
 70
     1
102
RTVSPropertyOp40
 70
     1
102
RTVSPropertyOp41
 70
     1
102
RTVSPropertyOp42
 70
     1
102
RTVSPropertyOp43
 70
     1
102
RTVSPropertyOp44
 70
     1
102
RTVSPropertyOp45
 70
     1
102
RTVSPropertyOp46
 70
     1
102
RTVSPropertyOp47
 70
     1
102
RTVSPropertyOp48
 70
     1
102
RTVSPropertyOp49
 70
     1
102
RTVSPropertyOp50
 70
     1
102
RTVSPropertyOp51
 70
     0
102
RTVSPropertyOp52
 70
     0
102
RTVSPropertyOp53
 70
     1
102
RTVSPropertyOp54
 70
     1
102
RTVSPropertyOp55
 70
     1
102
RTVSPropertyOp56
 70
     1
102
RTVSPropertyOp57
 70
     1
102
RTVSPropertyOp58
 70
     1
102
RTVSPropertyOp59
 70
     1
102
RTVSPropertyOp60
 70
     1
102
RTVSPropertyOp61
 70
     1
102
RTVSPropertyOp62
 70
     1
  0
XRECORD
  5
410
102
{ACAD_REACTORS
330
40F
102
}
330
40F
100
AcDbXrecord
280
     1
102
RTVSPost2010Prop28
280
     0
102
RTVSPost2010PropOp28
 70
     1
102
RTVSPost2010Prop29
280
     1
102
RTVSPost2010PropOp29
 70
     1
102
RTVSPost2010Prop30
280
     1
102
RTVSPost2010PropOp30
 70
     1
102
RTVSPost2010Prop31
280
     0
102
RTVSPost2010PropOp31
 70
     1
102
RTVSPost2010Prop32
280
     0
102
RTVSPost2010PropOp32
 70
     1
102
RTVSPost2010Prop33
280
     0
102
RTVSPost2010PropOp33
 70
     1
102
RTVSPost2010Prop34
280
     0
102
RTVSPost2010PropOp34
 70
     1
102
RTVSPost2010Prop35
280
     0
102
RTVSPost2010PropOp35
 70
     1
102
RTVSPost2010Prop36
280
     0
102
RTVSPost2010PropOp36
 70
     1
102
RTVSPost2010Prop37
 90
       50
102
RTVSPost2010PropOp37
 70
     1
102
RTVSPost2010Prop38
140
0.0
102
RTVSPost2010PropOp38
 70
     1
102
RTVSPost2010Prop39
140
1.0
102
RTVSPost2010PropOp39
 70
     1
102
RTVSPost2010Prop40
 90
        0
102
RTVSPost2010PropOp40
 70
     1
102
RTVSPost2010Prop41ColorIndex
 90
       18
102
RTVSPost2010Prop41ColorRGB
 90
        0
102
RTVSPost2010PropOp41
 70
     1
102
RTVSPost2010Prop42
 90
       50
102
RTVSPost2010PropOp42
 70
     1
102
RTVSPost2010Prop43
 90
        3
102
RTVSPost2010PropOp43
 70
     1
102
RTVSPost2010Prop44ColorIndex
 90
        5
102
RTVSPost2010Prop44ColorRGB
 90
      255
102
RTVSPost2010PropOp44
 70
     1
102
RTVSPost2010Prop45
280
     0
102
RTVSPost2010PropOp45
 70
     1
102
RTVSPost2010Prop46
 90
       50
102
RTVSPost2010PropOp46
 70
     1
102
RTVSPost2010Prop47
 90
       50
102
RTVSPost2010PropOp47
 70
     1
102
RTVSPost2010Prop48
 90
       50
102
RTVSPost2010PropOp48
 70
     1
102
RTVSPost2010Prop49
280
     0
102
RTVSPost2010PropOp49
 70
     1
102
RTVSPost2010Prop50
 90
       50
102
RTVSPost2010PropOp50
 70
     1
102
RTVSPost2010Prop51ColorIndex
 90
      256
102
RTVSPost2010Prop51ColorRGB
 90
-16777216
102
RTVSPost2010PropOp51
 70
     0
102
RTVSPost2010Prop52
140
1.0
102
RTVSPost2010PropOp52
 70
     0
102
RTVSPost2010Prop53
 90
        2
102
RTVSPost2010PropOp53
 70
     1
102
RTVSPost2010Prop54
  1
strokes_ogs.tif
102
RTVSPost2010PropOp54
 70
     1
102
RTVSPost2010Prop55
280
     0
102
RTVSPost2010PropOp55
 70
     1
102
RTVSPost2010Prop56
140
1.0
102
RTVSPost2010PropOp56
 70
     1
102
RTVSPost2010Prop57
140
1.0
102
RTVSPost2010PropOp57
 70
     1
102
RTVSPropertyOp0
 70
     0
102
RTVSPropertyOp1
 70
     0
102
RTVSPropertyOp2
 70
     0
102
RTVSPropertyOp3
 70
     0
102
RTVSPropertyOp4
 70
     0
102
RTVSPropertyOp5
 70
     0
102
RTVSPropertyOp6
 70
     0
102
RTVSPropertyOp7
 70
     0
102
RTVSPropertyOp8
 70
     0
102
RTVSPropertyOp9
 70
     0
102
RTVSPropertyOp10
 70
     0
102
RTVSPropertyOp11
 70
     0
102
RTVSPropertyOp12
 70
     0
102
RTVSPropertyOp13
 70
     0
102
RTVSPropertyOp14
 70
     2
102
RTVSPropertyOp15
 70
     0
102
RTVSPropertyOp16
 70
     0
102
RTVSPropertyOp17
 70
     0
102
RTVSPropertyOp18
 70
     0
102
RTVSPropertyOp19
 70
     0
102
RTVSPropertyOp20
 70
     0
102
RTVSPropertyOp21
 70
     0
102
RTVSPropertyOp22
 70
     0
102
RTVSPropertyOp23
 70
     0
102
RTVSPropertyOp24
 70
     0
102
RTVSPropertyOp25
 70
     0
102
RTVSPropertyOp26
 70
     0
102
RTVSPropertyOp27
 70
     0
102
RTVSPropertyOp28
 70
     1
102
RTVSPropertyOp29
 70
     1
102
RTVSPropertyOp30
 70
     1
102
RTVSPropertyOp31
 70
     1
102
RTVSPropertyOp32
 70
     1
102
RTVSPropertyOp33
 70
     1
102
RTVSPropertyOp34
 70
     1
102
RTVSPropertyOp35
 70
     1
102
RTVSPropertyOp36
 70
     1
102
RTVSPropertyOp37
 70
     1
102
RTVSPropertyOp38
 70
     1
102
RTVSPropertyOp39
 70
     1
102
RTVSPropertyOp40
 70
     1
102
RTVSPropertyOp41
 70
     1
102
RTVSPropertyOp42
 70
     1
102
RTVSPropertyOp43
 70
     1
102
RTVSPropertyOp44
 70
     1
102
RTVSPropertyOp45
 70
     1
102
RTVSPropertyOp46
 70
     1
102
RTVSPropertyOp47
 70
     1
102
RTVSPropertyOp48
 70
     1
102
RTVSPropertyOp49
 70
     1
102
RTVSPropertyOp50
 70
     1
102
RTVSPropertyOp51
 70
     0
102
RTVSPropertyOp52
 70
     0
102
RTVSPropertyOp53
 70
     1
102
RTVSPropertyOp54
 70
     1
102
RTVSPropertyOp55
 70
     1
102
RTVSPropertyOp56
 70
     1
102
RTVSPropertyOp57
 70
     1
102
RTVSPropertyOp58
 70
     1
102
RTVSPropertyOp59
 70
     1
102
RTVSPropertyOp60
 70
     1
102
RTVSPropertyOp61
 70
     1
102
RTVSPropertyOp62
 70
     1
  0
XRECORD
  5
408
102
{ACAD_REACTORS
330
407
102
}
330
407
100
AcDbXrecord
280
     1
102
RTVSPost2010Prop28
280
     0
102
RTVSPost2010PropOp28
 70
     1
102
RTVSPost2010Prop29
280
     1
102
RTVSPost2010PropOp29
 70
     1
102
RTVSPost2010Prop30
280
     1
102
RTVSPost2010PropOp30
 70
     1
102
RTVSPost2010Prop31
280
     0
102
RTVSPost2010PropOp31
 70
     1
102
RTVSPost2010Prop32
280
     0
102
RTVSPost2010PropOp32
 70
     1
102
RTVSPost2010Prop33
280
     0
102
RTVSPost2010PropOp33
 70
     1
102
RTVSPost2010Prop34
280
     0
102
RTVSPost2010PropOp34
 70
     1
102
RTVSPost2010Prop35
280
     0
102
RTVSPost2010PropOp35
 70
     1
102
RTVSPost2010Prop36
280
     0
102
RTVSPost2010PropOp36
 70
     1
102
RTVSPost2010Prop37
 90
       50
102
RTVSPost2010PropOp37
 70
     1
102
RTVSPost2010Prop38
140
0.0
102
RTVSPost2010PropOp38
 70
     1
102
RTVSPost2010Prop39
140
1.0
102
RTVSPost2010PropOp39
 70
     1
102
RTVSPost2010Prop40
 90
        0
102
RTVSPost2010PropOp40
 70
     1
102
RTVSPost2010Prop41ColorIndex
 90
       18
102
RTVSPost2010Prop41ColorRGB
 90
        0
102
RTVSPost2010PropOp41
 70
     1
102
RTVSPost2010Prop42
 90
       50
102
RTVSPost2010PropOp42
 70
     1
102
RTVSPost2010Prop43
 90
        3
102
RTVSPost2010PropOp43
 70
     1
102
RTVSPost2010Prop44ColorIndex
 90
        5
102
RTVSPost2010Prop44ColorRGB
 90
      255
102
RTVSPost2010PropOp44
 70
     1
102
RTVSPost2010Prop45
280
     0
102
RTVSPost2010PropOp45
 70
     1
102
RTVSPost2010Prop46
 90
       50
102
RTVSPost2010PropOp46
 70
     1
102
RTVSPost2010Prop47
 90
       50
102
RTVSPost2010PropOp47
 70
     1
102
RTVSPost2010Prop48
 90
       50
102
RTVSPost2010PropOp48
 70
     1
102
RTVSPost2010Prop49
280
     0
102
RTVSPost2010PropOp49
 70
     1
102
RTVSPost2010Prop50
 90
       50
102
RTVSPost2010PropOp50
 70
     1
102
RTVSPost2010Prop51ColorIndex
 90
      256
102
RTVSPost2010Prop51ColorRGB
 90
-16777216
102
RTVSPost2010PropOp51
 70
     0
102
RTVSPost2010Prop52
140
1.0
102
RTVSPost2010PropOp52
 70
     0
102
RTVSPost2010Prop53
 90
        2
102
RTVSPost2010PropOp53
 70
     1
102
RTVSPost2010Prop54
  1
strokes_ogs.tif
102
RTVSPost2010PropOp54
 70
     1
102
RTVSPost2010Prop55
280
     0
102
RTVSPost2010PropOp55
 70
     1
102
RTVSPost2010Prop56
140
1.0
102
RTVSPost2010PropOp56
 70
     1
102
RTVSPost2010Prop57
140
1.0
102
RTVSPost2010PropOp57
 70
     1
102
RTVSPropertyOp0
 70
     1
102
RTVSPropertyOp1
 70
     1
102
RTVSPropertyOp2
 70
     1
102
RTVSPropertyOp3
 70
     1
102
RTVSPropertyOp4
 70
     1
102
RTVSPropertyOp5
 70
     1
102
RTVSPropertyOp6
 70
     1
102
RTVSPropertyOp7
 70
     1
102
RTVSPropertyOp8
 70
     1
102
RTVSPropertyOp9
 70
     1
102
RTVSPropertyOp10
 70
     1
102
RTVSPropertyOp11
 70
     1
102
RTVSPropertyOp12
 70
     1
102
RTVSPropertyOp13
 70
     1
102
RTVSPropertyOp14
 70
     1
102
RTVSPropertyOp15
 70
     1
102
RTVSPropertyOp16
 70
     1
102
RTVSPropertyOp17
 70
     1
102
RTVSPropertyOp18
 70
     1
102
RTVSPropertyOp19
 70
     1
102
RTVSPropertyOp20
 70
     1
102
RTVSPropertyOp21
 70
     1
102
RTVSPropertyOp22
 70
     1
102
RTVSPropertyOp23
 70
     1
102
RTVSPropertyOp24
 70
     1
102
RTVSPropertyOp25
 70
     1
102
RTVSPropertyOp26
 70
     1
102
RTVSPropertyOp27
 70
     1
102
RTVSPropertyOp28
 70
     1
102
RTVSPropertyOp29
 70
     1
102
RTVSPropertyOp30
 70
     1
102
RTVSPropertyOp31
 70
     1
102
RTVSPropertyOp32
 70
     1
102
RTVSPropertyOp33
 70
     1
102
RTVSPropertyOp34
 70
     1
102
RTVSPropertyOp35
 70
     1
102
RTVSPropertyOp36
 70
     1
102
RTVSPropertyOp37
 70
     1
102
RTVSPropertyOp38
 70
     1
102
RTVSPropertyOp39
 70
     1
102
RTVSPropertyOp40
 70
     1
102
RTVSPropertyOp41
 70
     1
102
RTVSPropertyOp42
 70
     1
102
RTVSPropertyOp43
 70
     1
102
RTVSPropertyOp44
 70
     1
102
RTVSPropertyOp45
 70
     1
102
RTVSPropertyOp46
 70
     1
102
RTVSPropertyOp47
 70
     1
102
RTVSPropertyOp48
 70
     1
102
RTVSPropertyOp49
 70
     1
102
RTVSPropertyOp50
 70
     1
102
RTVSPropertyOp51
 70
     0
102
RTVSPropertyOp52
 70
     0
102
RTVSPropertyOp53
 70
     1
102
RTVSPropertyOp54
 70
     1
102
RTVSPropertyOp55
 70
     1
102
RTVSPropertyOp56
 70
     1
102
RTVSPropertyOp57
 70
     1
102
RTVSPropertyOp58
 70
     1
102
RTVSPropertyOp59
 70
     1
102
RTVSPropertyOp60
 70
     1
102
RTVSPropertyOp61
 70
     1
102
RTVSPropertyOp62
 70
     1
  0
XRECORD
  5
3EC
102
{ACAD_REACTORS
330
3EB
102
}
330
3EB
100
AcDbXrecord
280
     1
102
RTVSPost2010Prop28
280
     0
102
RTVSPost2010PropOp28
 70
     1
102
RTVSPost2010Prop29
280
     1
102
RTVSPost2010PropOp29
 70
     1
102
RTVSPost2010Prop30
280
     1
102
RTVSPost2010PropOp30
 70
     1
102
RTVSPost2010Prop31
280
     0
102
RTVSPost2010PropOp31
 70
     1
102
RTVSPost2010Prop32
280
     0
102
RTVSPost2010PropOp32
 70
     1
102
RTVSPost2010Prop33
280
     0
102
RTVSPost2010PropOp33
 70
     1
102
RTVSPost2010Prop34
280
     0
102
RTVSPost2010PropOp34
 70
     1
102
RTVSPost2010Prop35
280
     0
102
RTVSPost2010PropOp35
 70
     1
102
RTVSPost2010Prop36
280
     0
102
RTVSPost2010PropOp36
 70
     1
102
RTVSPost2010Prop37
 90
       50
102
RTVSPost2010PropOp37
 70
     1
102
RTVSPost2010Prop38
140
0.0
102
RTVSPost2010PropOp38
 70
     1
102
RTVSPost2010Prop39
140
1.0
102
RTVSPost2010PropOp39
 70
     1
102
RTVSPost2010Prop40
 90
        0
102
RTVSPost2010PropOp40
 70
     1
102
RTVSPost2010Prop41ColorIndex
 90
       18
102
RTVSPost2010Prop41ColorRGB
 90
        0
102
RTVSPost2010PropOp41
 70
     1
102
RTVSPost2010Prop42
 90
       50
102
RTVSPost2010PropOp42
 70
     1
102
RTVSPost2010Prop43
 90
        3
102
RTVSPost2010PropOp43
 70
     1
102
RTVSPost2010Prop44ColorIndex
 90
        5
102
RTVSPost2010Prop44ColorRGB
 90
      255
102
RTVSPost2010PropOp44
 70
     1
102
RTVSPost2010Prop45
280
     0
102
RTVSPost2010PropOp45
 70
     1
102
RTVSPost2010Prop46
 90
       50
102
RTVSPost2010PropOp46
 70
     1
102
RTVSPost2010Prop47
 90
       50
102
RTVSPost2010PropOp47
 70
     1
102
RTVSPost2010Prop48
 90
       50
102
RTVSPost2010PropOp48
 70
     1
102
RTVSPost2010Prop49
280
     0
102
RTVSPost2010PropOp49
 70
     1
102
RTVSPost2010Prop50
 90
       50
102
RTVSPost2010PropOp50
 70
     1
102
RTVSPost2010Prop51ColorIndex
 90
      256
102
RTVSPost2010Prop51ColorRGB
 90
-16777216
102
RTVSPost2010PropOp51
 70
     0
102
RTVSPost2010Prop52
140
1.0
102
RTVSPost2010PropOp52
 70
     0
102
RTVSPost2010Prop53
 90
        2
102
RTVSPost2010PropOp53
 70
     1
102
RTVSPost2010Prop54
  1
strokes_ogs.tif
102
RTVSPost2010PropOp54
 70
     1
102
RTVSPost2010Prop55
280
     0
102
RTVSPost2010PropOp55
 70
     1
102
RTVSPost2010Prop56
140
1.0
102
RTVSPost2010PropOp56
 70
     1
102
RTVSPost2010Prop57
140
1.0
102
RTVSPost2010PropOp57
 70
     1
102
RTVSPropertyOp0
 70
     1
102
RTVSPropertyOp1
 70
     1
102
RTVSPropertyOp2
 70
     1
102
RTVSPropertyOp3
 70
     1
102
RTVSPropertyOp4
 70
     1
102
RTVSPropertyOp5
 70
     1
102
RTVSPropertyOp6
 70
     1
102
RTVSPropertyOp7
 70
     1
102
RTVSPropertyOp8
 70
     1
102
RTVSPropertyOp9
 70
     1
102
RTVSPropertyOp10
 70
     1
102
RTVSPropertyOp11
 70
     1
102
RTVSPropertyOp12
 70
     1
102
RTVSPropertyOp13
 70
     1
102
RTVSPropertyOp14
 70
     1
102
RTVSPropertyOp15
 70
     1
102
RTVSPropertyOp16
 70
     1
102
RTVSPropertyOp17
 70
     1
102
RTVSPropertyOp18
 70
     1
102
RTVSPropertyOp19
 70
     1
102
RTVSPropertyOp20
 70
     1
102
RTVSPropertyOp21
 70
     1
102
RTVSPropertyOp22
 70
     1
102
RTVSPropertyOp23
 70
     1
102
RTVSPropertyOp24
 70
     1
102
RTVSPropertyOp25
 70
     1
102
RTVSPropertyOp26
 70
     1
102
RTVSPropertyOp27
 70
     1
102
RTVSPropertyOp28
 70
     1
102
RTVSPropertyOp29
 70
     1
102
RTVSPropertyOp30
 70
     1
102
RTVSPropertyOp31
 70
     1
102
RTVSPropertyOp32
 70
     1
102
RTVSPropertyOp33
 70
     1
102
RTVSPropertyOp34
 70
     1
102
RTVSPropertyOp35
 70
     1
102
RTVSPropertyOp36
 70
     1
102
RTVSPropertyOp37
 70
     1
102
RTVSPropertyOp38
 70
     1
102
RTVSPropertyOp39
 70
     1
102
RTVSPropertyOp40
 70
     1
102
RTVSPropertyOp41
 70
     1
102
RTVSPropertyOp42
 70
     1
102
RTVSPropertyOp43
 70
     1
102
RTVSPropertyOp44
 70
     1
102
RTVSPropertyOp45
 70
     1
102
RTVSPropertyOp46
 70
     1
102
RTVSPropertyOp47
 70
     1
102
RTVSPropertyOp48
 70
     1
102
RTVSPropertyOp49
 70
     1
102
RTVSPropertyOp50
 70
     1
102
RTVSPropertyOp51
 70
     0
102
RTVSPropertyOp52
 70
     0
102
RTVSPropertyOp53
 70
     1
102
RTVSPropertyOp54
 70
     1
102
RTVSPropertyOp55
 70
     1
102
RTVSPropertyOp56
 70
     1
102
RTVSPropertyOp57
 70
     1
102
RTVSPropertyOp58
 70
     1
102
RTVSPropertyOp59
 70
     1
102
RTVSPropertyOp60
 70
     1
102
RTVSPropertyOp61
 70
     1
102
RTVSPropertyOp62
 70
     1
  0
XRECORD
  5
3EE
102
{ACAD_REACTORS
330
3ED
102
}
330
3ED
100
AcDbXrecord
280
     1
102
RTVSPost2010Prop28
280
     0
102
RTVSPost2010PropOp28
 70
     1
102
RTVSPost2010Prop29
280
     1
102
RTVSPost2010PropOp29
 70
     1
102
RTVSPost2010Prop30
280
     1
102
RTVSPost2010PropOp30
 70
     1
102
RTVSPost2010Prop31
280
     0
102
RTVSPost2010PropOp31
 70
     1
102
RTVSPost2010Prop32
280
     0
102
RTVSPost2010PropOp32
 70
     1
102
RTVSPost2010Prop33
280
     0
102
RTVSPost2010PropOp33
 70
     1
102
RTVSPost2010Prop34
280
     0
102
RTVSPost2010PropOp34
 70
     1
102
RTVSPost2010Prop35
280
     0
102
RTVSPost2010PropOp35
 70
     1
102
RTVSPost2010Prop36
280
     0
102
RTVSPost2010PropOp36
 70
     1
102
RTVSPost2010Prop37
 90
       50
102
RTVSPost2010PropOp37
 70
     1
102
RTVSPost2010Prop38
140
0.0
102
RTVSPost2010PropOp38
 70
     1
102
RTVSPost2010Prop39
140
1.0
102
RTVSPost2010PropOp39
 70
     1
102
RTVSPost2010Prop40
 90
        0
102
RTVSPost2010PropOp40
 70
     1
102
RTVSPost2010Prop41ColorIndex
 90
       18
102
RTVSPost2010Prop41ColorRGB
 90
        0
102
RTVSPost2010PropOp41
 70
     1
102
RTVSPost2010Prop42
 90
       50
102
RTVSPost2010PropOp42
 70
     1
102
RTVSPost2010Prop43
 90
        3
102
RTVSPost2010PropOp43
 70
     1
102
RTVSPost2010Prop44ColorIndex
 90
        5
102
RTVSPost2010Prop44ColorRGB
 90
      255
102
RTVSPost2010PropOp44
 70
     1
102
RTVSPost2010Prop45
280
     0
102
RTVSPost2010PropOp45
 70
     1
102
RTVSPost2010Prop46
 90
       50
102
RTVSPost2010PropOp46
 70
     1
102
RTVSPost2010Prop47
 90
       50
102
RTVSPost2010PropOp47
 70
     1
102
RTVSPost2010Prop48
 90
       50
102
RTVSPost2010PropOp48
 70
     1
102
RTVSPost2010Prop49
280
     0
102
RTVSPost2010PropOp49
 70
     1
102
RTVSPost2010Prop50
 90
       50
102
RTVSPost2010PropOp50
 70
     1
102
RTVSPost2010Prop51ColorIndex
 90
      256
102
RTVSPost2010Prop51ColorRGB
 90
-16777216
102
RTVSPost2010PropOp51
 70
     0
102
RTVSPost2010Prop52
140
1.0
102
RTVSPost2010PropOp52
 70
     0
102
RTVSPost2010Prop53
 90
        2
102
RTVSPost2010PropOp53
 70
     1
102
RTVSPost2010Prop54
  1
strokes_ogs.tif
102
RTVSPost2010PropOp54
 70
     1
102
RTVSPost2010Prop55
280
     0
102
RTVSPost2010PropOp55
 70
     1
102
RTVSPost2010Prop56
140
1.0
102
RTVSPost2010PropOp56
 70
     1
102
RTVSPost2010Prop57
140
1.0
102
RTVSPost2010PropOp57
 70
     1
102
RTVSPropertyOp0
 70
     1
102
RTVSPropertyOp1
 70
     1
102
RTVSPropertyOp2
 70
     1
102
RTVSPropertyOp3
 70
     1
102
RTVSPropertyOp4
 70
     1
102
RTVSPropertyOp5
 70
     1
102
RTVSPropertyOp6
 70
     1
102
RTVSPropertyOp7
 70
     1
102
RTVSPropertyOp8
 70
     1
102
RTVSPropertyOp9
 70
     1
102
RTVSPropertyOp10
 70
     1
102
RTVSPropertyOp11
 70
     1
102
RTVSPropertyOp12
 70
     1
102
RTVSPropertyOp13
 70
     1
102
RTVSPropertyOp14
 70
     1
102
RTVSPropertyOp15
 70
     1
102
RTVSPropertyOp16
 70
     1
102
RTVSPropertyOp17
 70
     1
102
RTVSPropertyOp18
 70
     1
102
RTVSPropertyOp19
 70
     1
102
RTVSPropertyOp20
 70
     1
102
RTVSPropertyOp21
 70
     1
102
RTVSPropertyOp22
 70
     1
102
RTVSPropertyOp23
 70
     1
102
RTVSPropertyOp24
 70
     1
102
RTVSPropertyOp25
 70
     1
102
RTVSPropertyOp26
 70
     1
102
RTVSPropertyOp27
 70
     1
102
RTVSPropertyOp28
 70
     1
102
RTVSPropertyOp29
 70
     1
102
RTVSPropertyOp30
 70
     1
102
RTVSPropertyOp31
 70
     1
102
RTVSPropertyOp32
 70
     1
102
RTVSPropertyOp33
 70
     1
102
RTVSPropertyOp34
 70
     1
102
RTVSPropertyOp35
 70
     1
102
RTVSPropertyOp36
 70
     1
102
RTVSPropertyOp37
 70
     1
102
RTVSPropertyOp38
 70
     1
102
RTVSPropertyOp39
 70
     1
102
RTVSPropertyOp40
 70
     1
102
RTVSPropertyOp41
 70
     1
102
RTVSPropertyOp42
 70
     1
102
RTVSPropertyOp43
 70
     1
102
RTVSPropertyOp44
 70
     1
102
RTVSPropertyOp45
 70
     1
102
RTVSPropertyOp46
 70
     1
102
RTVSPropertyOp47
 70
     1
102
RTVSPropertyOp48
 70
     1
102
RTVSPropertyOp49
 70
     1
102
RTVSPropertyOp50
 70
     1
102
RTVSPropertyOp51
 70
     0
102
RTVSPropertyOp52
 70
     0
102
RTVSPropertyOp53
 70
     1
102
RTVSPropertyOp54
 70
     1
102
RTVSPropertyOp55
 70
     1
102
RTVSPropertyOp56
 70
     1
102
RTVSPropertyOp57
 70
     1
102
RTVSPropertyOp58
 70
     1
102
RTVSPropertyOp59
 70
     1
102
RTVSPropertyOp60
 70
     1
102
RTVSPropertyOp61
 70
     1
102
RTVSPropertyOp62
 70
     1
  0
XRECORD
  5
3F0
102
{ACAD_REACTORS
330
3EF
102
}
330
3EF
100
AcDbXrecord
280
     1
102
RTVSPost2010Prop28
280
     0
102
RTVSPost2010PropOp28
 70
     1
102
RTVSPost2010Prop29
280
     1
102
RTVSPost2010PropOp29
 70
     1
102
RTVSPost2010Prop30
280
     1
102
RTVSPost2010PropOp30
 70
     1
102
RTVSPost2010Prop31
280
     0
102
RTVSPost2010PropOp31
 70
     1
102
RTVSPost2010Prop32
280
     0
102
RTVSPost2010PropOp32
 70
     1
102
RTVSPost2010Prop33
280
     0
102
RTVSPost2010PropOp33
 70
     1
102
RTVSPost2010Prop34
280
     0
102
RTVSPost2010PropOp34
 70
     1
102
RTVSPost2010Prop35
280
     0
102
RTVSPost2010PropOp35
 70
     1
102
RTVSPost2010Prop36
280
     0
102
RTVSPost2010PropOp36
 70
     1
102
RTVSPost2010Prop37
 90
       50
102
RTVSPost2010PropOp37
 70
     1
102
RTVSPost2010Prop38
140
0.0
102
RTVSPost2010PropOp38
 70
     1
102
RTVSPost2010Prop39
140
1.0
102
RTVSPost2010PropOp39
 70
     1
102
RTVSPost2010Prop40
 90
        0
102
RTVSPost2010PropOp40
 70
     1
102
RTVSPost2010Prop41ColorIndex
 90
       18
102
RTVSPost2010Prop41ColorRGB
 90
        0
102
RTVSPost2010PropOp41
 70
     1
102
RTVSPost2010Prop42
 90
       50
102
RTVSPost2010PropOp42
 70
     1
102
RTVSPost2010Prop43
 90
        3
102
RTVSPost2010PropOp43
 70
     1
102
RTVSPost2010Prop44ColorIndex
 90
        5
102
RTVSPost2010Prop44ColorRGB
 90
      255
102
RTVSPost2010PropOp44
 70
     1
102
RTVSPost2010Prop45
280
     0
102
RTVSPost2010PropOp45
 70
     1
102
RTVSPost2010Prop46
 90
       50
102
RTVSPost2010PropOp46
 70
     1
102
RTVSPost2010Prop47
 90
       50
102
RTVSPost2010PropOp47
 70
     1
102
RTVSPost2010Prop48
 90
       50
102
RTVSPost2010PropOp48
 70
     1
102
RTVSPost2010Prop49
280
     0
102
RTVSPost2010PropOp49
 70
     1
102
RTVSPost2010Prop50
 90
       50
102
RTVSPost2010PropOp50
 70
     1
102
RTVSPost2010Prop51ColorIndex
 90
      256
102
RTVSPost2010Prop51ColorRGB
 90
-16777216
102
RTVSPost2010PropOp51
 70
     0
102
RTVSPost2010Prop52
140
1.0
102
RTVSPost2010PropOp52
 70
     0
102
RTVSPost2010Prop53
 90
        2
102
RTVSPost2010PropOp53
 70
     1
102
RTVSPost2010Prop54
  1
strokes_ogs.tif
102
RTVSPost2010PropOp54
 70
     1
102
RTVSPost2010Prop55
280
     0
102
RTVSPost2010PropOp55
 70
     1
102
RTVSPost2010Prop56
140
1.0
102
RTVSPost2010PropOp56
 70
     1
102
RTVSPost2010Prop57
140
1.0
102
RTVSPost2010PropOp57
 70
     1
102
RTVSPropertyOp0
 70
     1
102
RTVSPropertyOp1
 70
     1
102
RTVSPropertyOp2
 70
     1
102
RTVSPropertyOp3
 70
     1
102
RTVSPropertyOp4
 70
     1
102
RTVSPropertyOp5
 70
     1
102
RTVSPropertyOp6
 70
     1
102
RTVSPropertyOp7
 70
     1
102
RTVSPropertyOp8
 70
     1
102
RTVSPropertyOp9
 70
     1
102
RTVSPropertyOp10
 70
     1
102
RTVSPropertyOp11
 70
     1
102
RTVSPropertyOp12
 70
     1
102
RTVSPropertyOp13
 70
     1
102
RTVSPropertyOp14
 70
     1
102
RTVSPropertyOp15
 70
     1
102
RTVSPropertyOp16
 70
     1
102
RTVSPropertyOp17
 70
     1
102
RTVSPropertyOp18
 70
     1
102
RTVSPropertyOp19
 70
     1
102
RTVSPropertyOp20
 70
     1
102
RTVSPropertyOp21
 70
     1
102
RTVSPropertyOp22
 70
     1
102
RTVSPropertyOp23
 70
     1
102
RTVSPropertyOp24
 70
     1
102
RTVSPropertyOp25
 70
     1
102
RTVSPropertyOp26
 70
     1
102
RTVSPropertyOp27
 70
     1
102
RTVSPropertyOp28
 70
     1
102
RTVSPropertyOp29
 70
     1
102
RTVSPropertyOp30
 70
     1
102
RTVSPropertyOp31
 70
     1
102
RTVSPropertyOp32
 70
     1
102
RTVSPropertyOp33
 70
     1
102
RTVSPropertyOp34
 70
     1
102
RTVSPropertyOp35
 70
     1
102
RTVSPropertyOp36
 70
     1
102
RTVSPropertyOp37
 70
     1
102
RTVSPropertyOp38
 70
     1
102
RTVSPropertyOp39
 70
     1
102
RTVSPropertyOp40
 70
     1
102
RTVSPropertyOp41
 70
     1
102
RTVSPropertyOp42
 70
     1
102
RTVSPropertyOp43
 70
     1
102
RTVSPropertyOp44
 70
     1
102
RTVSPropertyOp45
 70
     1
102
RTVSPropertyOp46
 70
     1
102
RTVSPropertyOp47
 70
     1
102
RTVSPropertyOp48
 70
     1
102
RTVSPropertyOp49
 70
     1
102
RTVSPropertyOp50
 70
     1
102
RTVSPropertyOp51
 70
     0
102
RTVSPropertyOp52
 70
     0
102
RTVSPropertyOp53
 70
     1
102
RTVSPropertyOp54
 70
     1
102
RTVSPropertyOp55
 70
     1
102
RTVSPropertyOp56
 70
     1
102
RTVSPropertyOp57
 70
     1
102
RTVSPropertyOp58
 70
     1
102
RTVSPropertyOp59
 70
     1
102
RTVSPropertyOp60
 70
     1
102
RTVSPropertyOp61
 70
     1
102
RTVSPropertyOp62
 70
     1
  0
XRECORD
  5
3F2
102
{ACAD_REACTORS
330
3F1
102
}
330
3F1
100
AcDbXrecord
280
     1
102
RTVSPost2010Prop28
280
     0
102
RTVSPost2010PropOp28
 70
     1
102
RTVSPost2010Prop29
280
     1
102
RTVSPost2010PropOp29
 70
     1
102
RTVSPost2010Prop30
280
     1
102
RTVSPost2010PropOp30
 70
     1
102
RTVSPost2010Prop31
280
     0
102
RTVSPost2010PropOp31
 70
     1
102
RTVSPost2010Prop32
280
     0
102
RTVSPost2010PropOp32
 70
     1
102
RTVSPost2010Prop33
280
     0
102
RTVSPost2010PropOp33
 70
     1
102
RTVSPost2010Prop34
280
     0
102
RTVSPost2010PropOp34
 70
     1
102
RTVSPost2010Prop35
280
     0
102
RTVSPost2010PropOp35
 70
     1
102
RTVSPost2010Prop36
280
     0
102
RTVSPost2010PropOp36
 70
     1
102
RTVSPost2010Prop37
 90
       50
102
RTVSPost2010PropOp37
 70
     1
102
RTVSPost2010Prop38
140
0.0
102
RTVSPost2010PropOp38
 70
     1
102
RTVSPost2010Prop39
140
1.0
102
RTVSPost2010PropOp39
 70
     1
102
RTVSPost2010Prop40
 90
        0
102
RTVSPost2010PropOp40
 70
     1
102
RTVSPost2010Prop41ColorIndex
 90
       18
102
RTVSPost2010Prop41ColorRGB
 90
        0
102
RTVSPost2010PropOp41
 70
     1
102
RTVSPost2010Prop42
 90
       50
102
RTVSPost2010PropOp42
 70
     1
102
RTVSPost2010Prop43
 90
        3
102
RTVSPost2010PropOp43
 70
     1
102
RTVSPost2010Prop44ColorIndex
 90
        5
102
RTVSPost2010Prop44ColorRGB
 90
      255
102
RTVSPost2010PropOp44
 70
     1
102
RTVSPost2010Prop45
280
     0
102
RTVSPost2010PropOp45
 70
     1
102
RTVSPost2010Prop46
 90
       50
102
RTVSPost2010PropOp46
 70
     1
102
RTVSPost2010Prop47
 90
       50
102
RTVSPost2010PropOp47
 70
     1
102
RTVSPost2010Prop48
 90
       50
102
RTVSPost2010PropOp48
 70
     1
102
RTVSPost2010Prop49
280
     0
102
RTVSPost2010PropOp49
 70
     1
102
RTVSPost2010Prop50
 90
       50
102
RTVSPost2010PropOp50
 70
     1
102
RTVSPost2010Prop51ColorIndex
 90
      256
102
RTVSPost2010Prop51ColorRGB
 90
-16777216
102
RTVSPost2010PropOp51
 70
     0
102
RTVSPost2010Prop52
140
1.0
102
RTVSPost2010PropOp52
 70
     0
102
RTVSPost2010Prop53
 90
        2
102
RTVSPost2010PropOp53
 70
     1
102
RTVSPost2010Prop54
  1
strokes_ogs.tif
102
RTVSPost2010PropOp54
 70
     1
102
RTVSPost2010Prop55
280
     0
102
RTVSPost2010PropOp55
 70
     1
102
RTVSPost2010Prop56
140
1.0
102
RTVSPost2010PropOp56
 70
     1
102
RTVSPost2010Prop57
140
1.0
102
RTVSPost2010PropOp57
 70
     1
102
RTVSPropertyOp0
 70
     1
102
RTVSPropertyOp1
 70
     1
102
RTVSPropertyOp2
 70
     1
102
RTVSPropertyOp3
 70
     1
102
RTVSPropertyOp4
 70
     1
102
RTVSPropertyOp5
 70
     1
102
RTVSPropertyOp6
 70
     1
102
RTVSPropertyOp7
 70
     1
102
RTVSPropertyOp8
 70
     1
102
RTVSPropertyOp9
 70
     1
102
RTVSPropertyOp10
 70
     1
102
RTVSPropertyOp11
 70
     1
102
RTVSPropertyOp12
 70
     1
102
RTVSPropertyOp13
 70
     1
102
RTVSPropertyOp14
 70
     1
102
RTVSPropertyOp15
 70
     1
102
RTVSPropertyOp16
 70
     1
102
RTVSPropertyOp17
 70
     1
102
RTVSPropertyOp18
 70
     1
102
RTVSPropertyOp19
 70
     1
102
RTVSPropertyOp20
 70
     1
102
RTVSPropertyOp21
 70
     1
102
RTVSPropertyOp22
 70
     1
102
RTVSPropertyOp23
 70
     1
102
RTVSPropertyOp24
 70
     1
102
RTVSPropertyOp25
 70
     1
102
RTVSPropertyOp26
 70
     1
102
RTVSPropertyOp27
 70
     1
102
RTVSPropertyOp28
 70
     1
102
RTVSPropertyOp29
 70
     1
102
RTVSPropertyOp30
 70
     1
102
RTVSPropertyOp31
 70
     1
102
RTVSPropertyOp32
 70
     1
102
RTVSPropertyOp33
 70
     1
102
RTVSPropertyOp34
 70
     1
102
RTVSPropertyOp35
 70
     1
102
RTVSPropertyOp36
 70
     1
102
RTVSPropertyOp37
 70
     1
102
RTVSPropertyOp38
 70
     1
102
RTVSPropertyOp39
 70
     1
102
RTVSPropertyOp40
 70
     1
102
RTVSPropertyOp41
 70
     1
102
RTVSPropertyOp42
 70
     1
102
RTVSPropertyOp43
 70
     1
102
RTVSPropertyOp44
 70
     1
102
RTVSPropertyOp45
 70
     1
102
RTVSPropertyOp46
 70
     1
102
RTVSPropertyOp47
 70
     1
102
RTVSPropertyOp48
 70
     1
102
RTVSPropertyOp49
 70
     1
102
RTVSPropertyOp50
 70
     1
102
RTVSPropertyOp51
 70
     0
102
RTVSPropertyOp52
 70
     0
102
RTVSPropertyOp53
 70
     1
102
RTVSPropertyOp54
 70
     1
102
RTVSPropertyOp55
 70
     1
102
RTVSPropertyOp56
 70
     1
102
RTVSPropertyOp57
 70
     1
102
RTVSPropertyOp58
 70
     1
102
RTVSPropertyOp59
 70
     1
102
RTVSPropertyOp60
 70
     1
102
RTVSPropertyOp61
 70
     1
102
RTVSPropertyOp62
 70
     1
  0
XRECORD
  5
3FA
102
{ACAD_REACTORS
330
3F9
102
}
330
3F9
100
AcDbXrecord
280
     1
102
RTVSPost2010Prop28
280
     0
102
RTVSPost2010PropOp28
 70
     1
102
RTVSPost2010Prop29
280
     1
102
RTVSPost2010PropOp29
 70
     1
102
RTVSPost2010Prop30
280
     1
102
RTVSPost2010PropOp30
 70
     1
102
RTVSPost2010Prop31
280
     0
102
RTVSPost2010PropOp31
 70
     1
102
RTVSPost2010Prop32
280
     0
102
RTVSPost2010PropOp32
 70
     1
102
RTVSPost2010Prop33
280
     0
102
RTVSPost2010PropOp33
 70
     1
102
RTVSPost2010Prop34
280
     0
102
RTVSPost2010PropOp34
 70
     1
102
RTVSPost2010Prop35
280
     0
102
RTVSPost2010PropOp35
 70
     1
102
RTVSPost2010Prop36
280
     0
102
RTVSPost2010PropOp36
 70
     1
102
RTVSPost2010Prop37
 90
       50
102
RTVSPost2010PropOp37
 70
     1
102
RTVSPost2010Prop38
140
0.0
102
RTVSPost2010PropOp38
 70
     1
102
RTVSPost2010Prop39
140
1.0
102
RTVSPost2010PropOp39
 70
     1
102
RTVSPost2010Prop40
 90
        0
102
RTVSPost2010PropOp40
 70
     1
102
RTVSPost2010Prop41ColorIndex
 90
       18
102
RTVSPost2010Prop41ColorRGB
 90
        0
102
RTVSPost2010PropOp41
 70
     1
102
RTVSPost2010Prop42
 90
       50
102
RTVSPost2010PropOp42
 70
     1
102
RTVSPost2010Prop43
 90
        3
102
RTVSPost2010PropOp43
 70
     1
102
RTVSPost2010Prop44ColorIndex
 90
        5
102
RTVSPost2010Prop44ColorRGB
 90
      255
102
RTVSPost2010PropOp44
 70
     1
102
RTVSPost2010Prop45
280
     0
102
RTVSPost2010PropOp45
 70
     1
102
RTVSPost2010Prop46
 90
       50
102
RTVSPost2010PropOp46
 70
     1
102
RTVSPost2010Prop47
 90
       50
102
RTVSPost2010PropOp47
 70
     1
102
RTVSPost2010Prop48
 90
       50
102
RTVSPost2010PropOp48
 70
     1
102
RTVSPost2010Prop49
280
     0
102
RTVSPost2010PropOp49
 70
     1
102
RTVSPost2010Prop50
 90
       50
102
RTVSPost2010PropOp50
 70
     1
102
RTVSPost2010Prop51ColorIndex
 90
      256
102
RTVSPost2010Prop51ColorRGB
 90
-16777216
102
RTVSPost2010PropOp51
 70
     0
102
RTVSPost2010Prop52
140
1.0
102
RTVSPost2010PropOp52
 70
     0
102
RTVSPost2010Prop53
 90
        2
102
RTVSPost2010PropOp53
 70
     1
102
RTVSPost2010Prop54
  1
strokes_ogs.tif
102
RTVSPost2010PropOp54
 70
     1
102
RTVSPost2010Prop55
280
     0
102
RTVSPost2010PropOp55
 70
     1
102
RTVSPost2010Prop56
140
1.0
102
RTVSPost2010PropOp56
 70
     1
102
RTVSPost2010Prop57
140
1.0
102
RTVSPost2010PropOp57
 70
     1
102
RTVSPropertyOp0
 70
     1
102
RTVSPropertyOp1
 70
     1
102
RTVSPropertyOp2
 70
     1
102
RTVSPropertyOp3
 70
     1
102
RTVSPropertyOp4
 70
     1
102
RTVSPropertyOp5
 70
     1
102
RTVSPropertyOp6
 70
     1
102
RTVSPropertyOp7
 70
     1
102
RTVSPropertyOp8
 70
     1
102
RTVSPropertyOp9
 70
     1
102
RTVSPropertyOp10
 70
     1
102
RTVSPropertyOp11
 70
     1
102
RTVSPropertyOp12
 70
     1
102
RTVSPropertyOp13
 70
     1
102
RTVSPropertyOp14
 70
     1
102
RTVSPropertyOp15
 70
     1
102
RTVSPropertyOp16
 70
     1
102
RTVSPropertyOp17
 70
     1
102
RTVSPropertyOp18
 70
     1
102
RTVSPropertyOp19
 70
     1
102
RTVSPropertyOp20
 70
     1
102
RTVSPropertyOp21
 70
     1
102
RTVSPropertyOp22
 70
     1
102
RTVSPropertyOp23
 70
     1
102
RTVSPropertyOp24
 70
     1
102
RTVSPropertyOp25
 70
     1
102
RTVSPropertyOp26
 70
     1
102
RTVSPropertyOp27
 70
     1
102
RTVSPropertyOp28
 70
     1
102
RTVSPropertyOp29
 70
     1
102
RTVSPropertyOp30
 70
     1
102
RTVSPropertyOp31
 70
     1
102
RTVSPropertyOp32
 70
     1
102
RTVSPropertyOp33
 70
     1
102
RTVSPropertyOp34
 70
     1
102
RTVSPropertyOp35
 70
     1
102
RTVSPropertyOp36
 70
     1
102
RTVSPropertyOp37
 70
     1
102
RTVSPropertyOp38
 70
     1
102
RTVSPropertyOp39
 70
     1
102
RTVSPropertyOp40
 70
     1
102
RTVSPropertyOp41
 70
     1
102
RTVSPropertyOp42
 70
     1
102
RTVSPropertyOp43
 70
     1
102
RTVSPropertyOp44
 70
     1
102
RTVSPropertyOp45
 70
     1
102
RTVSPropertyOp46
 70
     1
102
RTVSPropertyOp47
 70
     1
102
RTVSPropertyOp48
 70
     1
102
RTVSPropertyOp49
 70
     1
102
RTVSPropertyOp50
 70
     1
102
RTVSPropertyOp51
 70
     0
102
RTVSPropertyOp52
 70
     0
102
RTVSPropertyOp53
 70
     1
102
RTVSPropertyOp54
 70
     1
102
RTVSPropertyOp55
 70
     1
102
RTVSPropertyOp56
 70
     1
102
RTVSPropertyOp57
 70
     1
102
RTVSPropertyOp58
 70
     1
102
RTVSPropertyOp59
 70
     1
102
RTVSPropertyOp60
 70
     1
102
RTVSPropertyOp61
 70
     1
102
RTVSPropertyOp62
 70
     1
  0
XRECORD
  5
40C
102
{ACAD_REACTORS
330
40B
102
}
330
40B
100
AcDbXrecord
280
     1
102
RTVSPost2010Prop28
280
     0
102
RTVSPost2010PropOp28
 70
     1
102
RTVSPost2010Prop29
280
     1
102
RTVSPost2010PropOp29
 70
     1
102
RTVSPost2010Prop30
280
     1
102
RTVSPost2010PropOp30
 70
     1
102
RTVSPost2010Prop31
280
     0
102
RTVSPost2010PropOp31
 70
     1
102
RTVSPost2010Prop32
280
     0
102
RTVSPost2010PropOp32
 70
     1
102
RTVSPost2010Prop33
280
     0
102
RTVSPost2010PropOp33
 70
     1
102
RTVSPost2010Prop34
280
     0
102
RTVSPost2010PropOp34
 70
     1
102
RTVSPost2010Prop35
280
     0
102
RTVSPost2010PropOp35
 70
     1
102
RTVSPost2010Prop36
280
     0
102
RTVSPost2010PropOp36
 70
     1
102
RTVSPost2010Prop37
 90
       50
102
RTVSPost2010PropOp37
 70
     1
102
RTVSPost2010Prop38
140
0.0
102
RTVSPost2010PropOp38
 70
     1
102
RTVSPost2010Prop39
140
1.0
102
RTVSPost2010PropOp39
 70
     1
102
RTVSPost2010Prop40
 90
        0
102
RTVSPost2010PropOp40
 70
     1
102
RTVSPost2010Prop41ColorIndex
 90
       18
102
RTVSPost2010Prop41ColorRGB
 90
        0
102
RTVSPost2010PropOp41
 70
     1
102
RTVSPost2010Prop42
 90
       50
102
RTVSPost2010PropOp42
 70
     1
102
RTVSPost2010Prop43
 90
        3
102
RTVSPost2010PropOp43
 70
     1
102
RTVSPost2010Prop44ColorIndex
 90
        5
102
RTVSPost2010Prop44ColorRGB
 90
      255
102
RTVSPost2010PropOp44
 70
     1
102
RTVSPost2010Prop45
280
     0
102
RTVSPost2010PropOp45
 70
     1
102
RTVSPost2010Prop46
 90
       50
102
RTVSPost2010PropOp46
 70
     1
102
RTVSPost2010Prop47
 90
       50
102
RTVSPost2010PropOp47
 70
     1
102
RTVSPost2010Prop48
 90
       50
102
RTVSPost2010PropOp48
 70
     1
102
RTVSPost2010Prop49
280
     0
102
RTVSPost2010PropOp49
 70
     1
102
RTVSPost2010Prop50
 90
       50
102
RTVSPost2010PropOp50
 70
     1
102
RTVSPost2010Prop51ColorIndex
 90
      256
102
RTVSPost2010Prop51ColorRGB
 90
-16777216
102
RTVSPost2010PropOp51
 70
     0
102
RTVSPost2010Prop52
140
1.0
102
RTVSPost2010PropOp52
 70
     0
102
RTVSPost2010Prop53
 90
        2
102
RTVSPost2010PropOp53
 70
     1
102
RTVSPost2010Prop54
  1
strokes_ogs.tif
102
RTVSPost2010PropOp54
 70
     1
102
RTVSPost2010Prop55
280
     0
102
RTVSPost2010PropOp55
 70
     1
102
RTVSPost2010Prop56
140
1.0
102
RTVSPost2010PropOp56
 70
     1
102
RTVSPost2010Prop57
140
1.0
102
RTVSPost2010PropOp57
 70
     1
102
RTVSPropertyOp0
 70
     0
102
RTVSPropertyOp1
 70
     0
102
RTVSPropertyOp2
 70
     0
102
RTVSPropertyOp3
 70
     0
102
RTVSPropertyOp4
 70
     0
102
RTVSPropertyOp5
 70
     0
102
RTVSPropertyOp6
 70
     0
102
RTVSPropertyOp7
 70
     0
102
RTVSPropertyOp8
 70
     0
102
RTVSPropertyOp9
 70
     0
102
RTVSPropertyOp10
 70
     0
102
RTVSPropertyOp11
 70
     0
102
RTVSPropertyOp12
 70
     0
102
RTVSPropertyOp13
 70
     0
102
RTVSPropertyOp14
 70
     2
102
RTVSPropertyOp15
 70
     0
102
RTVSPropertyOp16
 70
     0
102
RTVSPropertyOp17
 70
     0
102
RTVSPropertyOp18
 70
     0
102
RTVSPropertyOp19
 70
     0
102
RTVSPropertyOp20
 70
     0
102
RTVSPropertyOp21
 70
     0
102
RTVSPropertyOp22
 70
     0
102
RTVSPropertyOp23
 70
     0
102
RTVSPropertyOp24
 70
     0
102
RTVSPropertyOp25
 70
     0
102
RTVSPropertyOp26
 70
     0
102
RTVSPropertyOp27
 70
     0
102
RTVSPropertyOp28
 70
     1
102
RTVSPropertyOp29
 70
     1
102
RTVSPropertyOp30
 70
     1
102
RTVSPropertyOp31
 70
     1
102
RTVSPropertyOp32
 70
     1
102
RTVSPropertyOp33
 70
     1
102
RTVSPropertyOp34
 70
     1
102
RTVSPropertyOp35
 70
     1
102
RTVSPropertyOp36
 70
     1
102
RTVSPropertyOp37
 70
     1
102
RTVSPropertyOp38
 70
     1
102
RTVSPropertyOp39
 70
     1
102
RTVSPropertyOp40
 70
     1
102
RTVSPropertyOp41
 70
     1
102
RTVSPropertyOp42
 70
     1
102
RTVSPropertyOp43
 70
     1
102
RTVSPropertyOp44
 70
     1
102
RTVSPropertyOp45
 70
     1
102
RTVSPropertyOp46
 70
     1
102
RTVSPropertyOp47
 70
     1
102
RTVSPropertyOp48
 70
     1
102
RTVSPropertyOp49
 70
     1
102
RTVSPropertyOp50
 70
     1
102
RTVSPropertyOp51
 70
     0
102
RTVSPropertyOp52
 70
     0
102
RTVSPropertyOp53
 70
     1
102
RTVSPropertyOp54
 70
     1
102
RTVSPropertyOp55
 70
     1
102
RTVSPropertyOp56
 70
     1
102
RTVSPropertyOp57
 70
     1
102
RTVSPropertyOp58
 70
     1
102
RTVSPropertyOp59
 70
     1
102
RTVSPropertyOp60
 70
     1
102
RTVSPropertyOp61
 70
     1
102
RTVSPropertyOp62
 70
     1
  0
XRECORD
  5
406
102
{ACAD_REACTORS
330
405
102
}
330
405
100
AcDbXrecord
280
     1
102
RTVSPost2010Prop28
280
     0
102
RTVSPost2010PropOp28
 70
     1
102
RTVSPost2010Prop29
280
     1
102
RTVSPost2010PropOp29
 70
     1
102
RTVSPost2010Prop30
280
     1
102
RTVSPost2010PropOp30
 70
     1
102
RTVSPost2010Prop31
280
     0
102
RTVSPost2010PropOp31
 70
     1
102
RTVSPost2010Prop32
280
     0
102
RTVSPost2010PropOp32
 70
     1
102
RTVSPost2010Prop33
280
     0
102
RTVSPost2010PropOp33
 70
     1
102
RTVSPost2010Prop34
280
     0
102
RTVSPost2010PropOp34
 70
     1
102
RTVSPost2010Prop35
280
     0
102
RTVSPost2010PropOp35
 70
     1
102
RTVSPost2010Prop36
280
     0
102
RTVSPost2010PropOp36
 70
     1
102
RTVSPost2010Prop37
 90
       50
102
RTVSPost2010PropOp37
 70
     1
102
RTVSPost2010Prop38
140
0.0
102
RTVSPost2010PropOp38
 70
     1
102
RTVSPost2010Prop39
140
1.0
102
RTVSPost2010PropOp39
 70
     1
102
RTVSPost2010Prop40
 90
        0
102
RTVSPost2010PropOp40
 70
     1
102
RTVSPost2010Prop41ColorIndex
 90
       18
102
RTVSPost2010Prop41ColorRGB
 90
        0
102
RTVSPost2010PropOp41
 70
     1
102
RTVSPost2010Prop42
 90
       50
102
RTVSPost2010PropOp42
 70
     1
102
RTVSPost2010Prop43
 90
        3
102
RTVSPost2010PropOp43
 70
     1
102
RTVSPost2010Prop44ColorIndex
 90
        5
102
RTVSPost2010Prop44ColorRGB
 90
      255
102
RTVSPost2010PropOp44
 70
     1
102
RTVSPost2010Prop45
280
     0
102
RTVSPost2010PropOp45
 70
     1
102
RTVSPost2010Prop46
 90
       50
102
RTVSPost2010PropOp46
 70
     1
102
RTVSPost2010Prop47
 90
       50
102
RTVSPost2010PropOp47
 70
     1
102
RTVSPost2010Prop48
 90
       50
102
RTVSPost2010PropOp48
 70
     1
102
RTVSPost2010Prop49
280
     0
102
RTVSPost2010PropOp49
 70
     1
102
RTVSPost2010Prop50
 90
       50
102
RTVSPost2010PropOp50
 70
     1
102
RTVSPost2010Prop51ColorIndex
 90
      256
102
RTVSPost2010Prop51ColorRGB
 90
-16777216
102
RTVSPost2010PropOp51
 70
     0
102
RTVSPost2010Prop52
140
1.0
102
RTVSPost2010PropOp52
 70
     0
102
RTVSPost2010Prop53
 90
        2
102
RTVSPost2010PropOp53
 70
     1
102
RTVSPost2010Prop54
  1
strokes_ogs.tif
102
RTVSPost2010PropOp54
 70
     1
102
RTVSPost2010Prop55
280
     0
102
RTVSPost2010PropOp55
 70
     1
102
RTVSPost2010Prop56
140
1.0
102
RTVSPost2010PropOp56
 70
     1
102
RTVSPost2010Prop57
140
1.0
102
RTVSPost2010PropOp57
 70
     1
102
RTVSPropertyOp0
 70
     1
102
RTVSPropertyOp1
 70
     1
102
RTVSPropertyOp2
 70
     1
102
RTVSPropertyOp3
 70
     1
102
RTVSPropertyOp4
 70
     1
102
RTVSPropertyOp5
 70
     1
102
RTVSPropertyOp6
 70
     1
102
RTVSPropertyOp7
 70
     1
102
RTVSPropertyOp8
 70
     1
102
RTVSPropertyOp9
 70
     1
102
RTVSPropertyOp10
 70
     1
102
RTVSPropertyOp11
 70
     1
102
RTVSPropertyOp12
 70
     1
102
RTVSPropertyOp13
 70
     1
102
RTVSPropertyOp14
 70
     1
102
RTVSPropertyOp15
 70
     1
102
RTVSPropertyOp16
 70
     1
102
RTVSPropertyOp17
 70
     1
102
RTVSPropertyOp18
 70
     1
102
RTVSPropertyOp19
 70
     1
102
RTVSPropertyOp20
 70
     1
102
RTVSPropertyOp21
 70
     1
102
RTVSPropertyOp22
 70
     1
102
RTVSPropertyOp23
 70
     1
102
RTVSPropertyOp24
 70
     1
102
RTVSPropertyOp25
 70
     1
102
RTVSPropertyOp26
 70
     1
102
RTVSPropertyOp27
 70
     1
102
RTVSPropertyOp28
 70
     1
102
RTVSPropertyOp29
 70
     1
102
RTVSPropertyOp30
 70
     1
102
RTVSPropertyOp31
 70
     1
102
RTVSPropertyOp32
 70
     1
102
RTVSPropertyOp33
 70
     1
102
RTVSPropertyOp34
 70
     1
102
RTVSPropertyOp35
 70
     1
102
RTVSPropertyOp36
 70
     1
102
RTVSPropertyOp37
 70
     1
102
RTVSPropertyOp38
 70
     1
102
RTVSPropertyOp39
 70
     1
102
RTVSPropertyOp40
 70
     1
102
RTVSPropertyOp41
 70
     1
102
RTVSPropertyOp42
 70
     1
102
RTVSPropertyOp43
 70
     1
102
RTVSPropertyOp44
 70
     1
102
RTVSPropertyOp45
 70
     1
102
RTVSPropertyOp46
 70
     1
102
RTVSPropertyOp47
 70
     1
102
RTVSPropertyOp48
 70
     1
102
RTVSPropertyOp49
 70
     1
102
RTVSPropertyOp50
 70
     1
102
RTVSPropertyOp51
 70
     0
102
RTVSPropertyOp52
 70
     0
102
RTVSPropertyOp53
 70
     1
102
RTVSPropertyOp54
 70
     1
102
RTVSPropertyOp55
 70
     1
102
RTVSPropertyOp56
 70
     1
102
RTVSPropertyOp57
 70
     1
102
RTVSPropertyOp58
 70
     1
102
RTVSPropertyOp59
 70
     1
102
RTVSPropertyOp60
 70
     1
102
RTVSPropertyOp61
 70
     1
102
RTVSPropertyOp62
 70
     1
  0
XRECORD
  5
40E
102
{ACAD_REACTORS
330
40D
102
}
330
40D
100
AcDbXrecord
280
     1
102
RTVSPost2010Prop28
280
     0
102
RTVSPost2010PropOp28
 70
     1
102
RTVSPost2010Prop29
280
     1
102
RTVSPost2010PropOp29
 70
     1
102
RTVSPost2010Prop30
280
     1
102
RTVSPost2010PropOp30
 70
     1
102
RTVSPost2010Prop31
280
     0
102
RTVSPost2010PropOp31
 70
     1
102
RTVSPost2010Prop32
280
     0
102
RTVSPost2010PropOp32
 70
     1
102
RTVSPost2010Prop33
280
     0
102
RTVSPost2010PropOp33
 70
     1
102
RTVSPost2010Prop34
280
     0
102
RTVSPost2010PropOp34
 70
     1
102
RTVSPost2010Prop35
280
     0
102
RTVSPost2010PropOp35
 70
     1
102
RTVSPost2010Prop36
280
     0
102
RTVSPost2010PropOp36
 70
     1
102
RTVSPost2010Prop37
 90
       50
102
RTVSPost2010PropOp37
 70
     1
102
RTVSPost2010Prop38
140
0.0
102
RTVSPost2010PropOp38
 70
     1
102
RTVSPost2010Prop39
140
1.0
102
RTVSPost2010PropOp39
 70
     1
102
RTVSPost2010Prop40
 90
        0
102
RTVSPost2010PropOp40
 70
     1
102
RTVSPost2010Prop41ColorIndex
 90
       18
102
RTVSPost2010Prop41ColorRGB
 90
        0
102
RTVSPost2010PropOp41
 70
     1
102
RTVSPost2010Prop42
 90
       50
102
RTVSPost2010PropOp42
 70
     1
102
RTVSPost2010Prop43
 90
        3
102
RTVSPost2010PropOp43
 70
     1
102
RTVSPost2010Prop44ColorIndex
 90
        5
102
RTVSPost2010Prop44ColorRGB
 90
      255
102
RTVSPost2010PropOp44
 70
     1
102
RTVSPost2010Prop45
280
     0
102
RTVSPost2010PropOp45
 70
     1
102
RTVSPost2010Prop46
 90
       50
102
RTVSPost2010PropOp46
 70
     1
102
RTVSPost2010Prop47
 90
       50
102
RTVSPost2010PropOp47
 70
     1
102
RTVSPost2010Prop48
 90
       50
102
RTVSPost2010PropOp48
 70
     1
102
RTVSPost2010Prop49
280
     0
102
RTVSPost2010PropOp49
 70
     1
102
RTVSPost2010Prop50
 90
       50
102
RTVSPost2010PropOp50
 70
     1
102
RTVSPost2010Prop51ColorIndex
 90
      256
102
RTVSPost2010Prop51ColorRGB
 90
-16777216
102
RTVSPost2010PropOp51
 70
     0
102
RTVSPost2010Prop52
140
1.0
102
RTVSPost2010PropOp52
 70
     0
102
RTVSPost2010Prop53
 90
        2
102
RTVSPost2010PropOp53
 70
     1
102
RTVSPost2010Prop54
  1
strokes_ogs.tif
102
RTVSPost2010PropOp54
 70
     1
102
RTVSPost2010Prop55
280
     0
102
RTVSPost2010PropOp55
 70
     1
102
RTVSPost2010Prop56
140
1.0
102
RTVSPost2010PropOp56
 70
     1
102
RTVSPost2010Prop57
140
1.0
102
RTVSPost2010PropOp57
 70
     1
102
RTVSPropertyOp0
 70
     0
102
RTVSPropertyOp1
 70
     0
102
RTVSPropertyOp2
 70
     0
102
RTVSPropertyOp3
 70
     0
102
RTVSPropertyOp4
 70
     0
102
RTVSPropertyOp5
 70
     0
102
RTVSPropertyOp6
 70
     0
102
RTVSPropertyOp7
 70
     0
102
RTVSPropertyOp8
 70
     0
102
RTVSPropertyOp9
 70
     0
102
RTVSPropertyOp10
 70
     0
102
RTVSPropertyOp11
 70
     0
102
RTVSPropertyOp12
 70
     0
102
RTVSPropertyOp13
 70
     0
102
RTVSPropertyOp14
 70
     2
102
RTVSPropertyOp15
 70
     0
102
RTVSPropertyOp16
 70
     0
102
RTVSPropertyOp17
 70
     0
102
RTVSPropertyOp18
 70
     0
102
RTVSPropertyOp19
 70
     0
102
RTVSPropertyOp20
 70
     0
102
RTVSPropertyOp21
 70
     0
102
RTVSPropertyOp22
 70
     0
102
RTVSPropertyOp23
 70
     0
102
RTVSPropertyOp24
 70
     0
102
RTVSPropertyOp25
 70
     0
102
RTVSPropertyOp26
 70
     0
102
RTVSPropertyOp27
 70
     0
102
RTVSPropertyOp28
 70
     1
102
RTVSPropertyOp29
 70
     1
102
RTVSPropertyOp30
 70
     1
102
RTVSPropertyOp31
 70
     1
102
RTVSPropertyOp32
 70
     1
102
RTVSPropertyOp33
 70
     1
102
RTVSPropertyOp34
 70
     1
102
RTVSPropertyOp35
 70
     1
102
RTVSPropertyOp36
 70
     1
102
RTVSPropertyOp37
 70
     1
102
RTVSPropertyOp38
 70
     1
102
RTVSPropertyOp39
 70
     1
102
RTVSPropertyOp40
 70
     1
102
RTVSPropertyOp41
 70
     1
102
RTVSPropertyOp42
 70
     1
102
RTVSPropertyOp43
 70
     1
102
RTVSPropertyOp44
 70
     1
102
RTVSPropertyOp45
 70
     1
102
RTVSPropertyOp46
 70
     1
102
RTVSPropertyOp47
 70
     1
102
RTVSPropertyOp48
 70
     1
102
RTVSPropertyOp49
 70
     1
102
RTVSPropertyOp50
 70
     1
102
RTVSPropertyOp51
 70
     0
102
RTVSPropertyOp52
 70
     0
102
RTVSPropertyOp53
 70
     1
102
RTVSPropertyOp54
 70
     1
102
RTVSPropertyOp55
 70
     1
102
RTVSPropertyOp56
 70
     1
102
RTVSPropertyOp57
 70
     1
102
RTVSPropertyOp58
 70
     1
102
RTVSPropertyOp59
 70
     1
102
RTVSPropertyOp60
 70
     1
102
RTVSPropertyOp61
 70
     1
102
RTVSPropertyOp62
 70
     1
  0
XRECORD
  5
3FE
102
{ACAD_REACTORS
330
3FD
102
}
330
3FD
100
AcDbXrecord
280
     1
102
RTVSPost2010Prop28
280
     0
102
RTVSPost2010PropOp28
 70
     1
102
RTVSPost2010Prop29
280
     1
102
RTVSPost2010PropOp29
 70
     1
102
RTVSPost2010Prop30
280
     1
102
RTVSPost2010PropOp30
 70
     1
102
RTVSPost2010Prop31
280
     0
102
RTVSPost2010PropOp31
 70
     1
102
RTVSPost2010Prop32
280
     0
102
RTVSPost2010PropOp32
 70
     1
102
RTVSPost2010Prop33
280
     0
102
RTVSPost2010PropOp33
 70
     1
102
RTVSPost2010Prop34
280
     0
102
RTVSPost2010PropOp34
 70
     1
102
RTVSPost2010Prop35
280
     0
102
RTVSPost2010PropOp35
 70
     1
102
RTVSPost2010Prop36
280
     0
102
RTVSPost2010PropOp36
 70
     1
102
RTVSPost2010Prop37
 90
       50
102
RTVSPost2010PropOp37
 70
     1
102
RTVSPost2010Prop38
140
0.0
102
RTVSPost2010PropOp38
 70
     1
102
RTVSPost2010Prop39
140
1.0
102
RTVSPost2010PropOp39
 70
     1
102
RTVSPost2010Prop40
 90
        0
102
RTVSPost2010PropOp40
 70
     1
102
RTVSPost2010Prop41ColorIndex
 90
       18
102
RTVSPost2010Prop41ColorRGB
 90
        0
102
RTVSPost2010PropOp41
 70
     1
102
RTVSPost2010Prop42
 90
       50
102
RTVSPost2010PropOp42
 70
     1
102
RTVSPost2010Prop43
 90
        3
102
RTVSPost2010PropOp43
 70
     1
102
RTVSPost2010Prop44ColorIndex
 90
        5
102
RTVSPost2010Prop44ColorRGB
 90
      255
102
RTVSPost2010PropOp44
 70
     1
102
RTVSPost2010Prop45
280
     0
102
RTVSPost2010PropOp45
 70
     1
102
RTVSPost2010Prop46
 90
       50
102
RTVSPost2010PropOp46
 70
     1
102
RTVSPost2010Prop47
 90
       50
102
RTVSPost2010PropOp47
 70
     1
102
RTVSPost2010Prop48
 90
       50
102
RTVSPost2010PropOp48
 70
     1
102
RTVSPost2010Prop49
280
     0
102
RTVSPost2010PropOp49
 70
     1
102
RTVSPost2010Prop50
 90
       50
102
RTVSPost2010PropOp50
 70
     1
102
RTVSPost2010Prop51ColorIndex
 90
      256
102
RTVSPost2010Prop51ColorRGB
 90
-16777216
102
RTVSPost2010PropOp51
 70
     0
102
RTVSPost2010Prop52
140
1.0
102
RTVSPost2010PropOp52
 70
     0
102
RTVSPost2010Prop53
 90
        2
102
RTVSPost2010PropOp53
 70
     1
102
RTVSPost2010Prop54
  1
strokes_ogs.tif
102
RTVSPost2010PropOp54
 70
     1
102
RTVSPost2010Prop55
280
     0
102
RTVSPost2010PropOp55
 70
     1
102
RTVSPost2010Prop56
140
1.0
102
RTVSPost2010PropOp56
 70
     1
102
RTVSPost2010Prop57
140
1.0
102
RTVSPost2010PropOp57
 70
     1
102
RTVSPropertyOp0
 70
     1
102
RTVSPropertyOp1
 70
     1
102
RTVSPropertyOp2
 70
     1
102
RTVSPropertyOp3
 70
     1
102
RTVSPropertyOp4
 70
     1
102
RTVSPropertyOp5
 70
     1
102
RTVSPropertyOp6
 70
     1
102
RTVSPropertyOp7
 70
     1
102
RTVSPropertyOp8
 70
     1
102
RTVSPropertyOp9
 70
     1
102
RTVSPropertyOp10
 70
     1
102
RTVSPropertyOp11
 70
     1
102
RTVSPropertyOp12
 70
     1
102
RTVSPropertyOp13
 70
     1
102
RTVSPropertyOp14
 70
     1
102
RTVSPropertyOp15
 70
     1
102
RTVSPropertyOp16
 70
     1
102
RTVSPropertyOp17
 70
     1
102
RTVSPropertyOp18
 70
     1
102
RTVSPropertyOp19
 70
     1
102
RTVSPropertyOp20
 70
     1
102
RTVSPropertyOp21
 70
     1
102
RTVSPropertyOp22
 70
     1
102
RTVSPropertyOp23
 70
     1
102
RTVSPropertyOp24
 70
     1
102
RTVSPropertyOp25
 70
     1
102
RTVSPropertyOp26
 70
     1
102
RTVSPropertyOp27
 70
     1
102
RTVSPropertyOp28
 70
     1
102
RTVSPropertyOp29
 70
     1
102
RTVSPropertyOp30
 70
     1
102
RTVSPropertyOp31
 70
     1
102
RTVSPropertyOp32
 70
     1
102
RTVSPropertyOp33
 70
     1
102
RTVSPropertyOp34
 70
     1
102
RTVSPropertyOp35
 70
     1
102
RTVSPropertyOp36
 70
     1
102
RTVSPropertyOp37
 70
     1
102
RTVSPropertyOp38
 70
     1
102
RTVSPropertyOp39
 70
     1
102
RTVSPropertyOp40
 70
     1
102
RTVSPropertyOp41
 70
     1
102
RTVSPropertyOp42
 70
     1
102
RTVSPropertyOp43
 70
     1
102
RTVSPropertyOp44
 70
     1
102
RTVSPropertyOp45
 70
     1
102
RTVSPropertyOp46
 70
     1
102
RTVSPropertyOp47
 70
     1
102
RTVSPropertyOp48
 70
     1
102
RTVSPropertyOp49
 70
     1
102
RTVSPropertyOp50
 70
     1
102
RTVSPropertyOp51
 70
     0
102
RTVSPropertyOp52
 70
     0
102
RTVSPropertyOp53
 70
     1
102
RTVSPropertyOp54
 70
     1
102
RTVSPropertyOp55
 70
     1
102
RTVSPropertyOp56
 70
     1
102
RTVSPropertyOp57
 70
     1
102
RTVSPropertyOp58
 70
     1
102
RTVSPropertyOp59
 70
     1
102
RTVSPropertyOp60
 70
     1
102
RTVSPropertyOp61
 70
     1
102
RTVSPropertyOp62
 70
     1
  0
XRECORD
  5
41A
102
{ACAD_REACTORS
330
419
102
}
330
419
100
AcDbXrecord
280
     1
102
RTVSPost2010Prop28
280
     0
102
RTVSPost2010PropOp28
 70
     1
102
RTVSPost2010Prop29
280
     1
102
RTVSPost2010PropOp29
 70
     1
102
RTVSPost2010Prop30
280
     1
102
RTVSPost2010PropOp30
 70
     1
102
RTVSPost2010Prop31
280
     0
102
RTVSPost2010PropOp31
 70
     1
102
RTVSPost2010Prop32
280
     0
102
RTVSPost2010PropOp32
 70
     1
102
RTVSPost2010Prop33
280
     0
102
RTVSPost2010PropOp33
 70
     1
102
RTVSPost2010Prop34
280
     0
102
RTVSPost2010PropOp34
 70
     1
102
RTVSPost2010Prop35
280
     0
102
RTVSPost2010PropOp35
 70
     1
102
RTVSPost2010Prop36
280
     0
102
RTVSPost2010PropOp36
 70
     1
102
RTVSPost2010Prop37
 90
       50
102
RTVSPost2010PropOp37
 70
     1
102
RTVSPost2010Prop38
140
0.0
102
RTVSPost2010PropOp38
 70
     1
102
RTVSPost2010Prop39
140
1.0
102
RTVSPost2010PropOp39
 70
     1
102
RTVSPost2010Prop40
 90
        0
102
RTVSPost2010PropOp40
 70
     1
102
RTVSPost2010Prop41ColorIndex
 90
       18
102
RTVSPost2010Prop41ColorRGB
 90
        0
102
RTVSPost2010PropOp41
 70
     1
102
RTVSPost2010Prop42
 90
       50
102
RTVSPost2010PropOp42
 70
     1
102
RTVSPost2010Prop43
 90
        3
102
RTVSPost2010PropOp43
 70
     1
102
RTVSPost2010Prop44ColorIndex
 90
        5
102
RTVSPost2010Prop44ColorRGB
 90
      255
102
RTVSPost2010PropOp44
 70
     1
102
RTVSPost2010Prop45
280
     0
102
RTVSPost2010PropOp45
 70
     1
102
RTVSPost2010Prop46
 90
       50
102
RTVSPost2010PropOp46
 70
     1
102
RTVSPost2010Prop47
 90
       50
102
RTVSPost2010PropOp47
 70
     1
102
RTVSPost2010Prop48
 90
       50
102
RTVSPost2010PropOp48
 70
     1
102
RTVSPost2010Prop49
280
     0
102
RTVSPost2010PropOp49
 70
     1
102
RTVSPost2010Prop50
 90
       50
102
RTVSPost2010PropOp50
 70
     1
102
RTVSPost2010Prop51ColorIndex
 90
      256
102
RTVSPost2010Prop51ColorRGB
 90
-16777216
102
RTVSPost2010PropOp51
 70
     0
102
RTVSPost2010Prop52
140
1.0
102
RTVSPost2010PropOp52
 70
     0
102
RTVSPost2010Prop53
 90
        2
102
RTVSPost2010PropOp53
 70
     1
102
RTVSPost2010Prop54
  1
strokes_ogs.tif
102
RTVSPost2010PropOp54
 70
     1
102
RTVSPost2010Prop55
280
     0
102
RTVSPost2010PropOp55
 70
     1
102
RTVSPost2010Prop56
140
1.0
102
RTVSPost2010PropOp56
 70
     1
102
RTVSPost2010Prop57
140
1.0
102
RTVSPost2010PropOp57
 70
     1
102
RTVSPropertyOp0
 70
     1
102
RTVSPropertyOp1
 70
     1
102
RTVSPropertyOp2
 70
     1
102
RTVSPropertyOp3
 70
     1
102
RTVSPropertyOp4
 70
     1
102
RTVSPropertyOp5
 70
     1
102
RTVSPropertyOp6
 70
     1
102
RTVSPropertyOp7
 70
     1
102
RTVSPropertyOp8
 70
     1
102
RTVSPropertyOp9
 70
     1
102
RTVSPropertyOp10
 70
     1
102
RTVSPropertyOp11
 70
     1
102
RTVSPropertyOp12
 70
     1
102
RTVSPropertyOp13
 70
     1
102
RTVSPropertyOp14
 70
     1
102
RTVSPropertyOp15
 70
     1
102
RTVSPropertyOp16
 70
     1
102
RTVSPropertyOp17
 70
     1
102
RTVSPropertyOp18
 70
     1
102
RTVSPropertyOp19
 70
     1
102
RTVSPropertyOp20
 70
     1
102
RTVSPropertyOp21
 70
     1
102
RTVSPropertyOp22
 70
     1
102
RTVSPropertyOp23
 70
     1
102
RTVSPropertyOp24
 70
     1
102
RTVSPropertyOp25
 70
     1
102
RTVSPropertyOp26
 70
     1
102
RTVSPropertyOp27
 70
     1
102
RTVSPropertyOp28
 70
     1
102
RTVSPropertyOp29
 70
     1
102
RTVSPropertyOp30
 70
     1
102
RTVSPropertyOp31
 70
     1
102
RTVSPropertyOp32
 70
     1
102
RTVSPropertyOp33
 70
     1
102
RTVSPropertyOp34
 70
     1
102
RTVSPropertyOp35
 70
     1
102
RTVSPropertyOp36
 70
     1
102
RTVSPropertyOp37
 70
     1
102
RTVSPropertyOp38
 70
     1
102
RTVSPropertyOp39
 70
     1
102
RTVSPropertyOp40
 70
     1
102
RTVSPropertyOp41
 70
     1
102
RTVSPropertyOp42
 70
     1
102
RTVSPropertyOp43
 70
     1
102
RTVSPropertyOp44
 70
     1
102
RTVSPropertyOp45
 70
     1
102
RTVSPropertyOp46
 70
     1
102
RTVSPropertyOp47
 70
     1
102
RTVSPropertyOp48
 70
     1
102
RTVSPropertyOp49
 70
     1
102
RTVSPropertyOp50
 70
     1
102
RTVSPropertyOp51
 70
     0
102
RTVSPropertyOp52
 70
     0
102
RTVSPropertyOp53
 70
     1
102
RTVSPropertyOp54
 70
     1
102
RTVSPropertyOp55
 70
     1
102
RTVSPropertyOp56
 70
     1
102
RTVSPropertyOp57
 70
     1
102
RTVSPropertyOp58
 70
     1
102
RTVSPropertyOp59
 70
     1
102
RTVSPropertyOp60
 70
     1
102
RTVSPropertyOp61
 70
     1
102
RTVSPropertyOp62
 70
     1
  0
XRECORD
  5
418
102
{ACAD_REACTORS
330
417
102
}
330
417
100
AcDbXrecord
280
     1
102
RTVSPost2010Prop28
280
     0
102
RTVSPost2010PropOp28
 70
     1
102
RTVSPost2010Prop29
280
     1
102
RTVSPost2010PropOp29
 70
     1
102
RTVSPost2010Prop30
280
     1
102
RTVSPost2010PropOp30
 70
     1
102
RTVSPost2010Prop31
280
     0
102
RTVSPost2010PropOp31
 70
     1
102
RTVSPost2010Prop32
280
     0
102
RTVSPost2010PropOp32
 70
     1
102
RTVSPost2010Prop33
280
     0
102
RTVSPost2010PropOp33
 70
     1
102
RTVSPost2010Prop34
280
     0
102
RTVSPost2010PropOp34
 70
     1
102
RTVSPost2010Prop35
280
     0
102
RTVSPost2010PropOp35
 70
     1
102
RTVSPost2010Prop36
280
     0
102
RTVSPost2010PropOp36
 70
     1
102
RTVSPost2010Prop37
 90
       50
102
RTVSPost2010PropOp37
 70
     1
102
RTVSPost2010Prop38
140
0.0
102
RTVSPost2010PropOp38
 70
     1
102
RTVSPost2010Prop39
140
1.0
102
RTVSPost2010PropOp39
 70
     1
102
RTVSPost2010Prop40
 90
        0
102
RTVSPost2010PropOp40
 70
     1
102
RTVSPost2010Prop41ColorIndex
 90
       18
102
RTVSPost2010Prop41ColorRGB
 90
        0
102
RTVSPost2010PropOp41
 70
     1
102
RTVSPost2010Prop42
 90
       50
102
RTVSPost2010PropOp42
 70
     1
102
RTVSPost2010Prop43
 90
        3
102
RTVSPost2010PropOp43
 70
     1
102
RTVSPost2010Prop44ColorIndex
 90
        5
102
RTVSPost2010Prop44ColorRGB
 90
      255
102
RTVSPost2010PropOp44
 70
     1
102
RTVSPost2010Prop45
280
     0
102
RTVSPost2010PropOp45
 70
     1
102
RTVSPost2010Prop46
 90
       50
102
RTVSPost2010PropOp46
 70
     1
102
RTVSPost2010Prop47
 90
       50
102
RTVSPost2010PropOp47
 70
     1
102
RTVSPost2010Prop48
 90
       50
102
RTVSPost2010PropOp48
 70
     1
102
RTVSPost2010Prop49
280
     0
102
RTVSPost2010PropOp49
 70
     1
102
RTVSPost2010Prop50
 90
       50
102
RTVSPost2010PropOp50
 70
     1
102
RTVSPost2010Prop51ColorIndex
 90
      256
102
RTVSPost2010Prop51ColorRGB
 90
-16777216
102
RTVSPost2010PropOp51
 70
     0
102
RTVSPost2010Prop52
140
1.0
102
RTVSPost2010PropOp52
 70
     0
102
RTVSPost2010Prop53
 90
        2
102
RTVSPost2010PropOp53
 70
     1
102
RTVSPost2010Prop54
  1
strokes_ogs.tif
102
RTVSPost2010PropOp54
 70
     1
102
RTVSPost2010Prop55
280
     0
102
RTVSPost2010PropOp55
 70
     1
102
RTVSPost2010Prop56
140
1.0
102
RTVSPost2010PropOp56
 70
     1
102
RTVSPost2010Prop57
140
1.0
102
RTVSPost2010PropOp57
 70
     1
102
RTVSPropertyOp0
 70
     1
102
RTVSPropertyOp1
 70
     1
102
RTVSPropertyOp2
 70
     1
102
RTVSPropertyOp3
 70
     1
102
RTVSPropertyOp4
 70
     1
102
RTVSPropertyOp5
 70
     1
102
RTVSPropertyOp6
 70
     1
102
RTVSPropertyOp7
 70
     1
102
RTVSPropertyOp8
 70
     1
102
RTVSPropertyOp9
 70
     1
102
RTVSPropertyOp10
 70
     1
102
RTVSPropertyOp11
 70
     1
102
RTVSPropertyOp12
 70
     1
102
RTVSPropertyOp13
 70
     1
102
RTVSPropertyOp14
 70
     1
102
RTVSPropertyOp15
 70
     1
102
RTVSPropertyOp16
 70
     1
102
RTVSPropertyOp17
 70
     1
102
RTVSPropertyOp18
 70
     1
102
RTVSPropertyOp19
 70
     1
102
RTVSPropertyOp20
 70
     1
102
RTVSPropertyOp21
 70
     1
102
RTVSPropertyOp22
 70
     1
102
RTVSPropertyOp23
 70
     1
102
RTVSPropertyOp24
 70
     1
102
RTVSPropertyOp25
 70
     1
102
RTVSPropertyOp26
 70
     1
102
RTVSPropertyOp27
 70
     1
102
RTVSPropertyOp28
 70
     1
102
RTVSPropertyOp29
 70
     1
102
RTVSPropertyOp30
 70
     1
102
RTVSPropertyOp31
 70
     1
102
RTVSPropertyOp32
 70
     1
102
RTVSPropertyOp33
 70
     1
102
RTVSPropertyOp34
 70
     1
102
RTVSPropertyOp35
 70
     1
102
RTVSPropertyOp36
 70
     1
102
RTVSPropertyOp37
 70
     1
102
RTVSPropertyOp38
 70
     1
102
RTVSPropertyOp39
 70
     1
102
RTVSPropertyOp40
 70
     1
102
RTVSPropertyOp41
 70
     1
102
RTVSPropertyOp42
 70
     1
102
RTVSPropertyOp43
 70
     1
102
RTVSPropertyOp44
 70
     1
102
RTVSPropertyOp45
 70
     1
102
RTVSPropertyOp46
 70
     1
102
RTVSPropertyOp47
 70
     1
102
RTVSPropertyOp48
 70
     1
102
RTVSPropertyOp49
 70
     1
102
RTVSPropertyOp50
 70
     1
102
RTVSPropertyOp51
 70
     0
102
RTVSPropertyOp52
 70
     0
102
RTVSPropertyOp53
 70
     1
102
RTVSPropertyOp54
 70
     1
102
RTVSPropertyOp55
 70
     1
102
RTVSPropertyOp56
 70
     1
102
RTVSPropertyOp57
 70
     1
102
RTVSPropertyOp58
 70
     1
102
RTVSPropertyOp59
 70
     1
102
RTVSPropertyOp60
 70
     1
102
RTVSPropertyOp61
 70
     1
102
RTVSPropertyOp62
 70
     1
  0
XRECORD
  5
412
102
{ACAD_REACTORS
330
411
102
}
330
411
100
AcDbXrecord
280
     1
102
RTVSPost2010Prop28
280
     0
102
RTVSPost2010PropOp28
 70
     1
102
RTVSPost2010Prop29
280
     1
102
RTVSPost2010PropOp29
 70
     1
102
RTVSPost2010Prop30
280
     1
102
RTVSPost2010PropOp30
 70
     1
102
RTVSPost2010Prop31
280
     0
102
RTVSPost2010PropOp31
 70
     1
102
RTVSPost2010Prop32
280
     0
102
RTVSPost2010PropOp32
 70
     1
102
RTVSPost2010Prop33
280
     0
102
RTVSPost2010PropOp33
 70
     1
102
RTVSPost2010Prop34
280
     0
102
RTVSPost2010PropOp34
 70
     1
102
RTVSPost2010Prop35
280
     0
102
RTVSPost2010PropOp35
 70
     1
102
RTVSPost2010Prop36
280
     0
102
RTVSPost2010PropOp36
 70
     1
102
RTVSPost2010Prop37
 90
       50
102
RTVSPost2010PropOp37
 70
     1
102
RTVSPost2010Prop38
140
0.0
102
RTVSPost2010PropOp38
 70
     1
102
RTVSPost2010Prop39
140
1.0
102
RTVSPost2010PropOp39
 70
     1
102
RTVSPost2010Prop40
 90
        0
102
RTVSPost2010PropOp40
 70
     1
102
RTVSPost2010Prop41ColorIndex
 90
       18
102
RTVSPost2010Prop41ColorRGB
 90
        0
102
RTVSPost2010PropOp41
 70
     1
102
RTVSPost2010Prop42
 90
       50
102
RTVSPost2010PropOp42
 70
     1
102
RTVSPost2010Prop43
 90
        3
102
RTVSPost2010PropOp43
 70
     1
102
RTVSPost2010Prop44ColorIndex
 90
        5
102
RTVSPost2010Prop44ColorRGB
 90
      255
102
RTVSPost2010PropOp44
 70
     1
102
RTVSPost2010Prop45
280
     0
102
RTVSPost2010PropOp45
 70
     1
102
RTVSPost2010Prop46
 90
       50
102
RTVSPost2010PropOp46
 70
     1
102
RTVSPost2010Prop47
 90
       50
102
RTVSPost2010PropOp47
 70
     1
102
RTVSPost2010Prop48
 90
       50
102
RTVSPost2010PropOp48
 70
     1
102
RTVSPost2010Prop49
280
     0
102
RTVSPost2010PropOp49
 70
     1
102
RTVSPost2010Prop50
 90
       50
102
RTVSPost2010PropOp50
 70
     1
102
RTVSPost2010Prop51ColorIndex
 90
      256
102
RTVSPost2010Prop51ColorRGB
 90
-16777216
102
RTVSPost2010PropOp51
 70
     0
102
RTVSPost2010Prop52
140
1.0
102
RTVSPost2010PropOp52
 70
     0
102
RTVSPost2010Prop53
 90
        2
102
RTVSPost2010PropOp53
 70
     1
102
RTVSPost2010Prop54
  1
strokes_ogs.tif
102
RTVSPost2010PropOp54
 70
     1
102
RTVSPost2010Prop55
280
     0
102
RTVSPost2010PropOp55
 70
     1
102
RTVSPost2010Prop56
140
1.0
102
RTVSPost2010PropOp56
 70
     1
102
RTVSPost2010Prop57
140
1.0
102
RTVSPost2010PropOp57
 70
     1
102
RTVSPropertyOp0
 70
     1
102
RTVSPropertyOp1
 70
     1
102
RTVSPropertyOp2
 70
     1
102
RTVSPropertyOp3
 70
     1
102
RTVSPropertyOp4
 70
     1
102
RTVSPropertyOp5
 70
     1
102
RTVSPropertyOp6
 70
     1
102
RTVSPropertyOp7
 70
     1
102
RTVSPropertyOp8
 70
     1
102
RTVSPropertyOp9
 70
     1
102
RTVSPropertyOp10
 70
     1
102
RTVSPropertyOp11
 70
     1
102
RTVSPropertyOp12
 70
     1
102
RTVSPropertyOp13
 70
     1
102
RTVSPropertyOp14
 70
     1
102
RTVSPropertyOp15
 70
     1
102
RTVSPropertyOp16
 70
     1
102
RTVSPropertyOp17
 70
     1
102
RTVSPropertyOp18
 70
     1
102
RTVSPropertyOp19
 70
     1
102
RTVSPropertyOp20
 70
     1
102
RTVSPropertyOp21
 70
     1
102
RTVSPropertyOp22
 70
     1
102
RTVSPropertyOp23
 70
     1
102
RTVSPropertyOp24
 70
     1
102
RTVSPropertyOp25
 70
     1
102
RTVSPropertyOp26
 70
     1
102
RTVSPropertyOp27
 70
     1
102
RTVSPropertyOp28
 70
     1
102
RTVSPropertyOp29
 70
     1
102
RTVSPropertyOp30
 70
     1
102
RTVSPropertyOp31
 70
     1
102
RTVSPropertyOp32
 70
     1
102
RTVSPropertyOp33
 70
     1
102
RTVSPropertyOp34
 70
     1
102
RTVSPropertyOp35
 70
     1
102
RTVSPropertyOp36
 70
     1
102
RTVSPropertyOp37
 70
     1
102
RTVSPropertyOp38
 70
     1
102
RTVSPropertyOp39
 70
     1
102
RTVSPropertyOp40
 70
     1
102
RTVSPropertyOp41
 70
     1
102
RTVSPropertyOp42
 70
     1
102
RTVSPropertyOp43
 70
     1
102
RTVSPropertyOp44
 70
     1
102
RTVSPropertyOp45
 70
     1
102
RTVSPropertyOp46
 70
     1
102
RTVSPropertyOp47
 70
     1
102
RTVSPropertyOp48
 70
     1
102
RTVSPropertyOp49
 70
     1
102
RTVSPropertyOp50
 70
     1
102
RTVSPropertyOp51
 70
     0
102
RTVSPropertyOp52
 70
     0
102
RTVSPropertyOp53
 70
     1
102
RTVSPropertyOp54
 70
     1
102
RTVSPropertyOp55
 70
     1
102
RTVSPropertyOp56
 70
     1
102
RTVSPropertyOp57
 70
     1
102
RTVSPropertyOp58
 70
     1
102
RTVSPropertyOp59
 70
     1
102
RTVSPropertyOp60
 70
     1
102
RTVSPropertyOp61
 70
     1
102
RTVSPropertyOp62
 70
     1
  0
XRECORD
  5
414
102
{ACAD_REACTORS
330
413
102
}
330
413
100
AcDbXrecord
280
     1
102
RTVSPost2010Prop28
280
     0
102
RTVSPost2010PropOp28
 70
     1
102
RTVSPost2010Prop29
280
     1
102
RTVSPost2010PropOp29
 70
     1
102
RTVSPost2010Prop30
280
     1
102
RTVSPost2010PropOp30
 70
     1
102
RTVSPost2010Prop31
280
     0
102
RTVSPost2010PropOp31
 70
     1
102
RTVSPost2010Prop32
280
     0
102
RTVSPost2010PropOp32
 70
     1
102
RTVSPost2010Prop33
280
     0
102
RTVSPost2010PropOp33
 70
     1
102
RTVSPost2010Prop34
280
     0
102
RTVSPost2010PropOp34
 70
     1
102
RTVSPost2010Prop35
280
     0
102
RTVSPost2010PropOp35
 70
     1
102
RTVSPost2010Prop36
280
     0
102
RTVSPost2010PropOp36
 70
     1
102
RTVSPost2010Prop37
 90
       50
102
RTVSPost2010PropOp37
 70
     1
102
RTVSPost2010Prop38
140
0.0
102
RTVSPost2010PropOp38
 70
     1
102
RTVSPost2010Prop39
140
1.0
102
RTVSPost2010PropOp39
 70
     1
102
RTVSPost2010Prop40
 90
        0
102
RTVSPost2010PropOp40
 70
     1
102
RTVSPost2010Prop41ColorIndex
 90
       18
102
RTVSPost2010Prop41ColorRGB
 90
        0
102
RTVSPost2010PropOp41
 70
     1
102
RTVSPost2010Prop42
 90
       50
102
RTVSPost2010PropOp42
 70
     1
102
RTVSPost2010Prop43
 90
        3
102
RTVSPost2010PropOp43
 70
     1
102
RTVSPost2010Prop44ColorIndex
 90
        5
102
RTVSPost2010Prop44ColorRGB
 90
      255
102
RTVSPost2010PropOp44
 70
     1
102
RTVSPost2010Prop45
280
     0
102
RTVSPost2010PropOp45
 70
     1
102
RTVSPost2010Prop46
 90
       50
102
RTVSPost2010PropOp46
 70
     1
102
RTVSPost2010Prop47
 90
       50
102
RTVSPost2010PropOp47
 70
     1
102
RTVSPost2010Prop48
 90
       50
102
RTVSPost2010PropOp48
 70
     1
102
RTVSPost2010Prop49
280
     0
102
RTVSPost2010PropOp49
 70
     1
102
RTVSPost2010Prop50
 90
       50
102
RTVSPost2010PropOp50
 70
     1
102
RTVSPost2010Prop51ColorIndex
 90
      256
102
RTVSPost2010Prop51ColorRGB
 90
-16777216
102
RTVSPost2010PropOp51
 70
     0
102
RTVSPost2010Prop52
140
1.0
102
RTVSPost2010PropOp52
 70
     0
102
RTVSPost2010Prop53
 90
        2
102
RTVSPost2010PropOp53
 70
     1
102
RTVSPost2010Prop54
  1
strokes_ogs.tif
102
RTVSPost2010PropOp54
 70
     1
102
RTVSPost2010Prop55
280
     0
102
RTVSPost2010PropOp55
 70
     1
102
RTVSPost2010Prop56
140
1.0
102
RTVSPost2010PropOp56
 70
     1
102
RTVSPost2010Prop57
140
1.0
102
RTVSPost2010PropOp57
 70
     1
102
RTVSPropertyOp0
 70
     1
102
RTVSPropertyOp1
 70
     1
102
RTVSPropertyOp2
 70
     1
102
RTVSPropertyOp3
 70
     1
102
RTVSPropertyOp4
 70
     1
102
RTVSPropertyOp5
 70
     1
102
RTVSPropertyOp6
 70
     1
102
RTVSPropertyOp7
 70
     1
102
RTVSPropertyOp8
 70
     1
102
RTVSPropertyOp9
 70
     1
102
RTVSPropertyOp10
 70
     1
102
RTVSPropertyOp11
 70
     1
102
RTVSPropertyOp12
 70
     1
102
RTVSPropertyOp13
 70
     1
102
RTVSPropertyOp14
 70
     1
102
RTVSPropertyOp15
 70
     1
102
RTVSPropertyOp16
 70
     1
102
RTVSPropertyOp17
 70
     1
102
RTVSPropertyOp18
 70
     1
102
RTVSPropertyOp19
 70
     1
102
RTVSPropertyOp20
 70
     1
102
RTVSPropertyOp21
 70
     1
102
RTVSPropertyOp22
 70
     1
102
RTVSPropertyOp23
 70
     1
102
RTVSPropertyOp24
 70
     1
102
RTVSPropertyOp25
 70
     1
102
RTVSPropertyOp26
 70
     1
102
RTVSPropertyOp27
 70
     1
102
RTVSPropertyOp28
 70
     1
102
RTVSPropertyOp29
 70
     1
102
RTVSPropertyOp30
 70
     1
102
RTVSPropertyOp31
 70
     1
102
RTVSPropertyOp32
 70
     1
102
RTVSPropertyOp33
 70
     1
102
RTVSPropertyOp34
 70
     1
102
RTVSPropertyOp35
 70
     1
102
RTVSPropertyOp36
 70
     1
102
RTVSPropertyOp37
 70
     1
102
RTVSPropertyOp38
 70
     1
102
RTVSPropertyOp39
 70
     1
102
RTVSPropertyOp40
 70
     1
102
RTVSPropertyOp41
 70
     1
102
RTVSPropertyOp42
 70
     1
102
RTVSPropertyOp43
 70
     1
102
RTVSPropertyOp44
 70
     1
102
RTVSPropertyOp45
 70
     1
102
RTVSPropertyOp46
 70
     1
102
RTVSPropertyOp47
 70
     1
102
RTVSPropertyOp48
 70
     1
102
RTVSPropertyOp49
 70
     1
102
RTVSPropertyOp50
 70
     1
102
RTVSPropertyOp51
 70
     0
102
RTVSPropertyOp52
 70
     0
102
RTVSPropertyOp53
 70
     1
102
RTVSPropertyOp54
 70
     1
102
RTVSPropertyOp55
 70
     1
102
RTVSPropertyOp56
 70
     1
102
RTVSPropertyOp57
 70
     1
102
RTVSPropertyOp58
 70
     1
102
RTVSPropertyOp59
 70
     1
102
RTVSPropertyOp60
 70
     1
102
RTVSPropertyOp61
 70
     1
102
RTVSPropertyOp62
 70
     1
  0
XRECORD
  5
404
102
{ACAD_REACTORS
330
403
102
}
330
403
100
AcDbXrecord
280
     1
102
RTVSPost2010Prop28
280
     0
102
RTVSPost2010PropOp28
 70
     1
102
RTVSPost2010Prop29
280
     1
102
RTVSPost2010PropOp29
 70
     1
102
RTVSPost2010Prop30
280
     1
102
RTVSPost2010PropOp30
 70
     1
102
RTVSPost2010Prop31
280
     0
102
RTVSPost2010PropOp31
 70
     1
102
RTVSPost2010Prop32
280
     0
102
RTVSPost2010PropOp32
 70
     1
102
RTVSPost2010Prop33
280
     0
102
RTVSPost2010PropOp33
 70
     1
102
RTVSPost2010Prop34
280
     0
102
RTVSPost2010PropOp34
 70
     1
102
RTVSPost2010Prop35
280
     0
102
RTVSPost2010PropOp35
 70
     1
102
RTVSPost2010Prop36
280
     0
102
RTVSPost2010PropOp36
 70
     1
102
RTVSPost2010Prop37
 90
       50
102
RTVSPost2010PropOp37
 70
     1
102
RTVSPost2010Prop38
140
0.0
102
RTVSPost2010PropOp38
 70
     1
102
RTVSPost2010Prop39
140
1.0
102
RTVSPost2010PropOp39
 70
     1
102
RTVSPost2010Prop40
 90
        0
102
RTVSPost2010PropOp40
 70
     1
102
RTVSPost2010Prop41ColorIndex
 90
       18
102
RTVSPost2010Prop41ColorRGB
 90
        0
102
RTVSPost2010PropOp41
 70
     1
102
RTVSPost2010Prop42
 90
       50
102
RTVSPost2010PropOp42
 70
     1
102
RTVSPost2010Prop43
 90
        3
102
RTVSPost2010PropOp43
 70
     1
102
RTVSPost2010Prop44ColorIndex
 90
        5
102
RTVSPost2010Prop44ColorRGB
 90
      255
102
RTVSPost2010PropOp44
 70
     1
102
RTVSPost2010Prop45
280
     0
102
RTVSPost2010PropOp45
 70
     1
102
RTVSPost2010Prop46
 90
       50
102
RTVSPost2010PropOp46
 70
     1
102
RTVSPost2010Prop47
 90
       50
102
RTVSPost2010PropOp47
 70
     1
102
RTVSPost2010Prop48
 90
       50
102
RTVSPost2010PropOp48
 70
     1
102
RTVSPost2010Prop49
280
     0
102
RTVSPost2010PropOp49
 70
     1
102
RTVSPost2010Prop50
 90
       50
102
RTVSPost2010PropOp50
 70
     1
102
RTVSPost2010Prop51ColorIndex
 90
      256
102
RTVSPost2010Prop51ColorRGB
 90
-16777216
102
RTVSPost2010PropOp51
 70
     0
102
RTVSPost2010Prop52
140
1.0
102
RTVSPost2010PropOp52
 70
     0
102
RTVSPost2010Prop53
 90
        2
102
RTVSPost2010PropOp53
 70
     1
102
RTVSPost2010Prop54
  1
strokes_ogs.tif
102
RTVSPost2010PropOp54
 70
     1
102
RTVSPost2010Prop55
280
     0
102
RTVSPost2010PropOp55
 70
     1
102
RTVSPost2010Prop56
140
1.0
102
RTVSPost2010PropOp56
 70
     1
102
RTVSPost2010Prop57
140
1.0
102
RTVSPost2010PropOp57
 70
     1
102
RTVSPropertyOp0
 70
     1
102
RTVSPropertyOp1
 70
     1
102
RTVSPropertyOp2
 70
     1
102
RTVSPropertyOp3
 70
     1
102
RTVSPropertyOp4
 70
     1
102
RTVSPropertyOp5
 70
     1
102
RTVSPropertyOp6
 70
     1
102
RTVSPropertyOp7
 70
     1
102
RTVSPropertyOp8
 70
     1
102
RTVSPropertyOp9
 70
     1
102
RTVSPropertyOp10
 70
     1
102
RTVSPropertyOp11
 70
     1
102
RTVSPropertyOp12
 70
     1
102
RTVSPropertyOp13
 70
     1
102
RTVSPropertyOp14
 70
     1
102
RTVSPropertyOp15
 70
     1
102
RTVSPropertyOp16
 70
     1
102
RTVSPropertyOp17
 70
     1
102
RTVSPropertyOp18
 70
     1
102
RTVSPropertyOp19
 70
     1
102
RTVSPropertyOp20
 70
     1
102
RTVSPropertyOp21
 70
     1
102
RTVSPropertyOp22
 70
     1
102
RTVSPropertyOp23
 70
     1
102
RTVSPropertyOp24
 70
     1
102
RTVSPropertyOp25
 70
     1
102
RTVSPropertyOp26
 70
     1
102
RTVSPropertyOp27
 70
     1
102
RTVSPropertyOp28
 70
     1
102
RTVSPropertyOp29
 70
     1
102
RTVSPropertyOp30
 70
     1
102
RTVSPropertyOp31
 70
     1
102
RTVSPropertyOp32
 70
     1
102
RTVSPropertyOp33
 70
     1
102
RTVSPropertyOp34
 70
     1
102
RTVSPropertyOp35
 70
     1
102
RTVSPropertyOp36
 70
     1
102
RTVSPropertyOp37
 70
     1
102
RTVSPropertyOp38
 70
     1
102
RTVSPropertyOp39
 70
     1
102
RTVSPropertyOp40
 70
     1
102
RTVSPropertyOp41
 70
     1
102
RTVSPropertyOp42
 70
     1
102
RTVSPropertyOp43
 70
     1
102
RTVSPropertyOp44
 70
     1
102
RTVSPropertyOp45
 70
     1
102
RTVSPropertyOp46
 70
     1
102
RTVSPropertyOp47
 70
     1
102
RTVSPropertyOp48
 70
     1
102
RTVSPropertyOp49
 70
     1
102
RTVSPropertyOp50
 70
     1
102
RTVSPropertyOp51
 70
     0
102
RTVSPropertyOp52
 70
     0
102
RTVSPropertyOp53
 70
     1
102
RTVSPropertyOp54
 70
     1
102
RTVSPropertyOp55
 70
     1
102
RTVSPropertyOp56
 70
     1
102
RTVSPropertyOp57
 70
     1
102
RTVSPropertyOp58
 70
     1
102
RTVSPropertyOp59
 70
     1
102
RTVSPropertyOp60
 70
     1
102
RTVSPropertyOp61
 70
     1
102
RTVSPropertyOp62
 70
     1
  0
XRECORD
  5
3F8
102
{ACAD_REACTORS
330
3F7
102
}
330
3F7
100
AcDbXrecord
280
     1
102
RTVSPost2010Prop28
280
     0
102
RTVSPost2010PropOp28
 70
     1
102
RTVSPost2010Prop29
280
     1
102
RTVSPost2010PropOp29
 70
     1
102
RTVSPost2010Prop30
280
     1
102
RTVSPost2010PropOp30
 70
     1
102
RTVSPost2010Prop31
280
     0
102
RTVSPost2010PropOp31
 70
     1
102
RTVSPost2010Prop32
280
     0
102
RTVSPost2010PropOp32
 70
     1
102
RTVSPost2010Prop33
280
     0
102
RTVSPost2010PropOp33
 70
     1
102
RTVSPost2010Prop34
280
     0
102
RTVSPost2010PropOp34
 70
     1
102
RTVSPost2010Prop35
280
     0
102
RTVSPost2010PropOp35
 70
     1
102
RTVSPost2010Prop36
280
     0
102
RTVSPost2010PropOp36
 70
     1
102
RTVSPost2010Prop37
 90
       50
102
RTVSPost2010PropOp37
 70
     1
102
RTVSPost2010Prop38
140
0.0
102
RTVSPost2010PropOp38
 70
     1
102
RTVSPost2010Prop39
140
1.0
102
RTVSPost2010PropOp39
 70
     1
102
RTVSPost2010Prop40
 90
        0
102
RTVSPost2010PropOp40
 70
     1
102
RTVSPost2010Prop41ColorIndex
 90
       18
102
RTVSPost2010Prop41ColorRGB
 90
        0
102
RTVSPost2010PropOp41
 70
     1
102
RTVSPost2010Prop42
 90
       50
102
RTVSPost2010PropOp42
 70
     1
102
RTVSPost2010Prop43
 90
        3
102
RTVSPost2010PropOp43
 70
     1
102
RTVSPost2010Prop44ColorIndex
 90
        5
102
RTVSPost2010Prop44ColorRGB
 90
      255
102
RTVSPost2010PropOp44
 70
     1
102
RTVSPost2010Prop45
280
     0
102
RTVSPost2010PropOp45
 70
     1
102
RTVSPost2010Prop46
 90
       50
102
RTVSPost2010PropOp46
 70
     1
102
RTVSPost2010Prop47
 90
       50
102
RTVSPost2010PropOp47
 70
     1
102
RTVSPost2010Prop48
 90
       50
102
RTVSPost2010PropOp48
 70
     1
102
RTVSPost2010Prop49
280
     0
102
RTVSPost2010PropOp49
 70
     1
102
RTVSPost2010Prop50
 90
       50
102
RTVSPost2010PropOp50
 70
     1
102
RTVSPost2010Prop51ColorIndex
 90
      256
102
RTVSPost2010Prop51ColorRGB
 90
-16777216
102
RTVSPost2010PropOp51
 70
     0
102
RTVSPost2010Prop52
140
1.0
102
RTVSPost2010PropOp52
 70
     0
102
RTVSPost2010Prop53
 90
        2
102
RTVSPost2010PropOp53
 70
     1
102
RTVSPost2010Prop54
  1
strokes_ogs.tif
102
RTVSPost2010PropOp54
 70
     1
102
RTVSPost2010Prop55
280
     0
102
RTVSPost2010PropOp55
 70
     1
102
RTVSPost2010Prop56
140
1.0
102
RTVSPost2010PropOp56
 70
     1
102
RTVSPost2010Prop57
140
1.0
102
RTVSPost2010PropOp57
 70
     1
102
RTVSPropertyOp0
 70
     1
102
RTVSPropertyOp1
 70
     1
102
RTVSPropertyOp2
 70
     1
102
RTVSPropertyOp3
 70
     1
102
RTVSPropertyOp4
 70
     1
102
RTVSPropertyOp5
 70
     1
102
RTVSPropertyOp6
 70
     1
102
RTVSPropertyOp7
 70
     1
102
RTVSPropertyOp8
 70
     1
102
RTVSPropertyOp9
 70
     1
102
RTVSPropertyOp10
 70
     1
102
RTVSPropertyOp11
 70
     1
102
RTVSPropertyOp12
 70
     1
102
RTVSPropertyOp13
 70
     1
102
RTVSPropertyOp14
 70
     1
102
RTVSPropertyOp15
 70
     1
102
RTVSPropertyOp16
 70
     1
102
RTVSPropertyOp17
 70
     1
102
RTVSPropertyOp18
 70
     1
102
RTVSPropertyOp19
 70
     1
102
RTVSPropertyOp20
 70
     1
102
RTVSPropertyOp21
 70
     1
102
RTVSPropertyOp22
 70
     1
102
RTVSPropertyOp23
 70
     1
102
RTVSPropertyOp24
 70
     1
102
RTVSPropertyOp25
 70
     1
102
RTVSPropertyOp26
 70
     1
102
RTVSPropertyOp27
 70
     1
102
RTVSPropertyOp28
 70
     1
102
RTVSPropertyOp29
 70
     1
102
RTVSPropertyOp30
 70
     1
102
RTVSPropertyOp31
 70
     1
102
RTVSPropertyOp32
 70
     1
102
RTVSPropertyOp33
 70
     1
102
RTVSPropertyOp34
 70
     1
102
RTVSPropertyOp35
 70
     1
102
RTVSPropertyOp36
 70
     1
102
RTVSPropertyOp37
 70
     1
102
RTVSPropertyOp38
 70
     1
102
RTVSPropertyOp39
 70
     1
102
RTVSPropertyOp40
 70
     1
102
RTVSPropertyOp41
 70
     1
102
RTVSPropertyOp42
 70
     1
102
RTVSPropertyOp43
 70
     1
102
RTVSPropertyOp44
 70
     1
102
RTVSPropertyOp45
 70
     1
102
RTVSPropertyOp46
 70
     1
102
RTVSPropertyOp47
 70
     1
102
RTVSPropertyOp48
 70
     1
102
RTVSPropertyOp49
 70
     1
102
RTVSPropertyOp50
 70
     1
102
RTVSPropertyOp51
 70
     0
102
RTVSPropertyOp52
 70
     0
102
RTVSPropertyOp53
 70
     1
102
RTVSPropertyOp54
 70
     1
102
RTVSPropertyOp55
 70
     1
102
RTVSPropertyOp56
 70
     1
102
RTVSPropertyOp57
 70
     1
102
RTVSPropertyOp58
 70
     1
102
RTVSPropertyOp59
 70
     1
102
RTVSPropertyOp60
 70
     1
102
RTVSPropertyOp61
 70
     1
102
RTVSPropertyOp62
 70
     1
  0
XRECORD
  5
416
102
{ACAD_REACTORS
330
415
102
}
330
415
100
AcDbXrecord
280
     1
102
RTVSPost2010Prop28
280
     0
102
RTVSPost2010PropOp28
 70
     1
102
RTVSPost2010Prop29
280
     1
102
RTVSPost2010PropOp29
 70
     1
102
RTVSPost2010Prop30
280
     1
102
RTVSPost2010PropOp30
 70
     1
102
RTVSPost2010Prop31
280
     0
102
RTVSPost2010PropOp31
 70
     1
102
RTVSPost2010Prop32
280
     0
102
RTVSPost2010PropOp32
 70
     1
102
RTVSPost2010Prop33
280
     0
102
RTVSPost2010PropOp33
 70
     1
102
RTVSPost2010Prop34
280
     0
102
RTVSPost2010PropOp34
 70
     1
102
RTVSPost2010Prop35
280
     0
102
RTVSPost2010PropOp35
 70
     1
102
RTVSPost2010Prop36
280
     0
102
RTVSPost2010PropOp36
 70
     1
102
RTVSPost2010Prop37
 90
       50
102
RTVSPost2010PropOp37
 70
     1
102
RTVSPost2010Prop38
140
0.0
102
RTVSPost2010PropOp38
 70
     1
102
RTVSPost2010Prop39
140
1.0
102
RTVSPost2010PropOp39
 70
     1
102
RTVSPost2010Prop40
 90
        0
102
RTVSPost2010PropOp40
 70
     1
102
RTVSPost2010Prop41ColorIndex
 90
       18
102
RTVSPost2010Prop41ColorRGB
 90
        0
102
RTVSPost2010PropOp41
 70
     1
102
RTVSPost2010Prop42
 90
       50
102
RTVSPost2010PropOp42
 70
     1
102
RTVSPost2010Prop43
 90
        3
102
RTVSPost2010PropOp43
 70
     1
102
RTVSPost2010Prop44ColorIndex
 90
        5
102
RTVSPost2010Prop44ColorRGB
 90
      255
102
RTVSPost2010PropOp44
 70
     1
102
RTVSPost2010Prop45
280
     0
102
RTVSPost2010PropOp45
 70
     1
102
RTVSPost2010Prop46
 90
       50
102
RTVSPost2010PropOp46
 70
     1
102
RTVSPost2010Prop47
 90
       50
102
RTVSPost2010PropOp47
 70
     1
102
RTVSPost2010Prop48
 90
       50
102
RTVSPost2010PropOp48
 70
     1
102
RTVSPost2010Prop49
280
     0
102
RTVSPost2010PropOp49
 70
     1
102
RTVSPost2010Prop50
 90
       50
102
RTVSPost2010PropOp50
 70
     1
102
RTVSPost2010Prop51ColorIndex
 90
      256
102
RTVSPost2010Prop51ColorRGB
 90
-16777216
102
RTVSPost2010PropOp51
 70
     0
102
RTVSPost2010Prop52
140
1.0
102
RTVSPost2010PropOp52
 70
     0
102
RTVSPost2010Prop53
 90
        2
102
RTVSPost2010PropOp53
 70
     1
102
RTVSPost2010Prop54
  1
strokes_ogs.tif
102
RTVSPost2010PropOp54
 70
     1
102
RTVSPost2010Prop55
280
     0
102
RTVSPost2010PropOp55
 70
     1
102
RTVSPost2010Prop56
140
1.0
102
RTVSPost2010PropOp56
 70
     1
102
RTVSPost2010Prop57
140
1.0
102
RTVSPost2010PropOp57
 70
     1
102
RTVSPropertyOp0
 70
     1
102
RTVSPropertyOp1
 70
     1
102
RTVSPropertyOp2
 70
     1
102
RTVSPropertyOp3
 70
     1
102
RTVSPropertyOp4
 70
     1
102
RTVSPropertyOp5
 70
     1
102
RTVSPropertyOp6
 70
     1
102
RTVSPropertyOp7
 70
     1
102
RTVSPropertyOp8
 70
     1
102
RTVSPropertyOp9
 70
     1
102
RTVSPropertyOp10
 70
     1
102
RTVSPropertyOp11
 70
     1
102
RTVSPropertyOp12
 70
     1
102
RTVSPropertyOp13
 70
     1
102
RTVSPropertyOp14
 70
     1
102
RTVSPropertyOp15
 70
     1
102
RTVSPropertyOp16
 70
     1
102
RTVSPropertyOp17
 70
     1
102
RTVSPropertyOp18
 70
     1
102
RTVSPropertyOp19
 70
     1
102
RTVSPropertyOp20
 70
     1
102
RTVSPropertyOp21
 70
     1
102
RTVSPropertyOp22
 70
     1
102
RTVSPropertyOp23
 70
     1
102
RTVSPropertyOp24
 70
     1
102
RTVSPropertyOp25
 70
     1
102
RTVSPropertyOp26
 70
     1
102
RTVSPropertyOp27
 70
     1
102
RTVSPropertyOp28
 70
     1
102
RTVSPropertyOp29
 70
     1
102
RTVSPropertyOp30
 70
     1
102
RTVSPropertyOp31
 70
     1
102
RTVSPropertyOp32
 70
     1
102
RTVSPropertyOp33
 70
     1
102
RTVSPropertyOp34
 70
     1
102
RTVSPropertyOp35
 70
     1
102
RTVSPropertyOp36
 70
     1
102
RTVSPropertyOp37
 70
     1
102
RTVSPropertyOp38
 70
     1
102
RTVSPropertyOp39
 70
     1
102
RTVSPropertyOp40
 70
     1
102
RTVSPropertyOp41
 70
     1
102
RTVSPropertyOp42
 70
     1
102
RTVSPropertyOp43
 70
     1
102
RTVSPropertyOp44
 70
     1
102
RTVSPropertyOp45
 70
     1
102
RTVSPropertyOp46
 70
     1
102
RTVSPropertyOp47
 70
     1
102
RTVSPropertyOp48
 70
     1
102
RTVSPropertyOp49
 70
     1
102
RTVSPropertyOp50
 70
     1
102
RTVSPropertyOp51
 70
     0
102
RTVSPropertyOp52
 70
     0
102
RTVSPropertyOp53
 70
     1
102
RTVSPropertyOp54
 70
     1
102
RTVSPropertyOp55
 70
     1
102
RTVSPropertyOp56
 70
     1
102
RTVSPropertyOp57
 70
     1
102
RTVSPropertyOp58
 70
     1
102
RTVSPropertyOp59
 70
     1
102
RTVSPropertyOp60
 70
     1
102
RTVSPropertyOp61
 70
     1
102
RTVSPropertyOp62
 70
     1
  0
ENDSEC
  0
EOF
