  0
SECTION
  2
HEADER
  9
$ACADVER
  1
AC1021
  9
$ACADMAINTVER
 70
    50
  9
$DWGCODEPAGE
  3
ANSI_1252
  9
$LASTSAVEDBY
  1
Autodesk
  9
$INSBASE
 10
0.0
 20
0.0
 30
0.0
  9
$EXTMIN
 10
1.000000000000000E+20
 20
1.000000000000000E+20
 30
1.000000000000000E+20
  9
$EXTMAX
 10
-1.000000000000000E+20
 20
-1.000000000000000E+20
 30
-1.000000000000000E+20
  9
$LIMMIN
 10
0.0
 20
0.0
  9
$LIMMAX
 10
420.0
 20
297.0
  9
$ORTHOMODE
 70
     0
  9
$REGENMODE
 70
     1
  9
$FILLMODE
 70
     1
  9
$QTEXTMODE
 70
     0
  9
$MIRRTEXT
 70
     0
  9
$LTSCALE
 40
1.0
  9
$ATTMODE
 70
     1
  9
$TEXTSIZE
 40
2.5
  9
$TRACEWID
 40
1.0
  9
$TEXTSTYLE
  7
Standard
  9
$CLAYER
  8
0
  9
$CELTYPE
  6
ByLayer
  9
$CECOLOR
 62
   256
  9
$CELTSCALE
 40
1.0
  9
$DISPSILH
 70
     0
  9
$DIMSCALE
 40
1.0
  9
$DIMASZ
 40
2.5
  9
$DIMEXO
 40
0.625
  9
$DIMDLI
 40
3.75
  9
$DIMRND
 40
0.0
  9
$DIMDLE
 40
0.0
  9
$DIMEXE
 40
1.25
  9
$DIMTP
 40
0.0
  9
$DIMTM
 40
0.0
  9
$DIMTXT
 40
2.5
  9
$DIMCEN
 40
2.5
  9
$DIMTSZ
 40
0.0
  9
$DIMTOL
 70
     0
  9
$DIMLIM
 70
     0
  9
$DIMTIH
 70
     0
  9
$DIMTOH
 70
     0
  9
$DIMSE1
 70
     0
  9
$DIMSE2
 70
     0
  9
$DIMTAD
 70
     1
  9
$DIMZIN
 70
     8
  9
$DIMBLK
  1

  9
$DIMASO
 70
     1
  9
$DIMSHO
 70
     1
  9
$DIMPOST
  1

  9
$DIMAPOST
  1

  9
$DIMALT
 70
     0
  9
$DIMALTD
 70
     3
  9
$DIMALTF
 40
0.03937007874016
  9
$DIMLFAC
 40
1.0
  9
$DIMTOFL
 70
     1
  9
$DIMTVP
 40
0.0
  9
$DIMTIX
 70
     0
  9
$DIMSOXD
 70
     0
  9
$DIMSAH
 70
     0
  9
$DIMBLK1
  1

  9
$DIMBLK2
  1

  9
$DIMSTYLE
  2
ISO-25
  9
$DIMCLRD
 70
     0
  9
$DIMCLRE
 70
     0
  9
$DIMCLRT
 70
     0
  9
$DIMTFAC
 40
1.0
  9
$DIMGAP
 40
0.625
  9
$DIMJUST
 70
     0
  9
$DIMSD1
 70
     0
  9
$DIMSD2
 70
     0
  9
$DIMTOLJ
 70
     0
  9
$DIMTZIN
 70
     8
  9
$DIMALTZ
 70
     0
  9
$DIMALTTZ
 70
     0
  9
$DIMUPT
 70
     0
  9
$DIMDEC
 70
     2
  9
$DIMTDEC
 70
     2
  9
$DIMALTU
 70
     2
  9
$DIMALTTD
 70
     3
  9
$DIMTXSTY
  7
Standard
  9
$DIMAUNIT
 70
     0
  9
$DIMADEC
 70
     0
  9
$DIMALTRND
 40
0.0
  9
$DIMAZIN
 70
     0
  9
$DIMDSEP
 70
    44
  9
$DIMATFIT
 70
     3
  9
$DIMFRAC
 70
     0
  9
$DIMLDRBLK
  1

  9
$DIMLUNIT
 70
     2
  9
$DIMLWD
 70
    -2
  9
$DIMLWE
 70
    -2
  9
$DIMTMOVE
 70
     0
  9
$DIMFXL
 40
1.0
  9
$DIMFXLON
 70
     0
  9
$DIMJOGANG
 40
0.7853981633974483
  9
$DIMTFILL
 70
     0
  9
$DIMTFILLCLR
 70
     0
  9
$DIMARCSYM
 70
     0
  9
$DIMLTYPE
  6

  9
$DIMLTEX1
  6

  9
$DIMLTEX2
  6

  9
$LUNITS
 70
     2
  9
$LUPREC
 70
     4
  9
$SKETCHINC
 40
1.0
  9
$FILLETRAD
 40
0.0
  9
$AUNITS
 70
     0
  9
$AUPREC
 70
     0
  9
$MENU
  1
.
  9
$ELEVATION
 40
0.0
  9
$PELEVATION
 40
0.0
  9
$THICKNESS
 40
0.0
  9
$LIMCHECK
 70
     0
  9
$CHAMFERA
 40
0.0
  9
$CHAMFERB
 40
0.0
  9
$CHAMFERC
 40
0.0
  9
$CHAMFERD
 40
0.0
  9
$SKPOLY
 70
     0
  9
$TDCREATE
 40
2456309.149747176
  9
$TDUCREATE
 40
2456309.483080509
  9
$TDUPDATE
 40
2456667.078514884
  9
$TDUUPDATE
 40
2456667.411848218
  9
$TDINDWG
 40
0.0000180671
  9
$TDUSRTIMER
 40
0.0000178819
  9
$USRTIMER
 70
     1
  9
$ANGBASE
 50
0.0
  9
$ANGDIR
 70
     0
  9
$PDMODE
 70
     0
  9
$PDSIZE
 40
0.0
  9
$PLINEWID
 40
0.0
  9
$SPLFRAME
 70
     0
  9
$SPLINETYPE
 70
     6
  9
$SPLINESEGS
 70
     8
  9
$HANDSEED
  5
298
  9
$SURFTAB1
 70
     6
  9
$SURFTAB2
 70
     6
  9
$SURFTYPE
 70
     6
  9
$SURFU
 70
     6
  9
$SURFV
 70
     6
  9
$UCSBASE
  2

  9
$UCSNAME
  2

  9
$UCSORG
 10
0.0
 20
0.0
 30
0.0
  9
$UCSXDIR
 10
1.0
 20
0.0
 30
0.0
  9
$UCSYDIR
 10
0.0
 20
1.0
 30
0.0
  9
$UCSORTHOREF
  2

  9
$UCSORTHOVIEW
 70
     0
  9
$UCSORGTOP
 10
0.0
 20
0.0
 30
0.0
  9
$UCSORGBOTTOM
 10
0.0
 20
0.0
 30
0.0
  9
$UCSORGLEFT
 10
0.0
 20
0.0
 30
0.0
  9
$UCSORGRIGHT
 10
0.0
 20
0.0
 30
0.0
  9
$UCSORGFRONT
 10
0.0
 20
0.0
 30
0.0
  9
$UCSORGBACK
 10
0.0
 20
0.0
 30
0.0
  9
$PUCSBASE
  2

  9
$PUCSNAME
  2

  9
$PUCSORG
 10
0.0
 20
0.0
 30
0.0
  9
$PUCSXDIR
 10
1.0
 20
0.0
 30
0.0
  9
$PUCSYDIR
 10
0.0
 20
1.0
 30
0.0
  9
$PUCSORTHOREF
  2

  9
$PUCSORTHOVIEW
 70
     0
  9
$PUCSORGTOP
 10
0.0
 20
0.0
 30
0.0
  9
$PUCSORGBOTTOM
 10
0.0
 20
0.0
 30
0.0
  9
$PUCSORGLEFT
 10
0.0
 20
0.0
 30
0.0
  9
$PUCSORGRIGHT
 10
0.0
 20
0.0
 30
0.0
  9
$PUCSORGFRONT
 10
0.0
 20
0.0
 30
0.0
  9
$PUCSORGBACK
 10
0.0
 20
0.0
 30
0.0
  9
$USERI1
 70
     0
  9
$USERI2
 70
     0
  9
$USERI3
 70
     0
  9
$USERI4
 70
     0
  9
$USERI5
 70
     0
  9
$USERR1
 40
0.0
  9
$USERR2
 40
0.0
  9
$USERR3
 40
0.0
  9
$USERR4
 40
0.0
  9
$USERR5
 40
0.0
  9
$WORLDVIEW
 70
     1
  9
$SHADEDGE
 70
     3
  9
$SHADEDIF
 70
    70
  9
$TILEMODE
 70
     1
  9
$MAXACTVP
 70
    64
  9
$PINSBASE
 10
0.0
 20
0.0
 30
0.0
  9
$PLIMCHECK
 70
     0
  9
$PEXTMIN
 10
0.0
 20
0.0
 30
0.0
  9
$PEXTMAX
 10
0.0
 20
0.0
 30
0.0
  9
$PLIMMIN
 10
0.0
 20
0.0
  9
$PLIMMAX
 10
12.0
 20
9.0
  9
$UNITMODE
 70
     0
  9
$VISRETAIN
 70
     1
  9
$PLINEGEN
 70
     0
  9
$PSLTSCALE
 70
     1
  9
$TREEDEPTH
 70
  3020
  9
$CMLSTYLE
  2
Standard
  9
$CMLJUST
 70
     0
  9
$CMLSCALE
 40
20.0
  9
$PROXYGRAPHICS
 70
     1
  9
$MEASUREMENT
 70
     1
  9
$CELWEIGHT
370
    -1
  9
$ENDCAPS
280
     0
  9
$JOINSTYLE
280
     0
  9
$LWDISPLAY
290
     0
  9
$INSUNITS
 70
     4
  9
$HYPERLINKBASE
  1

  9
$STYLESHEET
  1

  9
$XEDIT
290
     1
  9
$CEPSNTYPE
380
     0
  9
$PSTYLEMODE
290
     1
  9
$FINGERPRINTGUID
  2
{D36A17C0-B4E2-4527-8874-81943F1C34AC}
  9
$VERSIONGUID
  2
{265A5473-D45D-4B1C-ABB7-7FF2E3BD06BB}
  9
$EXTNAMES
290
     1
  9
$PSVPSCALE
 40
0.0
  9
$OLESTARTUP
290
     0
  9
$SORTENTS
280
   127
  9
$INDEXCTL
280
     0
  9
$HIDETEXT
280
     1
  9
$XCLIPFRAME
290
     0
  9
$HALOGAP
280
     0
  9
$OBSCOLOR
 70
   257
  9
$OBSLTYPE
280
     0
  9
$INTERSECTIONDISPLAY
280
     0
  9
$INTERSECTIONCOLOR
 70
   257
  9
$DIMASSOC
280
     2
  9
$PROJECTNAME
  1

  9
$CAMERADISPLAY
290
     0
  9
$LENSLENGTH
 40
50.0
  9
$CAMERAHEIGHT
 40
0.0
  9
$STEPSPERSEC
 40
2.0
  9
$STEPSIZE
 40
6.0
  9
$3DDWFPREC
 40
2.0
  9
$PSOLWIDTH
 40
5.0
  9
$PSOLHEIGHT
 40
80.0
  9
$LOFTANG1
 40
1.570796326794896
  9
$LOFTANG2
 40
1.570796326794896
  9
$LOFTMAG1
 40
0.0
  9
$LOFTMAG2
 40
0.0
  9
$LOFTPARAM
 70
     7
  9
$LOFTNORMALS
280
     1
  9
$LATITUDE
 40
37.795
  9
$LONGITUDE
 40
-122.394
  9
$NORTHDIRECTION
 40
0.0
  9
$TIMEZONE
 70
 -8000
  9
$LIGHTGLYPHDISPLAY
280
     1
  9
$TILEMODELIGHTSYNCH
280
     1
  9
$CMATERIAL
347
EC
  9
$SOLIDHIST
280
     0
  9
$SHOWHIST
280
     1
  9
$DWFFRAME
280
     2
  9
$DGNFRAME
280
     0
  9
$REALWORLDSCALE
290
     1
  9
$INTERFERECOLOR
 62
     1
  9
$INTERFEREOBJVS
345
F9
  9
$INTERFEREVPVS
346
F6
  9
$CSHADOW
280
     0
  9
$SHADOWPLANELOCATION
 40
0.0
  0
ENDSEC
  0
SECTION
  2
CLASSES
  0
CLASS
  1
ACDBDICTIONARYWDFLT
  2
AcDbDictionaryWithDefault
  3
ObjectDBX Classes
 90
        0
 91
        1
280
     0
281
     0
  0
CLASS
  1
ACDBPLACEHOLDER
  2
AcDbPlaceHolder
  3
ObjectDBX Classes
 90
        0
 91
        1
280
     0
281
     0
  0
CLASS
  1
LAYOUT
  2
AcDbLayout
  3
ObjectDBX Classes
 90
        0
 91
        3
280
     0
281
     0
  0
CLASS
  1
DICTIONARYVAR
  2
AcDbDictionaryVar
  3
ObjectDBX Classes
 90
        0
 91
       10
280
     0
281
     0
  0
CLASS
  1
TABLESTYLE
  2
AcDbTableStyle
  3
ObjectDBX Classes
 90
     4095
 91
        1
280
     0
281
     0
  0
CLASS
  1
MATERIAL
  2
AcDbMaterial
  3
ObjectDBX Classes
 90
     1153
 91
        3
280
     0
281
     0
  0
CLASS
  1
VISUALSTYLE
  2
AcDbVisualStyle
  3
ObjectDBX Classes
 90
     4095
 91
       24
280
     0
281
     0
  0
CLASS
  1
SCALE
  2
AcDbScale
  3
ObjectDBX Classes
 90
     1153
 91
       17
280
     0
281
     0
  0
CLASS
  1
MLEADERSTYLE
  2
AcDbMLeaderStyle
  3
ACDB_MLEADERSTYLE_CLASS
 90
     4095
 91
        2
280
     0
281
     0
  0
CLASS
  1
CELLSTYLEMAP
  2
AcDbCellStyleMap
  3
ObjectDBX Classes
 90
     1152
 91
        1
280
     0
281
     0
  0
CLASS
  1
EXACXREFPANELOBJECT
  2
ExAcXREFPanelObject
  3
EXAC_ESW
 90
     1025
 91
        0
280
     0
281
     0
  0
CLASS
  1
NPOCOLLECTION
  2
AcDbImpNonPersistentObjectsCollection
  3
ObjectDBX Classes
 90
     1153
 91
        0
280
     0
281
     0
  0
CLASS
  1
LAYER_INDEX
  2
AcDbLayerIndex
  3
ObjectDBX Classes
 90
        0
 91
        0
280
     0
281
     0
  0
CLASS
  1
SPATIAL_INDEX
  2
AcDbSpatialIndex
  3
ObjectDBX Classes
 90
        0
 91
        0
280
     0
281
     0
  0
CLASS
  1
IDBUFFER
  2
AcDbIdBuffer
  3
ObjectDBX Classes
 90
        0
 91
        0
280
     0
281
     0
  0
CLASS
  1
ACDBSECTIONVIEWSTYLE
  2
AcDbSectionViewStyle
  3
ObjectDBX Classes
 90
     1025
 91
        1
280
     0
281
     0
  0
CLASS
  1
ACDBDETAILVIEWSTYLE
  2
AcDbDetailViewStyle
  3
ObjectDBX Classes
 90
     1025
 91
        1
280
     0
281
     0
  0
ENDSEC
  0
SECTION
  2
TABLES
  0
TABLE
  2
VPORT
  5
8
330
0
100
AcDbSymbolTable
 70
     1
  0
VPORT
  5
EA
330
8
100
AcDbSymbolTableRecord
100
AcDbViewportTableRecord
  2
*Active
 70
     0
 10
0.0
 20
0.0
 11
1.0
 21
1.0
 12
2630.048781668382
 22
1440.684066268786
 13
0.0
 23
0.0
 14
10.0
 24
10.0
 15
10.0
 25
10.0
 16
0.0
 26
0.0
 36
1.0
 17
0.0
 27
0.0
 37
0.0
 40
2653.730076586097
 41
1.765478424015009
 42
50.0
 43
0.0
 44
0.0
 50
0.0
 51
0.0
 71
     0
 72
  1000
 73
     1
 74
     3
 75
     0
 76
     1
 77
     0
 78
     0
281
     0
 65
     1
110
0.0
120
0.0
130
0.0
111
1.0
121
0.0
131
0.0
112
0.0
122
1.0
132
0.0
 79
     0
146
0.0
348
F5
 60
     3
 61
     5
292
     1
282
     1
141
0.0
142
0.0
 63
   250
421
  3355443
1001
ACAD_NAV_VCDISPLAY
1070
     3
  0
ENDTAB
  0
TABLE
  2
LTYPE
  5
5
330
0
100
AcDbSymbolTable
 70
     1
  0
LTYPE
  5
14
330
5
100
AcDbSymbolTableRecord
100
AcDbLinetypeTableRecord
  2
ByBlock
 70
     0
  3

 72
    65
 73
     0
 40
0.0
  0
LTYPE
  5
15
330
5
100
AcDbSymbolTableRecord
100
AcDbLinetypeTableRecord
  2
ByLayer
 70
     0
  3

 72
    65
 73
     0
 40
0.0
  0
LTYPE
  5
16
330
5
100
AcDbSymbolTableRecord
100
AcDbLinetypeTableRecord
  2
Continuous
 70
     0
  3
Solid line
 72
    65
 73
     0
 40
0.0
  0
ENDTAB
  0
TABLE
  2
LAYER
  5
2
102
{ACAD_XDICTIONARY
360
1FF
102
}
330
0
100
AcDbSymbolTable
 70
     2
  0
LAYER
  5
10
102
{ACAD_XDICTIONARY
360
13C
102
}
330
2
100
AcDbSymbolTableRecord
100
AcDbLayerTableRecord
  2
0
 70
     0
 62
     7
  6
Continuous
370
    -3
390
F
347
EE
  0
LAYER
  5
249
330
2
100
AcDbSymbolTableRecord
100
AcDbLayerTableRecord
  2
Vector Layer 1
 70
     0
 62
     7
  6
Continuous
370
    30
390
F
347
EE
  0
ENDTAB
  0
TABLE
  2
STYLE
  5
3
330
0
100
AcDbSymbolTable
 70
     2
  0
STYLE
  5
11
330
3
100
AcDbSymbolTableRecord
100
AcDbTextStyleTableRecord
  2
Standard
 70
     0
 40
0.0
 41
1.0
 50
0.0
 71
     0
 42
2.5
  3
arial.ttf
  4

1001
ACAD
1000
Arial
1071
       34
  0
STYLE
  5
132
330
3
100
AcDbSymbolTableRecord
100
AcDbTextStyleTableRecord
  2
Annotative
 70
     0
 40
0.0
 41
1.0
 50
0.0
 71
     0
 42
2.5
  3
arial.ttf
  4

1001
AcadAnnotative
1000
AnnotativeData
1002
{
1070
     1
1070
     1
1002
}
1001
ACAD
1000
Arial
1071
       34
  0
ENDTAB
  0
TABLE
  2
VIEW
  5
6
330
0
100
AcDbSymbolTable
 70
     0
  0
ENDTAB
  0
TABLE
  2
UCS
  5
7
330
0
100
AcDbSymbolTable
 70
     0
  0
ENDTAB
  0
TABLE
  2
APPID
  5
9
330
0
100
AcDbSymbolTable
 70
     8
  0
APPID
  5
12
330
9
100
AcDbSymbolTableRecord
100
AcDbRegAppTableRecord
  2
ACAD
 70
     0
  0
APPID
  5
9E
330
9
100
AcDbSymbolTableRecord
100
AcDbRegAppTableRecord
  2
ACAD_PSEXT
 70
     0
  0
APPID
  5
133
330
9
100
AcDbSymbolTableRecord
100
AcDbRegAppTableRecord
  2
AcadAnnoPO
 70
     0
  0
APPID
  5
134
330
9
100
AcDbSymbolTableRecord
100
AcDbRegAppTableRecord
  2
AcadAnnotative
 70
     0
  0
APPID
  5
135
330
9
100
AcDbSymbolTableRecord
100
AcDbRegAppTableRecord
  2
ACAD_DSTYLE_DIMJAG
 70
     0
  0
APPID
  5
136
330
9
100
AcDbSymbolTableRecord
100
AcDbRegAppTableRecord
  2
ACAD_DSTYLE_DIMTALN
 70
     0
  0
APPID
  5
165
330
9
100
AcDbSymbolTableRecord
100
AcDbRegAppTableRecord
  2
ACAD_MLEADERVER
 70
     0
  0
APPID
  5
217
330
9
100
AcDbSymbolTableRecord
100
AcDbRegAppTableRecord
  2
ACAD_NAV_VCDISPLAY
 70
     0
  0
ENDTAB
  0
TABLE
  2
DIMSTYLE
  5
A
330
0
100
AcDbSymbolTable
 70
     3
100
AcDbDimStyleTable
 71
     2
340
27
340
137
  0
DIMSTYLE
105
1B0
330
A
100
AcDbSymbolTableRecord
100
AcDbDimStyleTableRecord
  2
Standard
 70
     0
340
11
  0
DIMSTYLE
105
137
330
A
100
AcDbSymbolTableRecord
100
AcDbDimStyleTableRecord
  2
Annotative
 70
     0
 40
0.0
 41
2.5
 42
0.625
 43
3.75
 44
1.25
 73
     0
 74
     0
 77
     1
 78
     8
140
2.5
141
2.5
143
0.03937007874016
147
0.625
171
     3
172
     1
271
     2
272
     2
274
     3
278
    44
283
     0
284
     8
340
11
1001
AcadAnnotative
1000
AnnotativeData
1002
{
1070
     1
1070
     1
1002
}
1001
ACAD_DSTYLE_DIMJAG
1070
   388
1040
1.5
1001
ACAD_DSTYLE_DIMTALN
1070
   392
1070
     0
  0
DIMSTYLE
105
27
330
A
100
AcDbSymbolTableRecord
100
AcDbDimStyleTableRecord
  2
ISO-25
 70
     0
 41
2.5
 42
0.625
 43
3.75
 44
1.25
 73
     0
 74
     0
 77
     1
 78
     8
140
2.5
141
2.5
143
0.03937007874016
147
0.625
171
     3
172
     1
271
     2
272
     2
274
     3
278
    44
283
     0
284
     8
340
11
  0
ENDTAB
  0
TABLE
  2
BLOCK_RECORD
  5
1
330
0
100
AcDbSymbolTable
 70
     1
  0
BLOCK_RECORD
  5
1F
102
{ACAD_XDICTIONARY
360
1CE
102
}
330
1
100
AcDbSymbolTableRecord
100
AcDbBlockTableRecord
  2
*Model_Space
340
22
 70
     0
280
     1
281
     0
  0
BLOCK_RECORD
  5
D2
330
1
100
AcDbSymbolTableRecord
100
AcDbBlockTableRecord
  2
*Paper_Space
340
D3
 70
     0
280
     1
281
     0
  0
BLOCK_RECORD
  5
D6
330
1
100
AcDbSymbolTableRecord
100
AcDbBlockTableRecord
  2
*Paper_Space0
340
D7
 70
     0
280
     1
281
     0
  0
ENDTAB
  0
ENDSEC
  0
SECTION
  2
BLOCKS
  0
BLOCK
  5
20
330
1F
100
AcDbEntity
  8
0
100
AcDbBlockBegin
  2
*Model_Space
 70
     0
 10
0.0
 20
0.0
 30
0.0
  3
*Model_Space
  1

  0
ENDBLK
  5
21
330
1F
100
AcDbEntity
  8
0
100
AcDbBlockEnd
  0
BLOCK
  5
D4
330
D2
100
AcDbEntity
 67
     1
  8
0
100
AcDbBlockBegin
  2
*Paper_Space
 70
     0
 10
0.0
 20
0.0
 30
0.0
  3
*Paper_Space
  1

  0
ENDBLK
  5
D5
330
D2
100
AcDbEntity
 67
     1
  8
0
100
AcDbBlockEnd
  0
BLOCK
  5
D8
330
D6
100
AcDbEntity
 67
     1
  8
0
100
AcDbBlockBegin
  2
*Paper_Space0
 70
     0
 10
0.0
 20
0.0
 30
0.0
  3
*Paper_Space0
  1

  0
ENDBLK
  5
D9
330
D6
100
AcDbEntity
 67
     1
  8
0
100
AcDbBlockEnd
  0
ENDSEC
  0
SECTION
  2
ENTITIES
  0
LWPOLYLINE
  5
24A
330
1F
100
AcDbEntity
  8
Vector Layer 1
 62
    18
420
        0
370
    30
100
AcDbPolyline
 90
        8
 70
     0
 43
0.0
 10
63.74174541539858
 20
20.99201196361055
 10
63.74174541539858
 20
36.44712348581258
 10
63.74174541539858
 20
36.44712348581258
 10
-22.23770082021222
 20
36.44712348581258
 10
-22.23770082021222
 20
36.44712348581258
 10
-22.23770082021222
 20
20.99201196361054
 10
-22.23770082021222
 20
20.99201196361054
 10
63.74174541539858
 20
20.99201196361055
210
0.0
220
0.0
230
-1.0
  0
LINE
  5
24B
330
1F
100
AcDbEntity
  8
Vector Layer 1
 62
    18
420
        0
370
    30
100
AcDbLine
 10
-63.74174541539858
 20
34.08269895703963
 30
0.0
 11
22.23770082021221
 21
34.08269895703963
 31
0.0
  0
LWPOLYLINE
  5
24C
330
1F
100
AcDbEntity
  8
Vector Layer 1
 62
    18
420
        0
370
    30
100
AcDbPolyline
 90
      349
 70
     0
 43
0.0
 10
-39.97371171045369
 20
34.08269895703963
 10
-36.90781002622982
 20
32.18689923759419
 10
-36.90781002622983
 20
32.18689923759419
 10
-36.82094835875329
 20
32.13310307297426
 10
-36.73426104206173
 20
32.07897749679779
 10
-36.64774015111947
 20
32.02453748231734
 10
-36.56137776089082
 20
31.96979800278548
 10
-36.47516594634009
 20
31.9147740314548
 10
-36.38909678243162
 20
31.85948054157784
 10
-36.30316234412973
 20
31.8039325064072
 10
-36.21735470639872
 20
31.74814489919543
 10
-36.13166594420292
 20
31.69213269319511
 10
-36.04608813250665
 20
31.6359108616588
 10
-35.96061334627422
 20
31.57949437783909
 10
-35.87523366046997
 20
31.52289821498853
 10
-35.7899411500582
 20
31.46613734635969
 10
-35.70472789000323
 20
31.40922674520516
 10
-35.6195859552694
 20
31.35218138477748
 10
-35.53450742082101
 20
31.29501623832926
 10
-35.44948436162238
 20
31.23774627911303
 10
-35.36450885263784
 20
31.18038648038139
 10
-35.2795729688317
 20
31.1229518153869
 10
-35.19466878516829
 20
31.06545725738213
 10
-35.10978837661191
 20
31.00791777961964
 10
-35.0249238181269
 20
30.95034835535201
 10
-34.94006718467756
 20
30.89276395783182
 10
-34.85521055122823
 20
30.83517956031162
 10
-34.77034599274321
 20
30.777610136044
 10
-34.68546558418684
 20
30.72007065828151
 10
-34.60056140052342
 20
30.66257610027674
 10
-34.51562551671728
 20
30.60514143528225
 10
-34.43065000773274
 20
30.5477816365506
 10
-34.34562694853411
 20
30.49051167733438
 10
-34.26054841408572
 20
30.43334653088615
 10
-34.17540647935189
 20
30.37630117045849
 10
-34.09019321929692
 20
30.31939056930395
 10
-34.00490070888515
 20
30.26262970067512
 10
-33.9195210230809
 20
30.20603353782455
 10
-33.83404623684847
 20
30.14961705400484
 10
-33.7484684251522
 20
30.09339522246853
 10
-33.66277966295641
 20
30.03738301646821
 10
-33.5769720252254
 20
29.98159540925644
 10
-33.4910375869235
 20
29.9260473740858
 10
-33.40496842301503
 20
29.87075388420884
 10
-33.31875660846431
 20
29.81572991287816
 10
-33.23239421823565
 20
29.7609904333463
 10
-33.14587332729339
 20
29.70655041886585
 10
-33.05918601060183
 20
29.65242484268938
 10
-32.9723243431253
 20
29.59862867806945
 10
-32.88528039982811
 20
29.54517689825864
 10
-32.79804625567459
 20
29.49208447650951
 10
-32.71061398562905
 20
29.43936638607464
 10
-32.62297566465581
 20
29.38703760020659
 10
-32.5351233677192
 20
29.33511309215794
 10
-32.44704916978353
 20
29.28360783518126
 10
-32.35874514581313
 20
29.23253680252911
 10
-32.2702033707723
 20
29.18191496745407
 10
-32.18141591962537
 20
29.13175730320871
 10
-32.09237486733667
 20
29.08207878304559
 10
-32.0030722888705
 20
29.03289438021729
 10
-31.91350025919119
 20
28.98421906797638
 10
-31.82365085326307
 20
28.93606781957543
 10
-31.73351614605044
 20
28.888455608267
 10
-31.64308821251762
 20
28.84139740730367
 10
-31.55235912762894
 20
28.79490818993802
 10
-31.46132096634872
 20
28.7490029294226
 10
-31.36996580364127
 20
28.70369659900999
 10
-31.27828571447091
 20
28.65900417195275
 10
-31.18627277380197
 20
28.61494062150347
 10
-31.09391905659877
 20
28.57152092091471
 10
-31.00121663782561
 20
28.52876004343904
 10
-30.90815759244683
 20
28.48667296232903
 10
-30.90815759244689
 20
28.48667296232904
 10
-30.82971925704645
 20
28.45197725308724
 10
-30.75101314691842
 20
28.41799205063935
 10
-30.6720464618831
 20
28.38469862105908
 10
-30.59282640176074
 20
28.35207823042019
 10
-30.51336016637163
 20
28.3201121447964
 10
-30.43365495553603
 20
28.28878163026145
 10
-30.35371796907423
 20
28.25806795288909
 10
-30.27355640680648
 20
28.22795237875304
 10
-30.19317746855307
 20
28.19841617392704
 10
-30.11258835413427
 20
28.16944060448484
 10
-30.03179626337035
 20
28.14100693650016
 10
-29.95080839608158
 20
28.11309643604674
 10
-29.86963195208824
 20
28.08569036919833
 10
-29.78827413121059
 20
28.05877000202865
 10
-29.70674213326891
 20
28.03231660061145
 10
-29.62504315808349
 20
28.00631143102046
 10
-29.54318440547457
 20
27.98073575932942
 10
-29.46117307526245
 20
27.95557085161206
 10
-29.37901636726739
 20
27.93079797394212
 10
-29.29672148130967
 20
27.90639839239335
 10
-29.21429561720954
 20
27.88235337303947
 10
-29.13174597478731
 20
27.85864418195422
 10
-29.04907975386322
 20
27.83525208521134
 10
-28.96630415425756
 20
27.81215834888457
 10
-28.88342637579061
 20
27.78934423904764
 10
-28.80045361828262
 20
27.76679102177429
 10
-28.71739308155387
 20
27.74447996313826
 10
-28.63425196542465
 20
27.72239232921329
 10
-28.55103746971521
 20
27.7005093860731
 10
-28.46775679424583
 20
27.67881239979144
 10
-28.3844171388368
 20
27.65728263644204
 10
-28.30102570330837
 20
27.63590136209865
 10
-28.21758968748082
 20
27.614649842835
 10
-28.13411629117442
 20
27.59350934472482
 10
-28.05061271420946
 20
27.57246113384185
 10
-27.96708615640618
 20
27.55148647625983
 10
-27.88354381758489
 20
27.5305666380525
 10
-27.79999289756583
 20
27.50968288529358
 10
-27.7164405961693
 20
27.48881648405683
 10
-27.63289411321555
 20
27.46794870041597
 10
-27.54936064852487
 20
27.44706080044475
 10
-27.46584740191753
 20
27.4261340502169
 10
-27.38236157321379
 20
27.40514971580616
 10
-27.29891036223393
 20
27.38408906328626
 10
-27.21550096879823
 20
27.36293335873094
 10
-27.13214059272696
 20
27.34166386821394
 10
-27.04883643384039
 20
27.32026185780899
 10
-26.96559569195879
 20
27.29870859358983
 10
-26.88242556690243
 20
27.2769853416302
 10
-26.79933325849159
 20
27.25507336800384
 10
-26.71632596654654
 20
27.23295393878448
 10
-26.63341089088755
 20
27.21060832004586
 10
-26.55059523133491
 20
27.18801777786171
 10
-26.46788618770887
 20
27.16516357830577
 10
-26.46788618770886
 20
27.16516357830577
 10
-26.39029188913225
 20
27.14383491621973
 10
-26.31256510960127
 20
27.12295856260123
 10
-26.2347155144218
 20
27.102502042446
 10
-26.1567527688997
 20
27.08243288074975
 10
-26.07868653834085
 20
27.06271860250819
 10
-26.00052648805113
 20
27.04332673271703
 10
-25.9222822833364
 20
27.024224796372
 10
-25.84396358950254
 20
27.0053803184688
 10
-25.76558007185542
 20
26.98676082400315
 10
-25.68714139570091
 20
26.96833383797077
 10
-25.60865722634489
 20
26.95006688536737
 10
-25.53013722909322
 20
26.93192749118866
 10
-25.45159106925178
 20
26.91388318043037
 10
-25.37302841212644
 20
26.8959014780882
 10
-25.29445892302308
 20
26.87794990915787
 10
-25.21589226724756
 20
26.8599959986351
 10
-25.13733811010576
 20
26.8420072715156
 10
-25.05880611690356
 20
26.82395125279508
 10
-24.98030595294681
 20
26.80579546746926
 10
-24.9018472835414
 20
26.78750744053385
 10
-24.82343977399319
 20
26.76905469698458
 10
-24.74509308960807
 20
26.75040476181715
 10
-24.6668168956919
 20
26.73152516002728
 10
-24.58862085755056
 20
26.71238341661068
 10
-24.51051464048991
 20
26.69294705656306
 10
-24.43250790981583
 20
26.67318360488016
 10
-24.35461033083419
 20
26.65306058655767
 10
-24.27683156885087
 20
26.63254552659131
 10
-24.19918128917173
 20
26.6116059499768
 10
-24.12166915710266
 20
26.59020938170985
 10
-24.04430483794951
 20
26.56832334678618
 10
-23.96709799701817
 20
26.5459153702015
 10
-23.8900582996145
 20
26.52295297695153
 10
-23.81319541104438
 20
26.49940369203198
 10
-23.73651899661369
 20
26.47523504043857
 10
-23.66003872162828
 20
26.45041454716701
 10
-23.58376425139404
 20
26.42490973721301
 10
-23.50770525121684
 20
26.39868813557229
 10
-23.50770525121685
 20
26.39868813557228
 10
-23.42588475128529
 20
26.36962664154661
 10
-23.34434884739601
 20
26.33985742855193
 10
-23.26308589963641
 20
26.30940922508661
 10
-23.18208426809394
 20
26.27831075964899
 10
-23.101332312856
 20
26.24659076073743
 10
-23.02081839401002
 20
26.21427795685029
 10
-22.94053087164342
 20
26.18140107648592
 10
-22.86045810584362
 20
26.14798884814267
 10
-22.78058845669804
 20
26.11407000031891
 10
-22.70091028429411
 20
26.07967326151298
 10
-22.62141194871924
 20
26.04482736022325
 10
-22.54208181006086
 20
26.00956102494807
 10
-22.46290822840639
 20
25.97390298418579
 10
-22.38387956384324
 20
25.93788196643477
 10
-22.30498417645885
 20
25.90152670019336
 10
-22.22621042634063
 20
25.86486591395992
 10
-22.14754667357601
 20
25.82792833623281
 10
-22.0689812782524
 20
25.79074269551037
 10
-21.99050260045723
 20
25.75333772029098
 10
-21.91209900027792
 20
25.71574213907297
 10
-21.83375883780188
 20
25.67798468035471
 10
-21.75547047311655
 20
25.64009407263455
 10
-21.67722226630934
 20
25.60209904441085
 10
-21.59900257746767
 20
25.56402832418196
 10
-21.52079976667897
 20
25.52591064044624
 10
-21.44260219403066
 20
25.48777472170204
 10
-21.36439821961015
 20
25.44964929644772
 10
-21.28617620350488
 20
25.41156309318163
 10
-21.20792450580226
 20
25.37354484040213
 10
-21.12963148658971
 20
25.33562326660758
 10
-21.05128550595465
 20
25.29782710029633
 10
-20.97287492398451
 20
25.26018506996673
 10
-20.8943881007667
 20
25.22272590411714
 10
-20.81581339638866
 20
25.18547833124591
 10
-20.7371391709378
 20
25.14847107985141
 10
-20.65835378450153
 20
25.11173287843199
 10
-20.57944559716729
 20
25.075292455486
 10
-20.50040296902249
 20
25.03917853951179
 10
-20.42121426015456
 20
25.00341985900772
 10
-20.34186783065091
 20
24.96804514247215
 10
-20.26235204059898
 20
24.93308311840344
 10
-20.18265525008617
 20
24.89856251529993
 10
-20.10276581919992
 20
24.86451206165999
 10
-20.02267210802764
 20
24.83096048598196
 10
-19.94236247665675
 20
24.79793651676422
 10
-19.86182528517468
 20
24.76546888250509
 10
-19.78104889366885
 20
24.73358631170296
 10
-19.78104889366885
 20
24.73358631170296
 10
-19.69328703567197
 20
24.69931492628585
 10
-19.60549431007471
 20
24.66502294029689
 10
-19.5176660802234
 20
24.63073245069343
 10
-19.4297977094644
 20
24.59646555443284
 10
-19.34188456114406
 20
24.56224434847249
 10
-19.25392199860873
 20
24.52809092976972
 10
-19.16590538520474
 20
24.49402739528192
 10
-19.07783008427846
 20
24.46007584196643
 10
-18.98969145917622
 20
24.42625836678063
 10
-18.90148487324438
 20
24.39259706668187
 10
-18.81320568982928
 20
24.35911403862752
 10
-18.72484927227727
 20
24.32583137957495
 10
-18.6364109839347
 20
24.29277118648152
 10
-18.54788618814792
 20
24.25995555630457
 10
-18.45927024826326
 20
24.2274065860015
 10
-18.37055852762709
 20
24.19514637252964
 10
-18.28174638958575
 20
24.16319701284637
 10
-18.19282919748559
 20
24.13158060390906
 10
-18.10380231467295
 20
24.10031924267505
 10
-18.01466110449418
 20
24.06943502610172
 10
-17.92540093029562
 20
24.03895005114644
 10
-17.83601715542364
 20
24.00888641476655
 10
-17.74650514322457
 20
23.97926621391943
 10
-17.65686025704476
 20
23.95011154556244
 10
-17.56707786023057
 20
23.92144450665294
 10
-17.47715331612833
 20
23.89328719414829
 10
-17.3870819880844
 20
23.86566170500587
 10
-17.29685923944511
 20
23.83859013618302
 10
-17.20648043355683
 20
23.81209458463712
 10
-17.1159409337659
 20
23.78619714732552
 10
-17.02523610341866
 20
23.76091992120559
 10
-16.93436130586146
 20
23.73628500323469
 10
-16.84331190444066
 20
23.7123144903702
 10
-16.75208326250259
 20
23.68903047956946
 10
-16.66067074339362
 20
23.66645506778984
 10
-16.56906971046007
 20
23.6446103519887
 10
-16.4772755270483
 20
23.62351842912342
 10
-16.4772755270483
 20
23.62351842912342
 10
-16.36544052656968
 20
23.59866642416776
 10
-16.25341960319544
 20
23.57447482578812
 10
-16.14121928840658
 20
23.55094768609242
 10
-16.02884611368407
 20
23.52808905718857
 10
-15.91630661050887
 20
23.50590299118451
 10
-15.80360731036195
 20
23.48439354018815
 10
-15.69075474472431
 20
23.46356475630742
 10
-15.5777554450769
 20
23.44342069165025
 10
-15.46461594290071
 20
23.42396539832456
 10
-15.3513427696767
 20
23.40520292843827
 10
-15.23794245688585
 20
23.38713733409932
 10
-15.12442153600913
 20
23.36977266741561
 10
-15.01078653852752
 20
23.35311298049508
 10
-14.897043995922
 20
23.33716232544566
 10
-14.78320043967352
 20
23.32192475437526
 10
-14.66926240126308
 20
23.30740431939182
 10
-14.55523641217163
 20
23.29360507260325
 10
-14.44112900388016
 20
23.28053106611748
 10
-14.32694670786964
 20
23.26818635204244
 10
-14.21269605562105
 20
23.25657498248604
 10
-14.09838357861535
 20
23.24570100955621
 10
-13.98401580833352
 20
23.23556848536088
 10
-13.86959927625653
 20
23.22618146200798
 10
-13.75514051386537
 20
23.21754399160542
 10
-13.64064605264099
 20
23.20966012626113
 10
-13.52612242406438
 20
23.20253391808304
 10
-13.41157615961651
 20
23.19616941917907
 10
-13.29701379077836
 20
23.19057068165714
 10
-13.18244184903088
 20
23.18574175762518
 10
-13.06786686585507
 20
23.18168669919111
 10
-12.9532953727319
 20
23.17840955846286
 10
-12.83873390114233
 20
23.17591438754835
 10
-12.72418898256735
 20
23.1742052385555
 10
-12.72418898256735
 20
23.1742052385555
 10
-12.62959258966676
 20
23.17350064500191
 10
-12.53498339761637
 20
23.17355032852766
 10
-12.44036551763406
 20
23.17434202252526
 10
-12.34574306093774
 20
23.17586346038723
 10
-12.2511201387453
 20
23.17810237550608
 10
-12.15650086227463
 20
23.1810465012743
 10
-12.06188934274364
 20
23.18468357108443
 10
-11.96728969137022
 20
23.18900131832894
 10
-11.87270601937226
 20
23.19398747640037
 10
-11.77814243796767
 20
23.19962977869121
 10
-11.68360305837434
 20
23.20591595859399
 10
-11.58909199181016
 20
23.21283374950119
 10
-11.49461334949303
 20
23.22037088480534
 10
-11.40017124264085
 20
23.22851509789895
 10
-11.30576978247151
 20
23.23725412217451
 10
-11.21141308020292
 20
23.24657569102456
 10
-11.11710524705296
 20
23.25646753784157
 10
-11.02285039423953
 20
23.26691739601808
 10
-10.92865263298053
 20
23.27791299894659
 10
-10.83451607449386
 20
23.28944208001961
 10
-10.74044482999741
 20
23.30149237262964
 10
-10.64644301070908
 20
23.31405161016919
 10
-10.55251472784676
 20
23.32710752603079
 10
-10.45866409262835
 20
23.34064785360692
 10
-10.36489521627174
 20
23.35466032629011
 10
-10.27121220999484
 20
23.36913267747286
 10
-10.17761918501554
 20
23.38405264054767
 10
-10.08412025255174
 20
23.39940794890707
 10
-9.990719523821327
 20
23.41518633594355
 10
-9.897421110042202
 20
23.43137553504963
 10
-9.804229122432261
 20
23.44796327961782
 10
-9.711147672209401
 20
23.46493730304062
 10
-9.711147672209405
 20
23.46493730304062
 10
-9.647089337238359
 20
23.47714333364799
 10
-9.583195541752555
 20
23.49006637052799
 10
-9.519457310870979
 20
23.50366730424758
 10
-9.455865669712617
 20
23.51790702537369
 10
-9.392411643396457
 20
23.53274642447329
 10
-9.329086257041485
 20
23.54814639211332
 10
-9.265880535766687
 20
23.56406781886071
 10
-9.202785504691052
 20
23.58047159528242
 10
-9.139792188933565
 20
23.5973186119454
 10
-9.076891613613215
 20
23.61456975941659
 10
-9.014074803848986
 20
23.63218592826295
 10
-8.951332784759866
 20
23.65012800905141
 10
-8.888656581464843
 20
23.66835689234893
 10
-8.826037219082904
 20
23.68683346872245
 10
-8.763465722733034
 20
23.70551862873892
 10
-8.700933117534221
 20
23.72437326296528
 10
-8.638430428605452
 20
23.74335826196849
 10
-8.575948681065714
 20
23.76243451631548
 10
-8.513478900033993
 20
23.78156291657322
 10
-8.451012110629276
 20
23.80070435330863
 10
-8.38853933797055
 20
23.81981971708868
 10
-8.326051607176802
 20
23.83886989848031
 10
-8.263539943367019
 20
23.85781578805046
 10
-8.200995371660189
 20
23.87661827636609
 10
-8.138408917175297
 20
23.89523825399413
 10
-8.075771605031331
 20
23.91363661150155
 10
-8.013074460347278
 20
23.93177423945527
 10
-7.950308508242123
 20
23.94961202842226
 10
-7.887464773834855
 20
23.96711086896946
  0
LWPOLYLINE
  5
24D
330
1F
100
AcDbEntity
  8
Vector Layer 1
 62
    18
420
        0
370
    30
100
AcDbPolyline
 90
      349
 70
     0
 43
0.0
 10
-49.79777101887886
 20
34.08269895703963
 10
-46.731869334655
 20
32.18689923759419
 10
-46.731869334655
 20
32.18689923759419
 10
-46.64500766717846
 20
32.13310307297426
 10
-46.55832035048691
 20
32.07897749679779
 10
-46.47179945954464
 20
32.02453748231734
 10
-46.38543706931598
 20
31.96979800278548
 10
-46.29922525476526
 20
31.9147740314548
 10
-46.21315609085679
 20
31.85948054157784
 10
-46.12722165255489
 20
31.8039325064072
 10
-46.04141401482389
 20
31.74814489919543
 10
-45.95572525262809
 20
31.69213269319511
 10
-45.87014744093182
 20
31.6359108616588
 10
-45.7846726546994
 20
31.57949437783909
 10
-45.69929296889514
 20
31.52289821498853
 10
-45.61400045848337
 20
31.46613734635969
 10
-45.52878719842841
 20
31.40922674520516
 10
-45.44364526369458
 20
31.35218138477748
 10
-45.35856672924619
 20
31.29501623832926
 10
-45.27354367004756
 20
31.23774627911303
 10
-45.18856816106302
 20
31.18038648038139
 10
-45.10363227725687
 20
31.1229518153869
 10
-45.01872809359346
 20
31.06545725738213
 10
-44.93384768503708
 20
31.00791777961964
 10
-44.84898312655206
 20
30.95034835535201
 10
-44.76412649310273
 20
30.89276395783182
 10
-44.6792698596534
 20
30.83517956031162
 10
-44.59440530116839
 20
30.777610136044
 10
-44.50952489261201
 20
30.72007065828151
 10
-44.42462070894859
 20
30.66257610027674
 10
-44.33968482514245
 20
30.60514143528225
 10
-44.25470931615791
 20
30.5477816365506
 10
-44.16968625695928
 20
30.49051167733438
 10
-44.08460772251089
 20
30.43334653088615
 10
-43.99946578777706
 20
30.37630117045849
 10
-43.9142525277221
 20
30.31939056930395
 10
-43.82896001731032
 20
30.26262970067512
 10
-43.74358033150607
 20
30.20603353782455
 10
-43.65810554527365
 20
30.14961705400484
 10
-43.57252773357738
 20
30.09339522246853
 10
-43.48683897138157
 20
30.03738301646821
 10
-43.40103133365057
 20
29.98159540925644
 10
-43.31509689534867
 20
29.9260473740858
 10
-43.2290277314402
 20
29.87075388420884
 10
-43.14281591688948
 20
29.81572991287816
 10
-43.05645352666083
 20
29.7609904333463
 10
-42.96993263571856
 20
29.70655041886585
 10
-42.883245319027
 20
29.65242484268938
 10
-42.79638365155046
 20
29.59862867806945
 10
-42.70933970825327
 20
29.54517689825864
 10
-42.62210556409976
 20
29.49208447650951
 10
-42.53467329405422
 20
29.43936638607464
 10
-42.44703497308099
 20
29.38703760020659
 10
-42.35918267614438
 20
29.33511309215794
 10
-42.2711084782087
 20
29.28360783518126
 10
-42.1828044542383
 20
29.23253680252911
 10
-42.09426267919748
 20
29.18191496745407
 10
-42.00547522805055
 20
29.13175730320871
 10
-41.91643417576184
 20
29.08207878304559
 10
-41.82713159729567
 20
29.03289438021729
 10
-41.73755956761636
 20
28.98421906797638
 10
-41.64771016168823
 20
28.93606781957543
 10
-41.5575754544756
 20
28.888455608267
 10
-41.46714752094278
 20
28.84139740730367
 10
-41.3764184360541
 20
28.79490818993802
 10
-41.28538027477389
 20
28.7490029294226
 10
-41.19402511206643
 20
28.70369659900999
 10
-41.10234502289608
 20
28.65900417195275
 10
-41.01033208222713
 20
28.61494062150347
 10
-40.91797836502393
 20
28.57152092091471
 10
-40.82527594625076
 20
28.52876004343904
 10
-40.73221690087198
 20
28.48667296232903
 10
-40.73221690087206
 20
28.48667296232904
 10
-40.6537785654716
 20
28.45197725308724
 10
-40.57507245534359
 20
28.41799205063935
 10
-40.49610577030826
 20
28.38469862105908
 10
-40.41688571018591
 20
28.35207823042019
 10
-40.33741947479679
 20
28.3201121447964
 10
-40.25771426396119
 20
28.28878163026145
 10
-40.1777772774994
 20
28.25806795288909
 10
-40.09761571523164
 20
28.22795237875304
 10
-40.01723677697824
 20
28.19841617392704
 10
-39.93664766255944
 20
28.16944060448484
 10
-39.85585557179552
 20
28.14100693650016
 10
-39.77486770450675
 20
28.11309643604674
 10
-39.6936912605134
 20
28.08569036919833
 10
-39.61233343963576
 20
28.05877000202865
 10
-39.53080144169409
 20
28.03231660061145
 10
-39.44910246650866
 20
28.00631143102046
 10
-39.36724371389974
 20
27.98073575932942
 10
-39.28523238368761
 20
27.95557085161206
 10
-39.20307567569255
 20
27.93079797394212
 10
-39.12078078973483
 20
27.90639839239335
 10
-39.03835492563471
 20
27.88235337303947
 10
-38.95580528321247
 20
27.85864418195422
 10
-38.87313906228839
 20
27.83525208521134
 10
-38.79036346268273
 20
27.81215834888457
 10
-38.70748568421577
 20
27.78934423904764
 10
-38.62451292670778
 20
27.76679102177429
 10
-38.54145238997904
 20
27.74447996313826
 10
-38.45831127384981
 20
27.72239232921329
 10
-38.37509677814038
 20
27.7005093860731
 10
-38.291816102671
 20
27.67881239979144
 10
-38.20847644726196
 20
27.65728263644204
 10
-38.12508501173353
 20
27.63590136209865
 10
-38.04164899590598
 20
27.614649842835
 10
-37.95817559959958
 20
27.59350934472482
 10
-37.87467202263461
 20
27.57246113384185
 10
-37.79114546483134
 20
27.55148647625983
 10
-37.70760312601004
 20
27.5305666380525
 10
-37.62405220599099
 20
27.50968288529358
 10
-37.54049990459446
 20
27.48881648405683
 10
-37.45695342164071
 20
27.46794870041597
 10
-37.37341995695003
 20
27.44706080044475
 10
-37.28990671034269
 20
27.4261340502169
 10
-37.20642088163895
 20
27.40514971580616
 10
-37.1229696706591
 20
27.38408906328626
 10
-37.0395602772234
 20
27.36293335873094
 10
-36.95619990115212
 20
27.34166386821394
 10
-36.87289574226554
 20
27.32026185780899
 10
-36.78965500038394
 20
27.29870859358983
 10
-36.70648487532758
 20
27.2769853416302
 10
-36.62339256691674
 20
27.25507336800384
 10
-36.5403852749717
 20
27.23295393878448
 10
-36.45747019931272
 20
27.21060832004586
 10
-36.37465453976007
 20
27.18801777786171
 10
-36.29194549613403
 20
27.16516357830577
 10
-36.29194549613404
 20
27.16516357830577
 10
-36.21435119755742
 20
27.14383491621973
 10
-36.13662441802644
 20
27.12295856260123
 10
-36.05877482284697
 20
27.102502042446
 10
-35.98081207732488
 20
27.08243288074975
 10
-35.90274584676603
 20
27.06271860250819
 10
-35.82458579647631
 20
27.04332673271703
 10
-35.74634159176158
 20
27.024224796372
 10
-35.66802289792772
 20
27.0053803184688
 10
-35.5896393802806
 20
26.98676082400315
 10
-35.51120070412609
 20
26.96833383797077
 10
-35.43271653477007
 20
26.95006688536737
 10
-35.3541965375184
 20
26.93192749118866
 10
-35.27565037767696
 20
26.91388318043037
 10
-35.19708772055162
 20
26.8959014780882
 10
-35.11851823144826
 20
26.87794990915787
 10
-35.03995157567274
 20
26.8599959986351
 10
-34.96139741853094
 20
26.8420072715156
 10
-34.88286542532872
 20
26.82395125279508
 10
-34.80436526137198
 20
26.80579546746926
 10
-34.72590659196657
 20
26.78750744053385
 10
-34.64749908241837
 20
26.76905469698458
 10
-34.56915239803325
 20
26.75040476181715
 10
-34.49087620411708
 20
26.73152516002728
 10
-34.41268016597574
 20
26.71238341661068
 10
-34.33457394891509
 20
26.69294705656306
 10
-34.25656721824101
 20
26.67318360488016
 10
-34.17866963925938
 20
26.65306058655767
 10
-34.10089087727605
 20
26.63254552659131
 10
-34.02324059759692
 20
26.6116059499768
 10
-33.94572846552784
 20
26.59020938170985
 10
-33.8683641463747
 20
26.56832334678618
 10
-33.79115730544336
 20
26.5459153702015
 10
-33.71411760803969
 20
26.52295297695153
 10
-33.63725471946958
 20
26.49940369203198
 10
-33.56057830503888
 20
26.47523504043857
 10
-33.48409803005348
 20
26.45041454716701
 10
-33.40782355981924
 20
26.42490973721301
 10
-33.33176455964203
 20
26.39868813557229
 10
-33.33176455964203
 20
26.39868813557228
 10
-33.24994405971047
 20
26.36962664154661
 10
-33.16840815582118
 20
26.33985742855193
 10
-33.08714520806159
 20
26.30940922508661
 10
-33.00614357651912
 20
26.27831075964899
 10
-32.92539162128118
 20
26.24659076073743
 10
-32.8448777024352
 20
26.21427795685029
 10
-32.7645901800686
 20
26.18140107648592
 10
-32.6845174142688
 20
26.14798884814267
 10
-32.60464776512322
 20
26.11407000031891
 10
-32.52496959271929
 20
26.07967326151298
 10
-32.44547125714442
 20
26.04482736022325
 10
-32.36614111848604
 20
26.00956102494807
 10
-32.28696753683157
 20
25.97390298418579
 10
-32.20793887226843
 20
25.93788196643477
 10
-32.12904348488404
 20
25.90152670019336
 10
-32.05026973476582
 20
25.86486591395992
 10
-31.9716059820012
 20
25.82792833623281
 10
-31.89304058667759
 20
25.79074269551037
 10
-31.81456190888242
 20
25.75333772029098
 10
-31.73615830870311
 20
25.71574213907297
 10
-31.65781814622707
 20
25.67798468035471
 10
-31.57952978154174
 20
25.64009407263455
 10
-31.50128157473453
 20
25.60209904441085
 10
-31.42306188589287
 20
25.56402832418196
 10
-31.34485907510417
 20
25.52591064044624
 10
-31.26666150245585
 20
25.48777472170204
 10
-31.18845752803535
 20
25.44964929644772
 10
-31.11023551193007
 20
25.41156309318163
 10
-31.03198381422745
 20
25.37354484040213
 10
-30.9536907950149
 20
25.33562326660758
 10
-30.87534481437985
 20
25.29782710029633
 10
-30.79693423240971
 20
25.26018506996673
 10
-30.71844740919191
 20
25.22272590411714
 10
-30.63987270481386
 20
25.18547833124591
 10
-30.561198479363
 20
25.14847107985141
 10
-30.48241309292674
 20
25.11173287843199
 10
-30.4035049055925
 20
25.075292455486
 10
-30.3244622774477
 20
25.03917853951179
 10
-30.24527356857977
 20
25.00341985900772
 10
-30.16592713907613
 20
24.96804514247215
 10
-30.08641134902419
 20
24.93308311840344
 10
-30.00671455851139
 20
24.89856251529993
 10
-29.92682512762513
 20
24.86451206165999
 10
-29.84673141645286
 20
24.83096048598196
 10
-29.76642178508197
 20
24.79793651676422
 10
-29.6858845935999
 20
24.76546888250509
 10
-29.60510820209407
 20
24.73358631170296
 10
-29.60510820209407
 20
24.73358631170296
 10
-29.51734634409719
 20
24.69931492628585
 10
-29.42955361849991
 20
24.66502294029689
 10
-29.3417253886486
 20
24.63073245069343
 10
-29.25385701788961
 20
24.59646555443284
 10
-29.16594386956926
 20
24.56224434847249
 10
-29.07798130703393
 20
24.52809092976972
 10
-28.98996469362994
 20
24.49402739528192
 10
-28.90188939270365
 20
24.46007584196643
 10
-28.81375076760141
 20
24.42625836678063
 10
-28.72554418166957
 20
24.39259706668187
 10
-28.63726499825446
 20
24.35911403862752
 10
-28.54890858070245
 20
24.32583137957495
 10
-28.46047029235988
 20
24.29277118648152
 10
-28.37194549657309
 20
24.25995555630457
 10
-28.28332955668844
 20
24.2274065860015
 10
-28.19461783605227
 20
24.19514637252964
 10
-28.10580569801092
 20
24.16319701284637
 10
-28.01688850591075
 20
24.13158060390906
 10
-27.9278616230981
 20
24.10031924267505
 10
-27.83872041291933
 20
24.06943502610172
 10
-27.74946023872078
 20
24.03895005114644
 10
-27.66007646384879
 20
24.00888641476655
 10
-27.57056445164972
 20
23.97926621391943
 10
-27.48091956546991
 20
23.95011154556244
 10
-27.39113716865571
 20
23.92144450665294
 10
-27.30121262455346
 20
23.89328719414829
 10
-27.21114129650952
 20
23.86566170500587
 10
-27.12091854787023
 20
23.83859013618302
 10
-27.03053974198195
 20
23.81209458463712
 10
-26.940000242191
 20
23.78619714732552
 10
-26.84929541184376
 20
23.76091992120559
 10
-26.75842061428657
 20
23.73628500323469
 10
-26.66737121286576
 20
23.7123144903702
 10
-26.57614257092769
 20
23.68903047956946
 10
-26.4847300518187
 20
23.66645506778984
 10
-26.39312901888515
 20
23.6446103519887
 10
-26.30133483547338
 20
23.62351842912342
 10
-26.30133483547338
 20
23.62351842912342
 10
-26.18949983499475
 20
23.59866642416776
 10
-26.07747891162051
 20
23.57447482578812
 10
-25.96527859683165
 20
23.55094768609242
 10
-25.85290542210913
 20
23.52808905718857
 10
-25.74036591893392
 20
23.50590299118451
 10
-25.62766661878701
 20
23.48439354018815
 10
-25.51481405314936
 20
23.46356475630742
 10
-25.40181475350195
 20
23.44342069165025
 10
-25.28867525132575
 20
23.42396539832456
 10
-25.17540207810174
 20
23.40520292843827
 10
-25.06200176531089
 20
23.38713733409932
 10
-24.94848084443417
 20
23.36977266741561
 10
-24.83484584695256
 20
23.35311298049508
 10
-24.72110330434702
 20
23.33716232544566
 10
-24.60725974809855
 20
23.32192475437526
 10
-24.4933217096881
 20
23.30740431939182
 10
-24.37929572059665
 20
23.29360507260325
 10
-24.26518831230518
 20
23.28053106611748
 10
-24.15100601629466
 20
23.26818635204244
 10
-24.03675536404606
 20
23.25657498248604
 10
-23.92244288704036
 20
23.24570100955621
 10
-23.80807511675853
 20
23.23556848536088
 10
-23.69365858468155
 20
23.22618146200798
 10
-23.57919982229038
 20
23.21754399160542
 10
-23.464705361066
 20
23.20966012626113
 10
-23.3501817324894
 20
23.20253391808304
 10
-23.23563546804153
 20
23.19616941917907
 10
-23.12107309920337
 20
23.19057068165714
 10
-23.0065011574559
 20
23.18574175762518
 10
-22.89192617428009
 20
23.18168669919111
 10
-22.77735468115691
 20
23.17840955846286
 10
-22.66279320956734
 20
23.17591438754835
 10
-22.54824829099236
 20
23.1742052385555
 10
-22.54824829099236
 20
23.1742052385555
 10
-22.45365189809177
 20
23.17350064500191
 10
-22.35904270604138
 20
23.17355032852766
 10
-22.26442482605907
 20
23.17434202252526
 10
-22.16980236936275
 20
23.17586346038723
 10
-22.07517944717031
 20
23.17810237550608
 10
-21.98056017069965
 20
23.1810465012743
 10
-21.88594865116866
 20
23.18468357108443
 10
-21.79134899979524
 20
23.18900131832894
 10
-21.69676532779728
 20
23.19398747640037
 10
-21.60220174639269
 20
23.19962977869121
 10
-21.50766236679936
 20
23.20591595859399
 10
-21.41315130023518
 20
23.21283374950119
 10
-21.31867265791805
 20
23.22037088480534
 10
-21.22423055106587
 20
23.22851509789895
 10
-21.12982909089653
 20
23.23725412217451
 10
-21.03547238862794
 20
23.24657569102456
 10
-20.94116455547798
 20
23.25646753784157
 10
-20.84690970266455
 20
23.26691739601808
 10
-20.75271194140555
 20
23.27791299894659
 10
-20.65857538291888
 20
23.28944208001961
 10
-20.56450413842243
 20
23.30149237262964
 10
-20.47050231913409
 20
23.31405161016919
 10
-20.37657403627178
 20
23.32710752603079
 10
-20.28272340105337
 20
23.34064785360692
 10
-20.18895452469676
 20
23.35466032629011
 10
-20.09527151841987
 20
23.36913267747286
 10
-20.00167849344057
 20
23.38405264054767
 10
-19.90817956097676
 20
23.39940794890707
 10
-19.81477883224635
 20
23.41518633594355
 10
-19.72148041846723
 20
23.43137553504963
 10
-19.62828843085729
 20
23.44796327961782
 10
-19.53520698063443
 20
23.46493730304062
 10
-19.53520698063442
 20
23.46493730304062
 10
-19.47114864566338
 20
23.47714333364799
 10
-19.40725485017757
 20
23.49006637052799
 10
-19.343516619296
 20
23.50366730424758
 10
-19.27992497813764
 20
23.51790702537369
 10
-19.21647095182148
 20
23.53274642447329
 10
-19.1531455654665
 20
23.54814639211332
 10
-19.0899398441917
 20
23.56406781886071
 10
-19.02684481311607
 20
23.58047159528242
 10
-18.96385149735858
 20
23.5973186119454
 10
-18.90095092203823
 20
23.61456975941659
 10
-18.838134112274
 20
23.63218592826295
 10
-18.77539209318488
 20
23.65012800905141
 10
-18.71271588988986
 20
23.66835689234893
 10
-18.65009652750792
 20
23.68683346872245
 10
-18.58752503115805
 20
23.70551862873892
 10
-18.52499242595923
 20
23.72437326296528
 10
-18.46248973703047
 20
23.74335826196849
 10
-18.40000798949073
 20
23.76243451631548
 10
-18.33753820845901
 20
23.78156291657322
 10
-18.27507141905429
 20
23.80070435330863
 10
-18.21259864639556
 20
23.81981971708868
 10
-18.15011091560181
 20
23.83886989848031
 10
-18.08759925179203
 20
23.85781578805046
 10
-18.0250546800852
 20
23.87661827636609
 10
-17.96246822560031
 20
23.89523825399413
 10
-17.89983091345634
 20
23.91363661150155
 10
-17.83713376877229
 20
23.93177423945527
 10
-17.77436781666713
 20
23.94961202842226
 10
-17.71152408225986
 20
23.96711086896946
  0
LWPOLYLINE
  5
24E
330
1F
100
AcDbEntity
  8
Vector Layer 1
 62
    18
420
        0
370
    30
100
AcDbPolyline
 90
      345
 70
     0
 43
0.0
 10
-59.0751488306439
 20
34.08269895703963
 10
-56.00924714641995
 20
32.18689923759419
 10
-56.00924714641996
 20
32.18689923759419
 10
-55.92238547894343
 20
32.13310307297426
 10
-55.83569816225186
 20
32.07897749679779
 10
-55.7491772713096
 20
32.02453748231734
 10
-55.66281488108094
 20
31.96979800278548
 10
-55.57660306653022
 20
31.9147740314548
 10
-55.49053390262175
 20
31.85948054157784
 10
-55.40459946431985
 20
31.8039325064072
 10
-55.31879182658884
 20
31.74814489919543
 10
-55.23310306439304
 20
31.69213269319511
 10
-55.14752525269678
 20
31.6359108616588
 10
-55.06205046646435
 20
31.57949437783909
 10
-54.97667078066009
 20
31.52289821498853
 10
-54.89137827024832
 20
31.46613734635969
 10
-54.80616501019336
 20
31.40922674520516
 10
-54.72102307545952
 20
31.35218138477748
 10
-54.63594454101113
 20
31.29501623832926
 10
-54.5509214818125
 20
31.23774627911303
 10
-54.46594597282796
 20
31.18038648038139
 10
-54.38101008902183
 20
31.1229518153869
 10
-54.2961059053584
 20
31.06545725738213
 10
-54.21122549680204
 20
31.00791777961964
 10
-54.12636093831702
 20
30.95034835535201
 10
-54.04150430486769
 20
30.89276395783182
 10
-53.95664767141835
 20
30.83517956031162
 10
-53.87178311293333
 20
30.777610136044
 10
-53.78690270437696
 20
30.72007065828151
 10
-53.70199852071355
 20
30.66257610027674
 10
-53.61706263690741
 20
30.60514143528225
 10
-53.53208712792286
 20
30.5477816365506
 10
-53.44706406872424
 20
30.49051167733438
 10
-53.36198553427585
 20
30.43334653088615
 10
-53.27684359954201
 20
30.37630117045849
 10
-53.19163033948704
 20
30.31939056930395
 10
-53.10633782907528
 20
30.26262970067512
 10
-53.02095814327103
 20
30.20603353782455
 10
-52.9354833570386
 20
30.14961705400484
 10
-52.84990554534233
 20
30.09339522246853
 10
-52.76421678314653
 20
30.03738301646821
 10
-52.67840914541552
 20
29.98159540925644
 10
-52.59247470711362
 20
29.9260473740858
 10
-52.50640554320515
 20
29.87075388420884
 10
-52.42019372865443
 20
29.81572991287816
 10
-52.33383133842578
 20
29.7609904333463
 10
-52.24731044748351
 20
29.70655041886585
 10
-52.16062313079195
 20
29.65242484268938
 10
-52.07376146331542
 20
29.59862867806945
 10
-51.98671752001823
 20
29.54517689825864
 10
-51.89948337586471
 20
29.49208447650951
 10
-51.81205110581917
 20
29.43936638607464
 10
-51.72441278484594
 20
29.38703760020659
 10
-51.63656048790933
 20
29.33511309215794
 10
-51.54848628997366
 20
29.28360783518126
 10
-51.46018226600325
 20
29.23253680252911
 10
-51.37164049096242
 20
29.18191496745407
 10
-51.2828530398155
 20
29.13175730320871
 10
-51.19381198752679
 20
29.08207878304559
 10
-51.10450940906062
 20
29.03289438021729
 10
-51.01493737938131
 20
28.98421906797638
 10
-50.92508797345319
 20
28.93606781957543
 10
-50.83495326624055
 20
28.888455608267
 10
-50.74452533270774
 20
28.84139740730367
 10
-50.65379624781906
 20
28.79490818993802
 10
-50.56275808653883
 20
28.7490029294226
 10
-50.47140292383138
 20
28.70369659900999
 10
-50.37972283466103
 20
28.65900417195275
 10
-50.28770989399209
 20
28.61494062150347
 10
-50.19535617678887
 20
28.57152092091471
 10
-50.10265375801572
 20
28.52876004343904
 10
-50.00959471263693
 20
28.48667296232903
 10
-50.00959471263697
 20
28.48667296232904
 10
-49.93115637723652
 20
28.45197725308724
 10
-49.85245026710849
 20
28.41799205063935
 10
-49.77348358207317
 20
28.38469862105908
 10
-49.69426352195082
 20
28.35207823042019
 10
-49.6147972865617
 20
28.3201121447964
 10
-49.53509207572611
 20
28.28878163026145
 10
-49.4551550892643
 20
28.25806795288909
 10
-49.37499352699655
 20
28.22795237875304
 10
-49.29461458874314
 20
28.19841617392704
 10
-49.21402547432434
 20
28.16944060448484
 10
-49.13323338356041
 20
28.14100693650016
 10
-49.05224551627164
 20
28.11309643604674
 10
-48.9710690722783
 20
28.08569036919833
 10
-48.88971125140066
 20
28.05877000202865
 10
-48.80817925345898
 20
28.03231660061145
 10
-48.72648027827356
 20
28.00631143102046
 10
-48.64462152566463
 20
27.98073575932942
 10
-48.56261019545251
 20
27.95557085161206
 10
-48.48045348745745
 20
27.93079797394212
 10
-48.39815860149972
 20
27.90639839239335
 10
-48.31573273739961
 20
27.88235337303947
 10
-48.23318309497737
 20
27.85864418195422
 10
-48.15051687405329
 20
27.83525208521134
 10
-48.06774127444763
 20
27.81215834888457
 10
-47.98486349598067
 20
27.78934423904764
 10
-47.90189073847268
 20
27.76679102177429
 10
-47.81883020174393
 20
27.74447996313826
 10
-47.73568908561471
 20
27.72239232921329
 10
-47.65247458990527
 20
27.7005093860731
 10
-47.5691939144359
 20
27.67881239979144
 10
-47.48585425902685
 20
27.65728263644204
 10
-47.40246282349843
 20
27.63590136209865
 10
-47.31902680767087
 20
27.614649842835
 10
-47.23555341136448
 20
27.59350934472482
 10
-47.1520498343995
 20
27.57246113384185
 10
-47.06852327659624
 20
27.55148647625983
 10
-46.98498093777494
 20
27.5305666380525
 10
-46.90143001775589
 20
27.50968288529358
 10
-46.81787771635935
 20
27.48881648405683
 10
-46.73433123340561
 20
27.46794870041597
 10
-46.65079776871492
 20
27.44706080044475
 10
-46.56728452210758
 20
27.4261340502169
 10
-46.48379869340384
 20
27.40514971580616
 10
-46.40034748242399
 20
27.38408906328626
 10
-46.31693808898829
 20
27.36293335873094
 10
-46.23357771291702
 20
27.34166386821394
 10
-46.15027355403044
 20
27.32026185780899
 10
-46.06703281214883
 20
27.29870859358983
 10
-45.98386268709248
 20
27.2769853416302
 10
-45.90077037868164
 20
27.25507336800384
 10
-45.81776308673659
 20
27.23295393878448
 10
-45.73484801107762
 20
27.21060832004586
 10
-45.65203235152496
 20
27.18801777786171
 10
-45.56932330789893
 20
27.16516357830577
 10
-45.56932330789893
 20
27.16516357830577
 10
-45.49172900932232
 20
27.14383491621973
 10
-45.41400222979134
 20
27.12295856260123
 10
-45.33615263461187
 20
27.102502042446
 10
-45.25818988908977
 20
27.08243288074975
 10
-45.18012365853093
 20
27.06271860250819
 10
-45.1019636082412
 20
27.04332673271703
 10
-45.02371940352648
 20
27.024224796372
 10
-44.94540070969262
 20
27.0053803184688
 10
-44.8670171920455
 20
26.98676082400315
 10
-44.78857851589099
 20
26.96833383797077
 10
-44.71009434653496
 20
26.95006688536737
 10
-44.63157434928329
 20
26.93192749118866
 10
-44.55302818944185
 20
26.91388318043037
 10
-44.47446553231652
 20
26.8959014780882
 10
-44.39589604321315
 20
26.87794990915787
 10
-44.31732938743763
 20
26.8599959986351
 10
-44.23877523029584
 20
26.8420072715156
 10
-44.16024323709362
 20
26.82395125279508
 10
-44.08174307313688
 20
26.80579546746926
 10
-44.00328440373146
 20
26.78750744053385
 10
-43.92487689418326
 20
26.76905469698458
 10
-43.84653020979814
 20
26.75040476181715
 10
-43.76825401588198
 20
26.73152516002728
 10
-43.69005797774064
 20
26.71238341661068
 10
-43.61195176067998
 20
26.69294705656306
 10
-43.53394503000591
 20
26.67318360488016
 10
-43.45604745102427
 20
26.65306058655767
 10
-43.37826868904095
 20
26.63254552659131
 10
-43.30061840936181
 20
26.6116059499768
 10
-43.22310627729274
 20
26.59020938170985
 10
-43.1457419581396
 20
26.56832334678618
 10
-43.06853511720825
 20
26.5459153702015
 10
-42.99149541980458
 20
26.52295297695153
 10
-42.91463253123446
 20
26.49940369203198
 10
-42.83795611680377
 20
26.47523504043857
 10
-42.76147584181836
 20
26.45041454716701
 10
-42.68520137158412
 20
26.42490973721301
 10
-42.60914237140691
 20
26.39868813557229
 10
-42.60914237140692
 20
26.39868813557228
 10
-42.52732187147536
 20
26.36962664154661
 10
-42.44578596758608
 20
26.33985742855193
 10
-42.36452301982649
 20
26.30940922508661
 10
-42.28352138828401
 20
26.27831075964899
 10
-42.20276943304607
 20
26.24659076073743
 10
-42.1222555142001
 20
26.21427795685029
 10
-42.04196799183349
 20
26.18140107648592
 10
-41.96189522603369
 20
26.14798884814267
 10
-41.88202557688811
 20
26.11407000031891
 10
-41.80234740448418
 20
26.07967326151298
 10
-41.72284906890932
 20
26.04482736022325
 10
-41.64351893025094
 20
26.00956102494807
 10
-41.56434534859647
 20
25.97390298418579
 10
-41.48531668403332
 20
25.93788196643477
 10
-41.40642129664893
 20
25.90152670019336
 10
-41.32764754653072
 20
25.86486591395992
 10
-41.24898379376609
 20
25.82792833623281
 10
-41.17041839844248
 20
25.79074269551037
 10
-41.09193972064732
 20
25.75333772029098
 10
-41.013536120468
 20
25.71574213907297
 10
-40.93519595799197
 20
25.67798468035471
 10
-40.85690759330663
 20
25.64009407263455
 10
-40.77865938649942
 20
25.60209904441085
 10
-40.70043969765776
 20
25.56402832418196
 10
-40.62223688686906
 20
25.52591064044624
 10
-40.54403931422075
 20
25.48777472170204
 10
-40.46583533980025
 20
25.44964929644772
 10
-40.38761332369498
 20
25.41156309318163
 10
-40.30936162599235
 20
25.37354484040213
 10
-40.2310686067798
 20
25.33562326660758
 10
-40.15272262614475
 20
25.29782710029633
 10
-40.07431204417461
 20
25.26018506996673
 10
-39.99582522095681
 20
25.22272590411714
 10
-39.91725051657877
 20
25.18547833124591
 10
-39.83857629112791
 20
25.14847107985141
 10
-39.75979090469164
 20
25.11173287843199
 10
-39.6808827173574
 20
25.075292455486
 10
-39.6018400892126
 20
25.03917853951179
 10
-39.52265138034467
 20
25.00341985900772
 10
-39.44330495084102
 20
24.96804514247215
 10
-39.36378916078909
 20
24.93308311840344
 10
-39.28409237027628
 20
24.89856251529993
 10
-39.20420293939003
 20
24.86451206165999
 10
-39.12410922821775
 20
24.83096048598196
 10
-39.04379959684686
 20
24.79793651676422
 10
-38.96326240536479
 20
24.76546888250509
 10
-38.88248601385896
 20
24.73358631170296
 10
-38.88248601385897
 20
24.73358631170296
 10
-38.79472415586209
 20
24.69931492628585
 10
-38.70693143026482
 20
24.66502294029689
 10
-38.61910320041351
 20
24.63073245069343
 10
-38.53123482965452
 20
24.59646555443284
 10
-38.44332168133417
 20
24.56224434847249
 10
-38.35535911879883
 20
24.52809092976972
 10
-38.26734250539484
 20
24.49402739528192
 10
-38.17926720446856
 20
24.46007584196643
 10
-38.09112857936632
 20
24.42625836678063
 10
-38.00292199343448
 20
24.39259706668187
 10
-37.91464281001938
 20
24.35911403862752
 10
-37.82628639246736
 20
24.32583137957495
 10
-37.73784810412479
 20
24.29277118648152
 10
-37.649323308338
 20
24.25995555630457
 10
-37.56070736845334
 20
24.2274065860015
 10
-37.47199564781717
 20
24.19514637252964
 10
-37.38318350977582
 20
24.16319701284637
 10
-37.29426631767565
 20
24.13158060390906
 10
-37.20523943486301
 20
24.10031924267505
 10
-37.11609822468423
 20
24.06943502610172
 10
-37.02683805048567
 20
24.03895005114644
 10
-36.93745427561368
 20
24.00888641476655
 10
-36.84794226341461
 20
23.97926621391943
 10
-36.7582973772348
 20
23.95011154556244
 10
-36.6685149804206
 20
23.92144450665294
 10
-36.57859043631835
 20
23.89328719414829
 10
-36.48851910827441
 20
23.86566170500587
 10
-36.39829635963513
 20
23.83859013618302
 10
-36.30791755374684
 20
23.81209458463712
 10
-36.21737805395591
 20
23.78619714732552
 10
-36.12667322360866
 20
23.76091992120559
 10
-36.03579842605146
 20
23.73628500323469
 10
-35.94474902463066
 20
23.7123144903702
 10
-35.85352038269259
 20
23.68903047956946
 10
-35.7621078635836
 20
23.66645506778984
 10
-35.67050683065005
 20
23.6446103519887
 10
-35.57871264723829
 20
23.62351842912342
 10
-35.57871264723829
 20
23.62351842912342
 10
-35.46687764675965
 20
23.59866642416776
 10
-35.35485672338541
 20
23.57447482578812
 10
-35.24265640859655
 20
23.55094768609242
 10
-35.13028323387402
 20
23.52808905718857
 10
-35.01774373069882
 20
23.50590299118451
 10
-34.9050444305519
 20
23.48439354018815
 10
-34.79219186491425
 20
23.46356475630742
 10
-34.67919256526684
 20
23.44342069165025
 10
-34.56605306309064
 20
23.42396539832456
 10
-34.45277988986663
 20
23.40520292843827
 10
-34.33937957707577
 20
23.38713733409932
 10
-34.22585865619906
 20
23.36977266741561
 10
-34.11222365871745
 20
23.35311298049508
 10
-33.99848111611192
 20
23.33716232544566
 10
-33.88463755986344
 20
23.32192475437526
 10
-33.770699521453
 20
23.30740431939182
 10
-33.65667353236155
 20
23.29360507260325
 10
-33.54256612407009
 20
23.28053106611748
 10
-33.42838382805957
 20
23.26818635204244
 10
-33.31413317581097
 20
23.25657498248604
 10
-33.19982069880527
 20
23.24570100955621
 10
-33.08545292852344
 20
23.23556848536088
 10
-32.97103639644645
 20
23.22618146200798
 10
-32.85657763405529
 20
23.21754399160542
 10
-32.74208317283091
 20
23.20966012626113
 10
-32.6275595442543
 20
23.20253391808304
 10
-32.51301327980643
 20
23.19616941917907
 10
-32.39845091096827
 20
23.19057068165714
 10
-32.2838789692208
 20
23.18574175762518
 10
-32.169303986045
 20
23.18168669919111
 10
-32.05473249292182
 20
23.17840955846286
 10
-31.94017102133225
 20
23.17591438754835
 10
-31.82562610275726
 20
23.1742052385555
 10
-31.82562610275726
 20
23.1742052385555
 10
-31.73102970985667
 20
23.17350064500191
 10
-31.63642051780627
 20
23.17355032852766
 10
-31.54180263782397
 20
23.17434202252526
 10
-31.44718018112765
 20
23.17586346038723
 10
-31.3525572589352
 20
23.17810237550608
 10
-31.25793798246454
 20
23.1810465012743
 10
-31.16332646293355
 20
23.18468357108443
 10
-31.06872681156013
 20
23.18900131832894
 10
-30.97414313956218
 20
23.19398747640037
 10
-30.87957955815758
 20
23.19962977869121
 10
-30.78504017856425
 20
23.20591595859399
 10
-30.69052911200007
 20
23.21283374950119
 10
-30.59605046968294
 20
23.22037088480534
 10
-30.50160836283076
 20
23.22851509789895
 10
-30.40720690266143
 20
23.23725412217451
 10
-30.31285020039283
 20
23.24657569102456
 10
-30.21854236724287
 20
23.25646753784157
 10
-30.12428751442945
 20
23.26691739601808
 10
-30.03008975317045
 20
23.27791299894659
 10
-29.93595319468378
 20
23.28944208001961
 10
-29.84188195018733
 20
23.30149237262964
 10
-29.74788013089899
 20
23.31405161016919
 10
-29.65395184803668
 20
23.32710752603079
 10
-29.56010121281826
 20
23.34064785360692
 10
-29.46633233646166
 20
23.35466032629011
 10
-29.37264933018477
 20
23.36913267747286
 10
-29.27905630520547
 20
23.38405264054767
 10
-29.18555737274166
 20
23.39940794890707
 10
-29.09215664401125
 20
23.41518633594355
 10
-28.99885823023213
 20
23.43137553504963
 10
-28.90566624262218
 20
23.44796327961782
 10
-28.81258479239932
 20
23.46493730304062
 10
-28.81258479239932
 20
23.46493730304062
 10
-28.74986744712546
 20
23.47687997311925
 10
-28.68730827583137
 20
23.48951052027022
 10
-28.62489913562423
 20
23.50279207005261
 10
-28.56263188361117
 20
23.51668774802552
 10
-28.50049837689935
 20
23.531160679748
 10
-28.43849047259593
 20
23.54617399077916
 10
-28.37660002780805
 20
23.56169080667805
 10
-28.31481889964288
 20
23.57767425300376
 10
-28.25313894520756
 20
23.59408745531537
 10
-28.19155202160923
 20
23.61089353917196
 10
-28.13004998595507
 20
23.62805563013261
 10
-28.06862469535222
 20
23.64553685375639
 10
-28.00726800690784
 20
23.66330033560239
 10
-27.94597177772907
 20
23.68130920122968
 10
-27.88472786492307
 20
23.69952657619734
 10
-27.82352812559699
 20
23.71791558606445
 10
-27.76236441685799
 20
23.7364393563901
 10
-27.70122859581322
 20
23.75506101273335
 10
-27.64011251956983
 20
23.77374368065329
 10
-27.57900804523497
 20
23.792450485709
 10
-27.5179070299158
 20
23.81114455345955
 10
-27.45680133071947
 20
23.82978900946403
 10
-27.39568280475313
 20
23.8483469792815
 10
-27.33454330912394
 20
23.86678158847106
 10
-27.27337470093904
 20
23.88505596259178
  0
LWPOLYLINE
  5
24F
330
1F
100
AcDbEntity
  8
Vector Layer 1
 62
    18
420
        0
370
    30
100
AcDbPolyline
 90
      325
 70
     0
 43
0.0
 10
-63.74174541539858
 20
31.21146674506228
 10
-63.65588540136552
 20
31.15346268242286
 10
-63.57006211322485
 20
31.09538923455052
 10
-63.48426736787642
 20
31.03726185784784
 10
-63.39849298222002
 20
30.9790960087174
 10
-63.31273077315549
 20
30.92090714356179
 10
-63.22697255758262
 20
30.86271071878361
 10
-63.14121015240124
 20
30.80452219078542
 10
-63.05543537451117
 20
30.74635701596983
 10
-62.96964004081221
 20
30.68823065073941
 10
-62.8838159682042
 20
30.63015855149676
 10
-62.79795497358694
 20
30.57215617464446
 10
-62.71204887386025
 20
30.51423897658509
 10
-62.62608948592394
 20
30.45642241372125
 10
-62.54006862667782
 20
30.39872194245551
 10
-62.45397811302174
 20
30.34115301919047
 10
-62.36780976185548
 20
30.28373110032871
 10
-62.28155539007887
 20
30.22647164227281
 10
-62.19520681459172
 20
30.16939010142537
 10
-62.10875585229387
 20
30.11250193418897
 10
-62.0221943200851
 20
30.05582259696619
 10
-61.93551403486524
 20
29.99936754615962
 10
-61.84870681353412
 20
29.94315223817186
 10
-61.76176447299154
 20
29.88719212940548
 10
-61.67467883013732
 20
29.83150267626307
 10
-61.58744170187128
 20
29.77609933514721
 10
-61.50004490509324
 20
29.7209975624605
 10
-61.412480256703
 20
29.66621281460552
 10
-61.3247395736004
 20
29.61176054798486
 10
-61.23681467268522
 20
29.55765621900109
 10
-61.14869737085731
 20
29.50391528405681
 10
-61.06037948501647
 20
29.45055319955461
 10
-60.97185283206252
 20
29.39758542189707
 10
-60.88310922889528
 20
29.34502740748678
 10
-60.79414049241456
 20
29.29289461272631
 10
-60.70493843952017
 20
29.24120249401827
 10
-60.61549488711193
 20
29.18996650776524
 10
-60.52580165208968
 20
29.13920211036979
 10
-60.4358505513532
 20
29.08892475823453
 10
-60.34563340180232
 20
29.03914990776203
 10
-60.25514202033686
 20
28.98989301535488
 10
-60.16436822385665
 20
28.94116953741566
 10
-60.07330382926148
 20
28.89299493034697
 10
-59.98194065345117
 20
28.84538465055139
 10
-59.89027051332555
 20
28.79835415443151
 10
-59.79828522578442
 20
28.7519188983899
 10
-59.7059766077276
 20
28.70609433882917
 10
-59.61333647605492
 20
28.66089593215189
 10
-59.52035664766619
 20
28.61633913476065
 10
-59.42702893946122
 20
28.57243940305803
 10
-59.33334516833983
 20
28.52921219344663
 10
-59.23929715120182
 20
28.48667296232903
 10
-59.23929715120182
 20
28.48667296232904
 10
-59.16085881580138
 20
28.45197725308724
 10
-59.08215270567336
 20
28.41799205063935
 10
-59.00318602063804
 20
28.38469862105908
 10
-58.92396596051568
 20
28.35207823042019
 10
-58.84449972512658
 20
28.3201121447964
 10
-58.76479451429099
 20
28.28878163026145
 10
-58.68485752782919
 20
28.25806795288909
 10
-58.60469596556145
 20
28.22795237875304
 10
-58.52431702730804
 20
28.19841617392704
 10
-58.44372791288924
 20
28.16944060448484
 10
-58.36293582212532
 20
28.14100693650016
 10
-58.28194795483655
 20
28.11309643604674
 10
-58.20077151084321
 20
28.08569036919833
 10
-58.11941368996556
 20
28.05877000202865
 10
-58.03788169202389
 20
28.03231660061145
 10
-57.95618271683847
 20
28.00631143102046
 10
-57.87432396422956
 20
27.98073575932942
 10
-57.79231263401744
 20
27.95557085161206
 10
-57.71015592602238
 20
27.93079797394212
 10
-57.62786104006465
 20
27.90639839239335
 10
-57.54543517596454
 20
27.88235337303947
 10
-57.4628855335423
 20
27.85864418195422
 10
-57.38021931261823
 20
27.83525208521134
 10
-57.29744371301257
 20
27.81215834888457
 10
-57.21456593454561
 20
27.78934423904764
 10
-57.13159317703762
 20
27.76679102177429
 10
-57.04853264030887
 20
27.74447996313826
 10
-56.96539152417965
 20
27.72239232921329
 10
-56.88217702847022
 20
27.7005093860731
 10
-56.79889635300084
 20
27.67881239979144
 10
-56.71555669759181
 20
27.65728263644204
 10
-56.63216526206338
 20
27.63590136209865
 10
-56.54872924623583
 20
27.614649842835
 10
-56.46525584992943
 20
27.59350934472482
 10
-56.38175227296446
 20
27.57246113384185
 10
-56.2982257151612
 20
27.55148647625983
 10
-56.21468337633991
 20
27.5305666380525
 10
-56.13113245632085
 20
27.50968288529358
 10
-56.04758015492432
 20
27.48881648405683
 10
-55.96403367197058
 20
27.46794870041597
 10
-55.88050020727989
 20
27.44706080044475
 10
-55.79698696067254
 20
27.4261340502169
 10
-55.71350113196881
 20
27.40514971580616
 10
-55.63004992098896
 20
27.38408906328626
 10
-55.54664052755326
 20
27.36293335873094
 10
-55.46328015148198
 20
27.34166386821394
 10
-55.3799759925954
 20
27.32026185780899
 10
-55.2967352507138
 20
27.29870859358983
 10
-55.21356512565745
 20
27.2769853416302
 10
-55.1304728172466
 20
27.25507336800384
 10
-55.04746552530156
 20
27.23295393878448
 10
-54.96455044964258
 20
27.21060832004586
 10
-54.88173479008993
 20
27.18801777786171
 10
-54.79902574646389
 20
27.16516357830577
 10
-54.79902574646387
 20
27.16516357830577
 10
-54.72143144788725
 20
27.14383491621973
 10
-54.64370466835628
 20
27.12295856260123
 10
-54.5658550731768
 20
27.102502042446
 10
-54.48789232765471
 20
27.08243288074975
 10
-54.40982609709586
 20
27.06271860250819
 10
-54.33166604680614
 20
27.04332673271703
 10
-54.25342184209141
 20
27.024224796372
 10
-54.17510314825755
 20
27.0053803184688
 10
-54.09671963061043
 20
26.98676082400315
 10
-54.01828095445593
 20
26.96833383797077
 10
-53.93979678509991
 20
26.95006688536737
 10
-53.86127678784824
 20
26.93192749118866
 10
-53.7827306280068
 20
26.91388318043037
 10
-53.70416797088147
 20
26.8959014780882
 10
-53.62559848177809
 20
26.87794990915787
 10
-53.54703182600258
 20
26.8599959986351
 10
-53.46847766886078
 20
26.8420072715156
 10
-53.38994567565858
 20
26.82395125279508
 10
-53.31144551170183
 20
26.80579546746926
 10
-53.23298684229643
 20
26.78750744053385
 10
-53.15457933274823
 20
26.76905469698458
 10
-53.0762326483631
 20
26.75040476181715
 10
-52.99795645444693
 20
26.73152516002728
 10
-52.91976041630559
 20
26.71238341661068
 10
-52.84165419924494
 20
26.69294705656306
 10
-52.76364746857087
 20
26.67318360488016
 10
-52.68574988958924
 20
26.65306058655767
 10
-52.60797112760592
 20
26.63254552659131
 10
-52.53032084792678
 20
26.6116059499768
 10
-52.45280871585771
 20
26.59020938170985
 10
-52.37544439670457
 20
26.56832334678618
 10
-52.29823755577323
 20
26.5459153702015
 10
-52.22119785836956
 20
26.52295297695153
 10
-52.14433496979944
 20
26.49940369203198
 10
-52.06765855536875
 20
26.47523504043857
 10
-51.99117828038334
 20
26.45041454716701
 10
-51.91490381014911
 20
26.42490973721301
 10
-51.8388448099719
 20
26.39868813557229
 10
-51.83884480997189
 20
26.39868813557228
 10
-51.75702431004033
 20
26.36962664154661
 10
-51.67548840615104
 20
26.33985742855193
 10
-51.59422545839145
 20
26.30940922508661
 10
-51.51322382684898
 20
26.27831075964899
 10
-51.43247187161104
 20
26.24659076073743
 10
-51.35195795276506
 20
26.21427795685029
 10
-51.27167043039846
 20
26.18140107648592
 10
-51.19159766459866
 20
26.14798884814267
 10
-51.11172801545308
 20
26.11407000031891
 10
-51.03204984304915
 20
26.07967326151298
 10
-50.95255150747428
 20
26.04482736022325
 10
-50.8732213688159
 20
26.00956102494807
 10
-50.79404778716143
 20
25.97390298418579
 10
-50.71501912259829
 20
25.93788196643477
 10
-50.6361237352139
 20
25.90152670019336
 10
-50.55734998509568
 20
25.86486591395992
 10
-50.47868623233106
 20
25.82792833623281
 10
-50.40012083700744
 20
25.79074269551037
 10
-50.32164215921228
 20
25.75333772029098
 10
-50.24323855903297
 20
25.71574213907297
 10
-50.16489839655694
 20
25.67798468035471
 10
-50.0866100318716
 20
25.64009407263455
 10
-50.00836182506439
 20
25.60209904441085
 10
-49.93014213622273
 20
25.56402832418196
 10
-49.85193932543403
 20
25.52591064044624
 10
-49.77374175278571
 20
25.48777472170204
 10
-49.6955377783652
 20
25.44964929644772
 10
-49.61731576225993
 20
25.41156309318163
 10
-49.53906406455732
 20
25.37354484040213
 10
-49.46077104534476
 20
25.33562326660758
 10
-49.3824250647097
 20
25.29782710029633
 10
-49.30401448273957
 20
25.26018506996673
 10
-49.22552765952176
 20
25.22272590411714
 10
-49.14695295514373
 20
25.18547833124591
 10
-49.06827872969286
 20
25.14847107985141
 10
-48.9894933432566
 20
25.11173287843199
 10
-48.91058515592235
 20
25.075292455486
 10
-48.83154252777756
 20
25.03917853951179
 10
-48.75235381890963
 20
25.00341985900772
 10
-48.67300738940598
 20
24.96804514247215
 10
-48.59349159935405
 20
24.93308311840344
 10
-48.51379480884124
 20
24.89856251529993
 10
-48.43390537795499
 20
24.86451206165999
 10
-48.35381166678271
 20
24.83096048598196
 10
-48.27350203541182
 20
24.79793651676422
 10
-48.19296484392975
 20
24.76546888250509
 10
-48.11218845242391
 20
24.73358631170296
 10
-48.11218845242393
 20
24.73358631170296
 10
-48.02442659442704
 20
24.69931492628585
 10
-47.93663386882978
 20
24.66502294029689
 10
-47.84880563897846
 20
24.63073245069343
 10
-47.76093726821946
 20
24.59646555443284
 10
-47.67302411989912
 20
24.56224434847249
 10
-47.58506155736379
 20
24.52809092976972
 10
-47.4970449439598
 20
24.49402739528192
 10
-47.40896964303352
 20
24.46007584196643
 10
-47.32083101793127
 20
24.42625836678063
 10
-47.23262443199943
 20
24.39259706668187
 10
-47.14434524858432
 20
24.35911403862752
 10
-47.05598883103231
 20
24.32583137957495
 10
-46.96755054268974
 20
24.29277118648152
 10
-46.87902574690295
 20
24.25995555630457
 10
-46.7904098070183
 20
24.2274065860015
 10
-46.70169808638212
 20
24.19514637252964
 10
-46.61288594834077
 20
24.16319701284637
 10
-46.5239687562406
 20
24.13158060390906
 10
-46.43494187342795
 20
24.10031924267505
 10
-46.34580066324918
 20
24.06943502610172
 10
-46.25654048905063
 20
24.03895005114644
 10
-46.16715671417863
 20
24.00888641476655
 10
-46.07764470197956
 20
23.97926621391943
 10
-45.98799981579975
 20
23.95011154556244
 10
-45.89821741898555
 20
23.92144450665294
 10
-45.8082928748833
 20
23.89328719414829
 10
-45.71822154683936
 20
23.86566170500587
 10
-45.62799879820008
 20
23.83859013618302
 10
-45.5376199923118
 20
23.81209458463712
 10
-45.44708049252085
 20
23.78619714732552
 10
-45.35637566217362
 20
23.76091992120559
 10
-45.26550086461642
 20
23.73628500323469
 10
-45.17445146319561
 20
23.7123144903702
 10
-45.08322282125753
 20
23.68903047956946
 10
-44.99181030214855
 20
23.66645506778984
 10
-44.90020926921499
 20
23.6446103519887
 10
-44.80841508580322
 20
23.62351842912342
 10
-44.80841508580324
 20
23.62351842912342
 10
-44.6965800853246
 20
23.59866642416776
 10
-44.58455916195037
 20
23.57447482578812
 10
-44.4723588471615
 20
23.55094768609242
 10
-44.35998567243898
 20
23.52808905718857
 10
-44.24744616926377
 20
23.50590299118451
 10
-44.13474686911686
 20
23.48439354018815
 10
-44.0218943034792
 20
23.46356475630742
 10
-43.90889500383179
 20
23.44342069165025
 10
-43.7957555016556
 20
23.42396539832456
 10
-43.68248232843158
 20
23.40520292843827
 10
-43.56908201564073
 20
23.38713733409932
 10
-43.45556109476401
 20
23.36977266741561
 10
-43.3419260972824
 20
23.35311298049508
 10
-43.22818355467688
 20
23.33716232544566
 10
-43.11433999842839
 20
23.32192475437526
 10
-43.00040196001795
 20
23.30740431939182
 10
-42.88637597092651
 20
23.29360507260325
 10
-42.77226856263504
 20
23.28053106611748
 10
-42.65808626662452
 20
23.26818635204244
 10
-42.54383561437592
 20
23.25657498248604
 10
-42.42952313737022
 20
23.24570100955621
 10
-42.31515536708839
 20
23.23556848536088
 10
-42.2007388350114
 20
23.22618146200798
 10
-42.08628007262023
 20
23.21754399160542
 10
-41.97178561139586
 20
23.20966012626113
 10
-41.85726198281925
 20
23.20253391808304
 10
-41.74271571837139
 20
23.19616941917907
 10
-41.62815334953323
 20
23.19057068165714
 10
-41.51358140778576
 20
23.18574175762518
 10
-41.39900642460996
 20
23.18168669919111
 10
-41.28443493148679
 20
23.17840955846286
 10
-41.16987345989722
 20
23.17591438754835
 10
-41.05532854132223
 20
23.1742052385555
 10
-41.05532854132221
 20
23.1742052385555
 10
-40.96073214842163
 20
23.17350064500191
 10
-40.86612295637123
 20
23.17355032852766
 10
-40.77150507638893
 20
23.17434202252526
 10
-40.6768826196926
 20
23.17586346038723
 10
-40.58225969750016
 20
23.17810237550608
 10
-40.48764042102949
 20
23.1810465012743
 10
-40.3930289014985
 20
23.18468357108443
 10
-40.29842925012508
 20
23.18900131832894
 10
-40.20384557812713
 20
23.19398747640037
 10
-40.10928199672253
 20
23.19962977869121
 10
-40.0147426171292
 20
23.20591595859399
 10
-39.92023155056502
 20
23.21283374950119
 10
-39.82575290824789
 20
23.22037088480534
 10
-39.73131080139572
 20
23.22851509789895
 10
-39.63690934122638
 20
23.23725412217451
 10
-39.54255263895778
 20
23.24657569102456
 10
-39.44824480580782
 20
23.25646753784157
 10
-39.35398995299439
 20
23.26691739601808
 10
-39.2597921917354
 20
23.27791299894659
 10
-39.16565563324872
 20
23.28944208001961
 10
-39.07158438875227
 20
23.30149237262964
 10
-38.97758256946394
 20
23.31405161016919
 10
-38.88365428660161
 20
23.32710752603079
 10
-38.7898036513832
 20
23.34064785360692
 10
-38.69603477502661
 20
23.35466032629011
 10
-38.60235176874971
 20
23.36913267747286
 10
-38.50875874377041
 20
23.38405264054767
 10
-38.41525981130661
 20
23.39940794890707
 10
-38.32185908257619
 20
23.41518633594355
 10
-38.22856066879707
 20
23.43137553504963
 10
-38.13536868118712
 20
23.44796327961782
 10
-38.04228723096426
 20
23.46493730304062
 10
-38.04228723096428
 20
23.46493730304062
 10
-37.97956988569041
 20
23.47687997311925
 10
-37.91701071439633
 20
23.48951052027022
 10
-37.85460157418918
 20
23.50279207005261
 10
-37.79233432217612
 20
23.51668774802552
 10
-37.73020081546431
 20
23.531160679748
 10
-37.66819291116089
 20
23.54617399077916
 10
-37.60630246637301
 20
23.56169080667805
 10
-37.54452133820783
 20
23.57767425300376
 10
-37.4828413837725
 20
23.59408745531537
 10
-37.42125446017418
 20
23.61089353917196
 10
-37.35975242452003
 20
23.62805563013261
 10
-37.29832713391718
 20
23.64553685375639
 10
-37.23697044547279
 20
23.66330033560239
 10
-37.17567421629403
 20
23.68130920122968
 10
-37.11443030348803
 20
23.69952657619734
 10
-37.05323056416195
 20
23.71791558606445
 10
-36.99206685542295
 20
23.7364393563901
 10
-36.93093103437818
 20
23.75506101273335
 10
-36.86981495813479
 20
23.77374368065329
 10
-36.80871048379993
 20
23.792450485709
 10
-36.74760946848076
 20
23.81114455345955
 10
-36.68650376928443
 20
23.82978900946403
 10
-36.6253852433181
 20
23.8483469792815
 10
-36.5642457476889
 20
23.86678158847106
 10
-36.50307713950401
 20
23.88505596259178
  0
LWPOLYLINE
  5
250
330
1F
100
AcDbEntity
  8
Vector Layer 1
 62
    18
420
        0
370
    30
100
AcDbPolyline
 90
      213
 70
     0
 43
0.0
 10
-63.74174541539858
 20
27.0679153907172
 10
-63.66298307626935
 20
27.04828592626255
 10
-63.58413267601902
 20
27.02895956848619
 10
-63.50520410854379
 20
27.00990305212892
 10
-63.42620726773986
 20
26.99108311193151
 10
-63.34715204750345
 20
26.97246648263475
 10
-63.26804834173072
 20
26.95401989897942
 10
-63.1889060443179
 20
26.93571009570631
 10
-63.10973504916117
 20
26.9175038075562
 10
-63.03054525015674
 20
26.89936776926988
 10
-62.95134654120079
 20
26.88126871558813
 10
-62.87214881618955
 20
26.86317338125173
 10
-62.79296196901919
 20
26.84504850100147
 10
-62.71379589358591
 20
26.82686080957813
 10
-62.63466048378592
 20
26.8085770417225
 10
-62.55556563351543
 20
26.79016393217536
 10
-62.47652123667061
 20
26.77158821567749
 10
-62.39753718714767
 20
26.75281662696967
 10
-62.31862337884281
 20
26.73381590079271
 10
-62.23978970565223
 20
26.71455277188736
 10
-62.16104606147212
 20
26.69499397499443
 10
-62.08240234019869
 20
26.67510624485469
 10
-62.00386843572813
 20
26.65485631620893
 10
-61.92545424195664
 20
26.63421092379792
 10
-61.84716965278042
 20
26.61313680236247
 10
-61.76902456209568
 20
26.59160068664335
 10
-61.69102886379859
 20
26.56956931138133
 10
-61.61319245178537
 20
26.54700941131722
 10
-61.53552521995222
 20
26.52388772119179
 10
-61.45803706219532
 20
26.50017097574582
 10
-61.38073787241089
 20
26.4758259097201
 10
-61.30363754449511
 20
26.45081925785542
 10
-61.2267459723442
 20
26.42511775489255
 10
-61.15007304985433
 20
26.39868813557229
 10
-61.15007304985433
 20
26.39868813557228
 10
-61.06825254992278
 20
26.36962664154661
 10
-60.9867166460335
 20
26.33985742855193
 10
-60.90545369827391
 20
26.30940922508661
 10
-60.82445206673143
 20
26.27831075964899
 10
-60.74370011149349
 20
26.24659076073743
 10
-60.66318619264752
 20
26.21427795685029
 10
-60.58289867028092
 20
26.18140107648592
 10
-60.50282590448112
 20
26.14798884814267
 10
-60.42295625533554
 20
26.11407000031891
 10
-60.34327808293161
 20
26.07967326151298
 10
-60.26377974735674
 20
26.04482736022325
 10
-60.18444960869836
 20
26.00956102494807
 10
-60.10527602704389
 20
25.97390298418579
 10
-60.02624736248075
 20
25.93788196643477
 10
-59.94735197509636
 20
25.90152670019336
 10
-59.86857822497814
 20
25.86486591395992
 10
-59.78991447221352
 20
25.82792833623281
 10
-59.71134907688991
 20
25.79074269551037
 10
-59.63287039909474
 20
25.75333772029098
 10
-59.55446679891542
 20
25.71574213907297
 10
-59.47612663643939
 20
25.67798468035471
 10
-59.39783827175405
 20
25.64009407263455
 10
-59.31959006494684
 20
25.60209904441085
 10
-59.24137037610518
 20
25.56402832418196
 10
-59.16316756531648
 20
25.52591064044624
 10
-59.08496999266816
 20
25.48777472170204
 10
-59.00676601824766
 20
25.44964929644772
 10
-58.92854400214238
 20
25.41156309318163
 10
-58.85029230443976
 20
25.37354484040213
 10
-58.7719992852272
 20
25.33562326660758
 10
-58.69365330459214
 20
25.29782710029633
 10
-58.61524272262201
 20
25.26018506996673
 10
-58.5367558994042
 20
25.22272590411714
 10
-58.45818119502615
 20
25.18547833124591
 10
-58.37950696957528
 20
25.14847107985141
 10
-58.30072158313901
 20
25.11173287843199
 10
-58.22181339580478
 20
25.075292455486
 10
-58.14277076765997
 20
25.03917853951179
 10
-58.06358205879204
 20
25.00341985900772
 10
-57.9842356292884
 20
24.96804514247215
 10
-57.90471983923646
 20
24.93308311840344
 10
-57.82502304872366
 20
24.89856251529993
 10
-57.7451336178374
 20
24.86451206165999
 10
-57.66503990666512
 20
24.83096048598196
 10
-57.58473027529423
 20
24.79793651676422
 10
-57.50419308381216
 20
24.76546888250509
 10
-57.42341669230633
 20
24.73358631170296
 10
-57.4234166923063
 20
24.73358631170296
 10
-57.33565483430941
 20
24.69931492628585
 10
-57.24786210871214
 20
24.66502294029689
 10
-57.16003387886082
 20
24.63073245069343
 10
-57.07216550810183
 20
24.59646555443284
 10
-56.98425235978148
 20
24.56224434847249
 10
-56.89628979724613
 20
24.52809092976972
 10
-56.80827318384213
 20
24.49402739528192
 10
-56.72019788291585
 20
24.46007584196643
 10
-56.6320592578136
 20
24.42625836678063
 10
-56.54385267188175
 20
24.39259706668187
 10
-56.45557348846665
 20
24.35911403862752
 10
-56.36721707091464
 20
24.32583137957495
 10
-56.27877878257205
 20
24.29277118648152
 10
-56.19025398678527
 20
24.25995555630457
 10
-56.1016380469006
 20
24.2274065860015
 10
-56.01292632626442
 20
24.19514637252964
 10
-55.92411418822308
 20
24.16319701284637
 10
-55.8351969961229
 20
24.13158060390906
 10
-55.74617011331025
 20
24.10031924267505
 10
-55.65702890313147
 20
24.06943502610172
 10
-55.56776872893292
 20
24.03895005114644
 10
-55.47838495406093
 20
24.00888641476655
 10
-55.38887294186185
 20
23.97926621391943
 10
-55.29922805568204
 20
23.95011154556244
 10
-55.20944565886782
 20
23.92144450665294
 10
-55.11952111476558
 20
23.89328719414829
 10
-55.02944978672164
 20
23.86566170500587
 10
-54.93922703808235
 20
23.83859013618302
 10
-54.84884823219406
 20
23.81209458463712
 10
-54.75830873240312
 20
23.78619714732552
 10
-54.66760390205586
 20
23.76091992120559
 10
-54.57672910449866
 20
23.73628500323469
 10
-54.48567970307784
 20
23.7123144903702
 10
-54.39445106113978
 20
23.68903047956946
 10
-54.30303854203079
 20
23.66645506778984
 10
-54.21143750909724
 20
23.6446103519887
 10
-54.11964332568547
 20
23.62351842912342
 10
-54.11964332568547
 20
23.62351842912342
 10
-54.00780832520683
 20
23.59866642416776
 10
-53.89578740183259
 20
23.57447482578812
 10
-53.78358708704372
 20
23.55094768609242
 10
-53.67121391232119
 20
23.52808905718857
 10
-53.55867440914598
 20
23.50590299118451
 10
-53.44597510899905
 20
23.48439354018815
 10
-53.3331225433614
 20
23.46356475630742
 10
-53.22012324371399
 20
23.44342069165025
 10
-53.10698374153779
 20
23.42396539832456
 10
-52.99371056831377
 20
23.40520292843827
 10
-52.88031025552291
 20
23.38713733409932
 10
-52.76678933464619
 20
23.36977266741561
 10
-52.65315433716457
 20
23.35311298049508
 10
-52.53941179455903
 20
23.33716232544566
 10
-52.42556823831055
 20
23.32192475437526
 10
-52.3116301999001
 20
23.30740431939182
 10
-52.19760421080865
 20
23.29360507260325
 10
-52.08349680251718
 20
23.28053106611748
 10
-51.96931450650665
 20
23.26818635204244
 10
-51.85506385425805
 20
23.25657498248604
 10
-51.74075137725234
 20
23.24570100955621
 10
-51.62638360697052
 20
23.23556848536088
 10
-51.51196707489352
 20
23.22618146200798
 10
-51.39750831250236
 20
23.21754399160542
 10
-51.28301385127797
 20
23.20966012626113
 10
-51.16849022270136
 20
23.20253391808304
 10
-51.05394395825348
 20
23.19616941917907
 10
-50.93938158941533
 20
23.19057068165714
 10
-50.82480964766785
 20
23.18574175762518
 10
-50.71023466449204
 20
23.18168669919111
 10
-50.59566317136886
 20
23.17840955846286
 10
-50.48110169977929
 20
23.17591438754835
 10
-50.36655678120431
 20
23.1742052385555
 10
-50.36655678120432
 20
23.1742052385555
 10
-50.27196038830372
 20
23.17350064500191
 10
-50.17735119625332
 20
23.17355032852766
 10
-50.08273331627101
 20
23.17434202252526
 10
-49.9881108595747
 20
23.17586346038723
 10
-49.89348793738225
 20
23.17810237550608
 10
-49.79886866091159
 20
23.1810465012743
 10
-49.70425714138059
 20
23.18468357108443
 10
-49.60965749000717
 20
23.18900131832894
 10
-49.51507381800922
 20
23.19398747640037
 10
-49.42051023660463
 20
23.19962977869121
 10
-49.32597085701129
 20
23.20591595859399
 10
-49.23145979044711
 20
23.21283374950119
 10
-49.13698114812998
 20
23.22037088480534
 10
-49.04253904127781
 20
23.22851509789895
 10
-48.94813758110847
 20
23.23725412217451
 10
-48.85378087883987
 20
23.24657569102456
 10
-48.75947304568991
 20
23.25646753784157
 10
-48.66521819287648
 20
23.26691739601808
 10
-48.57102043161749
 20
23.27791299894659
 10
-48.4768838731308
 20
23.28944208001961
 10
-48.38281262863436
 20
23.30149237262964
 10
-48.28881080934603
 20
23.31405161016919
 10
-48.19488252648371
 20
23.32710752603079
 10
-48.1010318912653
 20
23.34064785360692
 10
-48.0072630149087
 20
23.35466032629011
 10
-47.9135800086318
 20
23.36913267747286
 10
-47.8199869836525
 20
23.38405264054767
 10
-47.7264880511887
 20
23.39940794890707
 10
-47.63308732245829
 20
23.41518633594355
 10
-47.53978890867917
 20
23.43137553504963
 10
-47.44659692106923
 20
23.44796327961782
 10
-47.35351547084636
 20
23.46493730304062
 10
-47.35351547084637
 20
23.46493730304062
 10
-47.29079812557251
 20
23.47687997311925
 10
-47.22823895427842
 20
23.48951052027022
 10
-47.16582981407128
 20
23.50279207005261
 10
-47.10356256205822
 20
23.51668774802552
 10
-47.04142905534641
 20
23.531160679748
 10
-46.97942115104299
 20
23.54617399077916
 10
-46.91753070625511
 20
23.56169080667805
 10
-46.85574957808993
 20
23.57767425300376
 10
-46.79406962365461
 20
23.59408745531537
 10
-46.73248270005628
 20
23.61089353917196
 10
-46.67098066440213
 20
23.62805563013261
 10
-46.60955537379928
 20
23.64553685375639
 10
-46.54819868535489
 20
23.66330033560239
 10
-46.48690245617612
 20
23.68130920122968
 10
-46.42565854337012
 20
23.69952657619734
 10
-46.36445880404404
 20
23.71791558606445
 10
-46.30329509530504
 20
23.7364393563901
 10
-46.24215927426027
 20
23.75506101273335
 10
-46.18104319801688
 20
23.77374368065329
 10
-46.11993872368201
 20
23.792450485709
 10
-46.05883770836284
 20
23.81114455345955
 10
-45.99773200916651
 20
23.82978900946403
 10
-45.93661348320018
 20
23.8483469792815
 10
-45.87547398757098
 20
23.86678158847106
 10
-45.81430537938609
 20
23.88505596259178
  0
LWPOLYLINE
  5
251
330
1F
100
AcDbEntity
  8
Vector Layer 1
 62
    18
420
        0
370
    30
100
AcDbPolyline
 90
       98
 70
     0
 43
0.0
 10
-63.74174541539858
 20
23.69950142943828
 10
-63.66344766703419
 20
23.67954879087888
 10
-63.58496969458432
 20
23.66025403744209
 10
-63.50631888874178
 20
23.64158722992468
 10
-63.4275026401994
 20
23.62351842912342
 10
-63.4275026401994
 20
23.62351842912342
 10
-63.31566763972077
 20
23.59866642416776
 10
-63.20364671634653
 20
23.57447482578812
 10
-63.09144640155765
 20
23.55094768609242
 10
-62.97907322683513
 20
23.52808905718857
 10
-62.86653372365992
 20
23.50590299118451
 10
-62.753834423513
 20
23.48439354018815
 10
-62.64098185787535
 20
23.46356475630742
 10
-62.52798255822793
 20
23.44342069165025
 10
-62.41484305605172
 20
23.42396539832456
 10
-62.30156988282772
 20
23.40520292843827
 10
-62.18816957003685
 20
23.38713733409932
 10
-62.07464864916013
 20
23.36977266741561
 10
-61.96101365167852
 20
23.35311298049508
 10
-61.84727110907298
 20
23.33716232544566
 10
-61.73342755282449
 20
23.32192475437526
 10
-61.61948951441404
 20
23.30740431939182
 10
-61.50546352532259
 20
23.29360507260325
 10
-61.39135611703111
 20
23.28053106611748
 10
-61.27717382102058
 20
23.26818635204244
 10
-61.16292316877199
 20
23.25657498248604
 10
-61.04861069176628
 20
23.24570100955621
 10
-60.93424292148445
 20
23.23556848536088
 10
-60.81982638940747
 20
23.22618146200798
 10
-60.70536762701629
 20
23.21754399160542
 10
-60.59087316579192
 20
23.20966012626113
 10
-60.4763495372153
 20
23.20253391808304
 10
-60.36180327276743
 20
23.19616941917907
 10
-60.24724090392927
 20
23.19057068165714
 10
-60.1326689621818
 20
23.18574175762518
 10
-60.01809397900599
 20
23.18168669919111
 10
-59.90352248588281
 20
23.17840955846286
 10
-59.78896101429324
 20
23.17591438754835
 10
-59.67441609571825
 20
23.1742052385555
 10
-59.67441609571827
 20
23.1742052385555
 10
-59.57981970281768
 20
23.17350064500191
 10
-59.48521051076728
 20
23.17355032852766
 10
-59.39059263078497
 20
23.17434202252526
 10
-59.29597017408864
 20
23.17586346038723
 10
-59.2013472518962
 20
23.17810237550608
 10
-59.10672797542553
 20
23.1810465012743
 10
-59.01211645589454
 20
23.18468357108443
 10
-58.91751680452112
 20
23.18900131832894
 10
-58.82293313252316
 20
23.19398747640037
 10
-58.72836955111857
 20
23.19962977869121
 10
-58.63383017152523
 20
23.20591595859399
 10
-58.53931910496105
 20
23.21283374950119
 10
-58.44484046264392
 20
23.22037088480534
 10
-58.35039835579173
 20
23.22851509789895
 10
-58.2559968956224
 20
23.23725412217451
 10
-58.1616401933538
 20
23.24657569102456
 10
-58.06733236020384
 20
23.25646753784157
 10
-57.97307750739041
 20
23.26691739601808
 10
-57.87887974613141
 20
23.27791299894659
 10
-57.78474318764473
 20
23.28944208001961
 10
-57.69067194314828
 20
23.30149237262964
 10
-57.59667012385994
 20
23.31405161016919
 10
-57.50274184099762
 20
23.32710752603079
 10
-57.40889120577922
 20
23.34064785360692
 10
-57.31512232942261
 20
23.35466032629011
 10
-57.2214393231457
 20
23.36913267747286
 10
-57.12784629816639
 20
23.38405264054767
 10
-57.03434736570258
 20
23.39940794890707
 10
-56.94094663697217
 20
23.41518633594355
 10
-56.84764822319305
 20
23.43137553504963
 10
-56.7544562355831
 20
23.44796327961782
 10
-56.66137478536025
 20
23.46493730304062
 10
-56.66137478536025
 20
23.46493730304062
 10
-56.59865744008637
 20
23.47687997311925
 10
-56.53609826879229
 20
23.48951052027022
 10
-56.47368912858514
 20
23.50279207005261
 10
-56.41142187657208
 20
23.51668774802552
 10
-56.34928836986026
 20
23.531160679748
 10
-56.28728046555683
 20
23.54617399077916
 10
-56.22539002076895
 20
23.56169080667805
 10
-56.16360889260377
 20
23.57767425300376
 10
-56.10192893816845
 20
23.59408745531537
 10
-56.04034201457013
 20
23.61089353917196
 10
-55.97883997891596
 20
23.62805563013261
 10
-55.91741468831312
 20
23.64553685375639
 10
-55.85605799986873
 20
23.66330033560239
 10
-55.79476177068996
 20
23.68130920122968
 10
-55.73351785788396
 20
23.69952657619734
 10
-55.67231811855788
 20
23.71791558606445
 10
-55.61115440981888
 20
23.7364393563901
 10
-55.5500185887741
 20
23.75506101273335
 10
-55.48890251253071
 20
23.77374368065329
 10
-55.42779803819585
 20
23.792450485709
 10
-55.36669702287667
 20
23.81114455345955
 10
-55.30559132368034
 20
23.82978900946403
 10
-55.24447279771401
 20
23.8483469792815
 10
-55.18333330208481
 20
23.86678158847106
 10
-55.1221646938999
 20
23.88505596259178
  0
LWPOLYLINE
  5
252
330
1F
100
AcDbEntity
  8
Vector Layer 1
 62
    18
420
        0
370
    30
100
AcDbPolyline
 90
      349
 70
     0
 43
0.0
 10
-30.1770065244172
 20
34.08269895703963
 10
-27.11110484019333
 20
32.18689923759419
 10
-27.11110484019333
 20
32.18689923759419
 10
-27.0242431727168
 20
32.13310307297426
 10
-26.93755585602525
 20
32.07897749679779
 10
-26.85103496508298
 20
32.02453748231734
 10
-26.76467257485433
 20
31.96979800278548
 10
-26.67846076030361
 20
31.9147740314548
 10
-26.59239159639515
 20
31.85948054157784
 10
-26.50645715809325
 20
31.8039325064072
 10
-26.42064952036225
 20
31.74814489919543
 10
-26.33496075816645
 20
31.69213269319511
 10
-26.24938294647018
 20
31.6359108616588
 10
-26.16390816023776
 20
31.57949437783909
 10
-26.07852847443351
 20
31.52289821498853
 10
-25.99323596402174
 20
31.46613734635969
 10
-25.90802270396678
 20
31.40922674520516
 10
-25.82288076923295
 20
31.35218138477748
 10
-25.73780223478456
 20
31.29501623832926
 10
-25.65277917558594
 20
31.23774627911303
 10
-25.5678036666014
 20
31.18038648038139
 10
-25.48286778279527
 20
31.1229518153869
 10
-25.39796359913185
 20
31.06545725738213
 10
-25.31308319057548
 20
31.00791777961964
 10
-25.22821863209046
 20
30.95034835535201
 10
-25.14336199864113
 20
30.89276395783182
 10
-25.0585053651918
 20
30.83517956031162
 10
-24.97364080670679
 20
30.777610136044
 10
-24.88876039815042
 20
30.72007065828151
 10
-24.80385621448701
 20
30.66257610027674
 10
-24.71892033068087
 20
30.60514143528225
 10
-24.63394482169633
 20
30.5477816365506
 10
-24.5489217624977
 20
30.49051167733438
 10
-24.46384322804931
 20
30.43334653088615
 10
-24.37870129331548
 20
30.37630117045849
 10
-24.29348803326052
 20
30.31939056930395
 10
-24.20819552284875
 20
30.26262970067512
 10
-24.1228158370445
 20
30.20603353782455
 10
-24.03734105081208
 20
30.14961705400484
 10
-23.95176323911581
 20
30.09339522246853
 10
-23.86607447692002
 20
30.03738301646821
 10
-23.78026683918901
 20
29.98159540925644
 10
-23.69433240088711
 20
29.9260473740858
 10
-23.60826323697865
 20
29.87075388420884
 10
-23.52205142242793
 20
29.81572991287816
 10
-23.43568903219928
 20
29.7609904333463
 10
-23.34916814125701
 20
29.70655041886585
 10
-23.26248082456546
 20
29.65242484268938
 10
-23.17561915708893
 20
29.59862867806945
 10
-23.08857521379174
 20
29.54517689825864
 10
-23.00134106963822
 20
29.49208447650951
 10
-22.91390879959269
 20
29.43936638607464
 10
-22.82627047861945
 20
29.38703760020659
 10
-22.73841818168284
 20
29.33511309215794
 10
-22.65034398374718
 20
29.28360783518126
 10
-22.56203995977677
 20
29.23253680252911
 10
-22.47349818473594
 20
29.18191496745407
 10
-22.38471073358902
 20
29.13175730320871
 10
-22.29566968130032
 20
29.08207878304559
 10
-22.20636710283415
 20
29.03289438021729
 10
-22.11679507315485
 20
28.98421906797638
 10
-22.02694566722672
 20
28.93606781957543
 10
-21.93681096001409
 20
28.888455608267
 10
-21.84638302648127
 20
28.84139740730367
 10
-21.7556539415926
 20
28.79490818993802
 10
-21.66461578031237
 20
28.7490029294226
 10
-21.57326061760493
 20
28.70369659900999
 10
-21.48158052843457
 20
28.65900417195275
 10
-21.38956758776563
 20
28.61494062150347
 10
-21.29721387056243
 20
28.57152092091471
 10
-21.20451145178927
 20
28.52876004343904
 10
-21.11145240641048
 20
28.48667296232903
 10
-21.1114524064105
 20
28.48667296232904
 10
-21.03301407101005
 20
28.45197725308724
 10
-20.95430796088203
 20
28.41799205063935
 10
-20.87534127584671
 20
28.38469862105908
 10
-20.79612121572435
 20
28.35207823042019
 10
-20.71665498033524
 20
28.3201121447964
 10
-20.63694976949965
 20
28.28878163026145
 10
-20.55701278303784
 20
28.25806795288909
 10
-20.4768512207701
 20
28.22795237875304
 10
-20.39647228251669
 20
28.19841617392704
 10
-20.31588316809789
 20
28.16944060448484
 10
-20.23509107733397
 20
28.14100693650016
 10
-20.1541032100452
 20
28.11309643604674
 10
-20.07292676605186
 20
28.08569036919833
 10
-19.99156894517421
 20
28.05877000202865
 10
-19.91003694723254
 20
28.03231660061145
 10
-19.82833797204711
 20
28.00631143102046
 10
-19.74647921943819
 20
27.98073575932942
 10
-19.66446788922607
 20
27.95557085161206
 10
-19.58231118123101
 20
27.93079797394212
 10
-19.50001629527329
 20
27.90639839239335
 10
-19.41759043117317
 20
27.88235337303947
 10
-19.33504078875093
 20
27.85864418195422
 10
-19.25237456782685
 20
27.83525208521134
 10
-19.16959896822119
 20
27.81215834888457
 10
-19.08672118975423
 20
27.78934423904764
 10
-19.00374843224625
 20
27.76679102177429
 10
-18.9206878955175
 20
27.74447996313826
 10
-18.83754677938828
 20
27.72239232921329
 10
-18.75433228367884
 20
27.7005093860731
 10
-18.67105160820947
 20
27.67881239979144
 10
-18.58771195280043
 20
27.65728263644204
 10
-18.504320517272
 20
27.63590136209865
 10
-18.42088450144446
 20
27.614649842835
 10
-18.33741110513806
 20
27.59350934472482
 10
-18.25390752817309
 20
27.57246113384185
 10
-18.17038097036983
 20
27.55148647625983
 10
-18.08683863154853
 20
27.5305666380525
 10
-18.00328771152948
 20
27.50968288529358
 10
-17.91973541013295
 20
27.48881648405683
 10
-17.8361889271792
 20
27.46794870041597
 10
-17.75265546248852
 20
27.44706080044475
 10
-17.66914221588117
 20
27.4261340502169
 10
-17.58565638717744
 20
27.40514971580616
 10
-17.50220517619758
 20
27.38408906328626
 10
-17.41879578276188
 20
27.36293335873094
 10
-17.33543540669061
 20
27.34166386821394
 10
-17.25213124780404
 20
27.32026185780899
 10
-17.16889050592244
 20
27.29870859358983
 10
-17.08572038086608
 20
27.2769853416302
 10
-17.00262807245524
 20
27.25507336800384
 10
-16.9196207805102
 20
27.23295393878448
 10
-16.83670570485121
 20
27.21060832004586
 10
-16.75389004529856
 20
27.18801777786171
 10
-16.67118100167252
 20
27.16516357830577
 10
-16.67118100167252
 20
27.16516357830577
 10
-16.59358670309591
 20
27.14383491621973
 10
-16.51585992356493
 20
27.12295856260123
 10
-16.43801032838545
 20
27.102502042446
 10
-16.36004758286336
 20
27.08243288074975
 10
-16.28198135230451
 20
27.06271860250819
 10
-16.20382130201479
 20
27.04332673271703
 10
-16.12557709730006
 20
27.024224796372
 10
-16.0472584034662
 20
27.0053803184688
 10
-15.96887488581908
 20
26.98676082400315
 10
-15.89043620966457
 20
26.96833383797077
 10
-15.81195204030854
 20
26.95006688536737
 10
-15.73343204305688
 20
26.93192749118866
 10
-15.65488588321544
 20
26.91388318043037
 10
-15.5763232260901
 20
26.8959014780882
 10
-15.49775373698674
 20
26.87794990915787
 10
-15.41918708121122
 20
26.8599959986351
 10
-15.34063292406942
 20
26.8420072715156
 10
-15.26210093086721
 20
26.82395125279508
 10
-15.18360076691046
 20
26.80579546746926
 10
-15.10514209750506
 20
26.78750744053385
 10
-15.02673458795686
 20
26.76905469698458
 10
-14.94838790357173
 20
26.75040476181715
 10
-14.87011170965556
 20
26.73152516002728
 10
-14.79191567151422
 20
26.71238341661068
 10
-14.71380945445357
 20
26.69294705656306
 10
-14.6358027237795
 20
26.67318360488016
 10
-14.55790514479786
 20
26.65306058655767
 10
-14.48012638281454
 20
26.63254552659131
 10
-14.4024761031354
 20
26.6116059499768
 10
-14.32496397106633
 20
26.59020938170985
 10
-14.24759965191318
 20
26.56832334678618
 10
-14.17039281098184
 20
26.5459153702015
 10
-14.09335311357817
 20
26.52295297695153
 10
-14.01649022500805
 20
26.49940369203198
 10
-13.93981381057736
 20
26.47523504043857
 10
-13.86333353559195
 20
26.45041454716701
 10
-13.78705906535772
 20
26.42490973721301
 10
-13.71100006518051
 20
26.39868813557229
 10
-13.71100006518052
 20
26.39868813557228
 10
-13.62917956524896
 20
26.36962664154661
 10
-13.54764366135967
 20
26.33985742855193
 10
-13.46638071360008
 20
26.30940922508661
 10
-13.38537908205761
 20
26.27831075964899
 10
-13.30462712681967
 20
26.24659076073743
 10
-13.22411320797369
 20
26.21427795685029
 10
-13.14382568560708
 20
26.18140107648592
 10
-13.06375291980728
 20
26.14798884814267
 10
-12.98388327066171
 20
26.11407000031891
 10
-12.90420509825777
 20
26.07967326151298
 10
-12.82470676268291
 20
26.04482736022325
 10
-12.74537662402452
 20
26.00956102494807
 10
-12.66620304237005
 20
25.97390298418579
 10
-12.58717437780691
 20
25.93788196643477
 10
-12.50827899042252
 20
25.90152670019336
 10
-12.4295052403043
 20
25.86486591395992
 10
-12.35084148753968
 20
25.82792833623281
 10
-12.27227609221607
 20
25.79074269551037
 10
-12.19379741442089
 20
25.75333772029098
 10
-12.11539381424158
 20
25.71574213907297
 10
-12.03705365176555
 20
25.67798468035471
 10
-11.95876528708021
 20
25.64009407263455
 10
-11.880517080273
 20
25.60209904441085
 10
-11.80229739143134
 20
25.56402832418196
 10
-11.72409458064264
 20
25.52591064044624
 10
-11.64589700799433
 20
25.48777472170204
 10
-11.56769303357382
 20
25.44964929644772
 10
-11.48947101746855
 20
25.41156309318163
 10
-11.41121931976593
 20
25.37354484040213
 10
-11.33292630055338
 20
25.33562326660758
 10
-11.25458031991832
 20
25.29782710029633
 10
-11.17616973794818
 20
25.26018506996673
 10
-11.09768291473038
 20
25.22272590411714
 10
-11.01910821035233
 20
25.18547833124591
 10
-10.94043398490146
 20
25.14847107985141
 10
-10.8616485984652
 20
25.11173287843199
 10
-10.78274041113096
 20
25.075292455486
 10
-10.70369778298617
 20
25.03917853951179
 10
-10.62450907411824
 20
25.00341985900772
 10
-10.54516264461459
 20
24.96804514247215
 10
-10.46564685456266
 20
24.93308311840344
 10
-10.38595006404985
 20
24.89856251529993
 10
-10.30606063316359
 20
24.86451206165999
 10
-10.22596692199131
 20
24.83096048598196
 10
-10.14565729062043
 20
24.79793651676422
 10
-10.06512009913836
 20
24.76546888250509
 10
-9.984343707632525
 20
24.73358631170296
 10
-9.984343707632527
 20
24.73358631170296
 10
-9.896581849635644
 20
24.69931492628585
 10
-9.808789124038376
 20
24.66502294029689
 10
-9.72096089418707
 20
24.63073245069343
 10
-9.633092523428073
 20
24.59646555443284
 10
-9.545179375107732
 20
24.56224434847249
 10
-9.457216812572395
 20
24.52809092976972
 10
-9.369200199168412
 20
24.49402739528192
 10
-9.281124898242127
 20
24.46007584196643
 10
-9.19298627313989
 20
24.42625836678063
 10
-9.104779687208049
 20
24.39259706668187
 10
-9.016500503792951
 20
24.35911403862752
 10
-8.928144086240942
 20
24.32583137957495
 10
-8.839705797898373
 20
24.29277118648152
 10
-8.751181002111588
 20
24.25995555630457
 10
-8.662565062226937
 20
24.2274065860015
 10
-8.573853341590767
 20
24.19514637252964
 10
-8.485041203549426
 20
24.16319701284637
 10
-8.396124011449261
 20
24.13158060390906
 10
-8.30709712863662
 20
24.10031924267505
 10
-8.21795591845785
 20
24.06943502610172
 10
-8.128695744259299
 20
24.03895005114644
 10
-8.039311969387316
 20
24.00888641476655
 10
-7.949799957188247
 20
23.97926621391943
 10
-7.86015507100844
 20
23.95011154556244
 10
-7.770372674194243
 20
23.92144450665294
 10
-7.680448130092003
 20
23.89328719414829
 10
-7.590376802048068
 20
23.86566170500587
 10
-7.500154053408786
 20
23.83859013618302
 10
-7.409775247520505
 20
23.81209458463712
 10
-7.319235747729571
 20
23.78619714732552
 10
-7.228530917382333
 20
23.76091992120559
 10
-7.137656119825138
 20
23.73628500323469
 10
-7.046606718404334
 20
23.7123144903702
 10
-6.955378076466269
 20
23.68903047956946
 10
-6.86396555735729
 20
23.66645506778984
 10
-6.772364524423744
 20
23.6446103519887
 10
-6.680570341011981
 20
23.62351842912342
 10
-6.680570341011975
 20
23.62351842912342
 10
-6.568735340533348
 20
23.59866642416776
 10
-6.456714417159117
 20
23.57447482578812
 10
-6.344514102370256
 20
23.55094768609242
 10
-6.232140927647738
 20
23.52808905718857
 10
-6.119601424472537
 20
23.50590299118451
 10
-6.006902124325627
 20
23.48439354018815
 10
-5.894049558687981
 20
23.46356475630742
 10
-5.781050259040574
 20
23.44342069165025
 10
-5.667910756864379
 20
23.42396539832456
 10
-5.554637583640369
 20
23.40520292843827
 10
-5.441237270849519
 20
23.38713733409932
 10
-5.327716349972803
 20
23.36977266741561
 10
-5.214081352491193
 20
23.35311298049508
 10
-5.100338809885665
 20
23.33716232544566
 10
-4.98649525363719
 20
23.32192475437526
 10
-4.872557215226743
 20
23.30740431939182
 10
-4.758531226135299
 20
23.29360507260325
 10
-4.64442381784383
 20
23.28053106611748
 10
-4.53024152183331
 20
23.26818635204244
 10
-4.415990869584714
 20
23.25657498248604
 10
-4.301678392579014
 20
23.24570100955621
 10
-4.187310622297185
 20
23.23556848536088
 10
-4.0728940902202
 20
23.22618146200798
 10
-3.958435327829034
 20
23.21754399160542
 10
-3.843940866604659
 20
23.20966012626113
 10
-3.72941723802805
 20
23.20253391808304
 10
-3.61487097358018
 20
23.19616941917907
 10
-3.500308604742023
 20
23.19057068165714
 10
-3.385736662994553
 20
23.18574175762518
 10
-3.271161679818743
 20
23.18168669919111
 10
-3.156590186695568
 20
23.17840955846286
 10
-3.042028715106
 20
23.17591438754835
 10
-2.927483796531014
 20
23.1742052385555
 10
-2.927483796531016
 20
23.1742052385555
 10
-2.832887403630429
 20
23.17350064500191
 10
-2.738278211580034
 20
23.17355032852766
 10
-2.643660331597727
 20
23.17434202252526
 10
-2.549037874901404
 20
23.17586346038723
 10
-2.454414952708963
 20
23.17810237550608
 10
-2.359795676238299
 20
23.1810465012743
 10
-2.265184156707308
 20
23.18468357108443
 10
-2.170584505333887
 20
23.18900131832894
 10
-2.076000833335932
 20
23.19398747640037
 10
-1.98143725193134
 20
23.19962977869121
 10
-1.886897872338006
 20
23.20591595859399
 10
-1.792386805773827
 20
23.21283374950119
 10
-1.6979081634567
 20
23.22037088480534
 10
-1.60346605660452
 20
23.22851509789895
 10
-1.509064596435183
 20
23.23725412217451
 10
-1.414707894166587
 20
23.24657569102456
 10
-1.320400061016627
 20
23.25646753784157
 10
-1.2261452082032
 20
23.26691739601808
 10
-1.131947446944201
 20
23.27791299894659
 10
-1.037810888457528
 20
23.28944208001961
 10
-0.9437396439610772
 20
23.30149237262964
 10
-0.8497378246727434
 20
23.31405161016919
 10
-0.7558095418104239
 20
23.32710752603079
 10
-0.6619589065920147
 20
23.34064785360692
 10
-0.5681900302354121
 20
23.35466032629011
 10
-0.4745070239585126
 20
23.36913267747286
 10
-0.3809139989792121
 20
23.38405264054767
 10
-0.2874150665154072
 20
23.39940794890707
 10
-0.1940143377849942
 20
23.41518633594355
 10
-0.1007159240058693
 20
23.43137553504963
 10
-0.0075239363959287
 20
23.44796327961782
 10
0.0855575138269312
 20
23.46493730304062
 10
0.085557513826931
 20
23.46493730304062
 10
0.149615848797976
 20
23.47714333364799
 10
0.2135096442837802
 20
23.49006637052799
 10
0.2772478751653567
 20
23.50366730424758
 10
0.3408395163237189
 20
23.51790702537369
 10
0.4042935426398797
 20
23.53274642447329
 10
0.4676189289948524
 20
23.54814639211332
 10
0.5308246502696499
 20
23.56406781886071
 10
0.5939196813452856
 20
23.58047159528242
 10
0.6569129971027723
 20
23.5973186119454
 10
0.7198135724231234
 20
23.61456975941659
 10
0.782630382187352
 20
23.63218592826295
 10
0.8453724012764711
 20
23.65012800905141
 10
0.9080486045714939
 20
23.66835689234893
 10
0.9706679669534336
 20
23.68683346872245
 10
1.033239463303303
 20
23.70551862873892
 10
1.095772068502116
 20
23.72437326296528
 10
1.158274757430885
 20
23.74335826196849
 10
1.220756504970623
 20
23.76243451631548
 10
1.283226286002344
 20
23.78156291657322
 10
1.345693075407061
 20
23.80070435330863
 10
1.408165848065786
 20
23.81981971708868
 10
1.470653578859533
 20
23.83886989848031
 10
1.533165242669316
 20
23.85781578805046
 10
1.595709814376146
 20
23.87661827636609
 10
1.658296268861037
 20
23.89523825399413
 10
1.720933581005003
 20
23.91363661150155
 10
1.783630725689057
 20
23.93177423945527
 10
1.846396677794211
 20
23.94961202842226
 10
1.909240412201479
 20
23.96711086896946
  0
LWPOLYLINE
  5
253
330
1F
100
AcDbEntity
  8
Vector Layer 1
 62
    18
420
        0
370
    30
100
AcDbPolyline
 90
      349
 70
     0
 43
0.0
 10
-20.47536992236123
 20
34.08269895703963
 10
-17.40946823813736
 20
32.18689923759419
 10
-17.40946823813737
 20
32.18689923759419
 10
-17.32260657066084
 20
32.13310307297426
 10
-17.23591925396928
 20
32.07897749679779
 10
-17.14939836302702
 20
32.02453748231734
 10
-17.06303597279837
 20
31.96979800278548
 10
-16.97682415824765
 20
31.9147740314548
 10
-16.89075499433918
 20
31.85948054157784
 10
-16.80482055603729
 20
31.8039325064072
 10
-16.71901291830629
 20
31.74814489919543
 10
-16.63332415611049
 20
31.69213269319511
 10
-16.54774634441422
 20
31.6359108616588
 10
-16.4622715581818
 20
31.57949437783909
 10
-16.37689187237755
 20
31.52289821498853
 10
-16.29159936196578
 20
31.46613734635969
 10
-16.20638610191083
 20
31.40922674520516
 10
-16.12124416717699
 20
31.35218138477748
 10
-16.0361656327286
 20
31.29501623832926
 10
-15.95114257352998
 20
31.23774627911303
 10
-15.86616706454544
 20
31.18038648038139
 10
-15.7812311807393
 20
31.1229518153869
 10
-15.69632699707589
 20
31.06545725738213
 10
-15.61144658851952
 20
31.00791777961964
 10
-15.5265820300345
 20
30.95034835535201
 10
-15.44172539658517
 20
30.89276395783182
 10
-15.35686876313584
 20
30.83517956031162
 10
-15.27200420465083
 20
30.777610136044
 10
-15.18712379609446
 20
30.72007065828151
 10
-15.10221961243104
 20
30.66257610027674
 10
-15.01728372862491
 20
30.60514143528225
 10
-14.93230821964037
 20
30.5477816365506
 10
-14.84728516044174
 20
30.49051167733438
 10
-14.76220662599335
 20
30.43334653088615
 10
-14.67706469125952
 20
30.37630117045849
 10
-14.59185143120456
 20
30.31939056930395
 10
-14.5065589207928
 20
30.26262970067512
 10
-14.42117923498854
 20
30.20603353782455
 10
-14.33570444875613
 20
30.14961705400484
 10
-14.25012663705986
 20
30.09339522246853
 10
-14.16443787486406
 20
30.03738301646821
 10
-14.07863023713305
 20
29.98159540925644
 10
-13.99269579883116
 20
29.9260473740858
 10
-13.90662663492269
 20
29.87075388420884
 10
-13.82041482037197
 20
29.81572991287816
 10
-13.73405243014332
 20
29.7609904333463
 10
-13.64753153920106
 20
29.70655041886585
 10
-13.5608442225095
 20
29.65242484268938
 10
-13.47398255503297
 20
29.59862867806945
 10
-13.38693861173579
 20
29.54517689825864
 10
-13.29970446758227
 20
29.49208447650951
 10
-13.21227219753673
 20
29.43936638607464
 10
-13.1246338765635
 20
29.38703760020659
 10
-13.03678157962689
 20
29.33511309215794
 10
-12.94870738169122
 20
29.28360783518126
 10
-12.86040335772082
 20
29.23253680252911
 10
-12.77186158268
 20
29.18191496745407
 10
-12.68307413153307
 20
29.13175730320871
 10
-12.59403307924437
 20
29.08207878304559
 10
-12.5047305007782
 20
29.03289438021729
 10
-12.4151584710989
 20
28.98421906797638
 10
-12.32530906517077
 20
28.93606781957543
 10
-12.23517435795814
 20
28.888455608267
 10
-12.14474642442533
 20
28.84139740730367
 10
-12.05401733953665
 20
28.79490818993802
 10
-11.96297917825642
 20
28.7490029294226
 10
-11.87162401554898
 20
28.70369659900999
 10
-11.77994392637862
 20
28.65900417195275
 10
-11.68793098570968
 20
28.61494062150347
 10
-11.59557726850648
 20
28.57152092091471
 10
-11.50287484973332
 20
28.52876004343904
 10
-11.40981580435454
 20
28.48667296232903
 10
-11.40981580435454
 20
28.48667296232904
 10
-11.3313774689541
 20
28.45197725308724
 10
-11.25267135882607
 20
28.41799205063935
 10
-11.17370467379075
 20
28.38469862105908
 10
-11.09448461366839
 20
28.35207823042019
 10
-11.01501837827928
 20
28.3201121447964
 10
-10.93531316744368
 20
28.28878163026145
 10
-10.85537618098188
 20
28.25806795288909
 10
-10.77521461871413
 20
28.22795237875304
 10
-10.69483568046073
 20
28.19841617392704
 10
-10.61424656604192
 20
28.16944060448484
 10
-10.533454475278
 20
28.14100693650016
 10
-10.45246660798923
 20
28.11309643604674
 10
-10.37129016399589
 20
28.08569036919833
 10
-10.28993234311825
 20
28.05877000202865
 10
-10.20840034517657
 20
28.03231660061145
 10
-10.12670136999114
 20
28.00631143102046
 10
-10.04484261738223
 20
27.98073575932942
 10
-9.962831287170107
 20
27.95557085161206
 10
-9.880674579175046
 20
27.93079797394212
 10
-9.79837969321732
 20
27.90639839239335
 10
-9.715953829117202
 20
27.88235337303947
 10
-9.633404186694964
 20
27.85864418195422
 10
-9.550737965770879
 20
27.83525208521134
 10
-9.46796236616522
 20
27.81215834888457
 10
-9.38508458769826
 20
27.78934423904764
 10
-9.302111830190272
 20
27.76679102177429
 10
-9.219051293461529
 20
27.74447996313826
 10
-9.135910177332302
 20
27.72239232921329
 10
-9.052695681622866
 20
27.7005093860731
 10
-8.969415006153493
 20
27.67881239979144
 10
-8.886075350744455
 20
27.65728263644204
 10
-8.802683915216025
 20
27.63590136209865
 10
-8.719247899388475
 20
27.614649842835
 10
-8.63577450308208
 20
27.59350934472482
 10
-8.552270926117111
 20
27.57246113384185
 10
-8.468744368313842
 20
27.55148647625983
 10
-8.385202029492544
 20
27.5305666380525
 10
-8.301651109473493
 20
27.50968288529358
 10
-8.218098808076957
 20
27.48881648405683
 10
-8.134552325123213
 20
27.46794870041597
 10
-8.051018860432531
 20
27.44706080044475
 10
-7.967505613825186
 20
27.4261340502169
 10
-7.884019785121449
 20
27.40514971580616
 10
-7.800568574141594
 20
27.38408906328626
 10
-7.717159180705893
 20
27.36293335873094
 10
-7.633798804634619
 20
27.34166386821394
 10
-7.550494645748044
 20
27.32026185780899
 10
-7.467253903866443
 20
27.29870859358983
 10
-7.384083778810087
 20
27.2769853416302
 10
-7.300991470399248
 20
27.25507336800384
 10
-7.2179841784542
 20
27.23295393878448
 10
-7.135069102795216
 20
27.21060832004586
 10
-7.052253443242568
 20
27.18801777786171
 10
-6.96954439961653
 20
27.16516357830577
 10
-6.969544399616529
 20
27.16516357830577
 10
-6.891950101039916
 20
27.14383491621973
 10
-6.814223321508936
 20
27.12295856260123
 10
-6.736373726329462
 20
27.102502042446
 10
-6.658410980807366
 20
27.08243288074975
 10
-6.580344750248521
 20
27.06271860250819
 10
-6.502184699958798
 20
27.04332673271703
 10
-6.423940495244069
 20
27.024224796372
 10
-6.345621801410208
 20
27.0053803184688
 10
-6.267238283763087
 20
26.98676082400315
 10
-6.188799607608578
 20
26.96833383797077
 10
-6.110315438252553
 20
26.95006688536737
 10
-6.031795441000885
 20
26.93192749118866
 10
-5.953249281159446
 20
26.91388318043037
 10
-5.874686624034108
 20
26.8959014780882
 10
-5.796117134930744
 20
26.87794990915787
 10
-5.717550479155226
 20
26.8599959986351
 10
-5.638996322013427
 20
26.8420072715156
 10
-5.560464328811218
 20
26.82395125279508
 10
-5.481964164854473
 20
26.80579546746926
 10
-5.403505495449064
 20
26.78750744053385
 10
-5.325097985900861
 20
26.76905469698458
 10
-5.24675130151574
 20
26.75040476181715
 10
-5.16847510759957
 20
26.73152516002728
 10
-5.090279069458225
 20
26.71238341661068
 10
-5.012172852397577
 20
26.69294705656306
 10
-4.934166121723499
 20
26.67318360488016
 10
-4.856268542741863
 20
26.65306058655767
 10
-4.778489780758541
 20
26.63254552659131
 10
-4.700839501079405
 20
26.6116059499768
 10
-4.623327369010328
 20
26.59020938170985
 10
-4.545963049857182
 20
26.56832334678618
 10
-4.468756208925841
 20
26.5459153702015
 10
-4.391716511522174
 20
26.52295297695153
 10
-4.314853622952056
 20
26.49940369203198
 10
-4.238177208521358
 20
26.47523504043857
 10
-4.161696933535954
 20
26.45041454716701
 10
-4.085422463301715
 20
26.42490973721301
 10
-4.009363463124514
 20
26.39868813557229
 10
-4.009363463124513
 20
26.39868813557228
 10
-3.927542963192955
 20
26.36962664154661
 10
-3.846007059303671
 20
26.33985742855193
 10
-3.76474411154408
 20
26.30940922508661
 10
-3.683742480001604
 20
26.27831075964899
 10
-3.602990524763665
 20
26.24659076073743
 10
-3.522476605917685
 20
26.21427795685029
 10
-3.442189083551084
 20
26.18140107648592
 10
-3.362116317751284
 20
26.14798884814267
 10
-3.282246668605707
 20
26.11407000031891
 10
-3.202568496201775
 20
26.07967326151298
 10
-3.123070160626907
 20
26.04482736022325
 10
-3.043740021968527
 20
26.00956102494807
 10
-2.964566440314055
 20
25.97390298418579
 10
-2.885537775750912
 20
25.93788196643477
 10
-2.806642388366521
 20
25.90152670019336
 10
-2.727868638248302
 20
25.86486591395992
 10
-2.649204885483678
 20
25.82792833623281
 10
-2.570639490160068
 20
25.79074269551037
 10
-2.492160812364896
 20
25.75333772029098
 10
-2.413757212185583
 20
25.71574213907297
 10
-2.335417049709549
 20
25.67798468035471
 10
-2.257128685024217
 20
25.64009407263455
 10
-2.178880478217007
 20
25.60209904441085
 10
-2.100660789375341
 20
25.56402832418196
 10
-2.022457978586641
 20
25.52591064044624
 10
-1.944260405938328
 20
25.48777472170204
 10
-1.866056431517824
 20
25.44964929644772
 10
-1.787834415412549
 20
25.41156309318163
 10
-1.709582717709926
 20
25.37354484040213
 10
-1.631289698497375
 20
25.33562326660758
 10
-1.552943717862319
 20
25.29782710029633
 10
-1.474533135892178
 20
25.26018506996673
 10
-1.396046312674374
 20
25.22272590411714
 10
-1.31747160829633
 20
25.18547833124591
 10
-1.238797382845465
 20
25.14847107985141
 10
-1.160011996409201
 20
25.11173287843199
 10
-1.08110380907496
 20
25.075292455486
 10
-1.002061180930164
 20
25.03917853951179
 10
-0.9228724720622331
 20
25.00341985900772
 10
-0.8435260425585894
 20
24.96804514247215
 10
-0.7640102525066545
 20
24.93308311840344
 10
-0.6843134619938494
 20
24.89856251529993
 10
-0.6044240311075959
 20
24.86451206165999
 10
-0.5243303199353151
 20
24.83096048598196
 10
-0.4440206885644288
 20
24.79793651676422
 10
-0.3634834970823583
 20
24.76546888250509
 10
-0.2827071055765249
 20
24.73358631170296
 10
-0.2827071055765244
 20
24.73358631170296
 10
-0.1949452475796421
 20
24.69931492628585
 10
-0.1071525219823738
 20
24.66502294029689
 10
-0.0193242921310671
 20
24.63073245069343
 10
0.0685440786279304
 20
24.59646555443284
 10
0.156457226948271
 20
24.56224434847249
 10
0.2444197894836071
 20
24.52809092976972
 10
0.332436402887591
 20
24.49402739528192
 10
0.4205117038138752
 20
24.46007584196643
 10
0.5086503289161117
 20
24.42625836678063
 10
0.5968569148479533
 20
24.39259706668187
 10
0.685136098263052
 20
24.35911403862752
 10
0.7734925158150605
 20
24.32583137957495
 10
0.8619308041576307
 20
24.29277118648152
 10
0.9504555999444153
 20
24.25995555630457
 10
1.039071539829066
 20
24.2274065860015
 10
1.127783260465236
 20
24.19514637252964
 10
1.216595398506578
 20
24.16319701284637
 10
1.305512590606744
 20
24.13158060390906
 10
1.394539473419385
 20
24.10031924267505
 10
1.483680683598155
 20
24.06943502610172
 10
1.572940857796706
 20
24.03895005114644
 10
1.66232463266869
 20
24.00888641476655
 10
1.751836644867759
 20
23.97926621391943
 10
1.841481531047566
 20
23.95011154556244
 10
1.931263927861764
 20
23.92144450665294
 10
2.021188471964004
 20
23.89328719414829
 10
2.111259800007939
 20
23.86566170500587
 10
2.201482548647222
 20
23.83859013618302
 10
2.291861354535503
 20
23.81209458463712
 10
2.382400854326438
 20
23.78619714732552
 10
2.473105684673676
 20
23.76091992120559
 10
2.563980482230871
 20
23.73628500323469
 10
2.655029883651675
 20
23.7123144903702
 10
2.74625852558974
 20
23.68903047956946
 10
2.837671044698719
 20
23.66645506778984
 10
2.929272077632265
 20
23.6446103519887
 10
3.021066261044028
 20
23.62351842912342
 10
3.021066261044028
 20
23.62351842912342
 10
3.132901261522655
 20
23.59866642416776
 10
3.244922184896886
 20
23.57447482578812
 10
3.357122499685747
 20
23.55094768609242
 10
3.469495674408265
 20
23.52808905718857
 10
3.582035177583466
 20
23.50590299118451
 10
3.694734477730376
 20
23.48439354018815
 10
3.807587043368022
 20
23.46356475630742
 10
3.920586343015429
 20
23.44342069165025
 10
4.033725845191624
 20
23.42396539832456
 10
4.146999018415634
 20
23.40520292843827
 10
4.260399331206484
 20
23.38713733409932
 10
4.3739202520832
 20
23.36977266741561
 10
4.48755524956481
 20
23.35311298049508
 10
4.601297792170338
 20
23.33716232544566
 10
4.715141348418813
 20
23.32192475437526
 10
4.82907938682926
 20
23.30740431939182
 10
4.943105375920704
 20
23.29360507260325
 10
5.057212784212173
 20
23.28053106611748
 10
5.171395080222692
 20
23.26818635204244
 10
5.285645732471289
 20
23.25657498248604
 10
5.399958209476989
 20
23.24570100955621
 10
5.514325979758818
 20
23.23556848536088
 10
5.628742511835802
 20
23.22618146200798
 10
5.743201274226969
 20
23.21754399160542
 10
5.857695735451343
 20
23.20966012626113
 10
5.972219364027953
 20
23.20253391808304
 10
6.086765628475823
 20
23.19616941917907
 10
6.201327997313979
 20
23.19057068165714
 10
6.315899939061449
 20
23.18574175762518
 10
6.430474922237259
 20
23.18168669919111
 10
6.545046415360435
 20
23.17840955846286
 10
6.659607886950002
 20
23.17591438754835
 10
6.774152805524988
 20
23.1742052385555
 10
6.774152805524987
 20
23.1742052385555
 10
6.868749198425574
 20
23.17350064500191
 10
6.963358390475969
 20
23.17355032852766
 10
7.057976270458275
 20
23.17434202252526
 10
7.152598727154597
 20
23.17586346038723
 10
7.247221649347038
 20
23.17810237550608
 10
7.341840925817701
 20
23.1810465012743
 10
7.436452445348692
 20
23.18468357108443
 10
7.531052096722112
 20
23.18900131832894
 10
7.625635768720067
 20
23.19398747640037
 10
7.720199350124659
 20
23.19962977869121
 10
7.814738729717992
 20
23.20591595859399
 10
7.909249796282171
 20
23.21283374950119
 10
8.003728438599299
 20
23.22037088480534
 10
8.098170545451479
 20
23.22851509789895
 10
8.192572005620816
 20
23.23725412217451
 10
8.286928707889412
 20
23.24657569102456
 10
8.381236541039372
 20
23.25646753784157
 10
8.475491393852799
 20
23.26691739601808
 10
8.569689155111797
 20
23.27791299894659
 10
8.66382571359847
 20
23.28944208001961
 10
8.757896958094921
 20
23.30149237262964
 10
8.851898777383254
 20
23.31405161016919
 10
8.945827060245575
 20
23.32710752603079
 10
9.039677695463984
 20
23.34064785360692
 10
9.133446571820586
 20
23.35466032629011
 10
9.227129578097486
 20
23.36913267747286
 10
9.320722603076786
 20
23.38405264054767
 10
9.41422153554059
 20
23.39940794890707
 10
9.507622264271004
 20
23.41518633594355
 10
9.60092067805013
 20
23.43137553504963
 10
9.694112665660071
 20
23.44796327961782
 10
9.787194115882931
 20
23.46493730304062
 10
9.787194115882927
 20
23.46493730304062
 10
9.851252450853971
 20
23.47714333364799
 10
9.915146246339775
 20
23.49006637052799
 10
9.978884477221351
 20
23.50366730424758
 10
10.04247611837971
 20
23.51790702537369
 10
10.10593014469587
 20
23.53274642447329
 10
10.16925553105084
 20
23.54814639211332
 10
10.23246125232564
 20
23.56406781886071
 10
10.29555628340128
 20
23.58047159528242
 10
10.35854959915876
 20
23.5973186119454
 10
10.42145017447911
 20
23.61456975941659
 10
10.48426698424334
 20
23.63218592826295
 10
10.54700900333246
 20
23.65012800905141
 10
10.60968520662749
 20
23.66835689234893
 10
10.67230456900942
 20
23.68683346872245
 10
10.7348760653593
 20
23.70551862873892
 10
10.79740867055811
 20
23.72437326296528
 10
10.85991135948688
 20
23.74335826196849
 10
10.92239310702662
 20
23.76243451631548
 10
10.98486288805833
 20
23.78156291657322
 10
11.04732967746305
 20
23.80070435330863
 10
11.10980245012178
 20
23.81981971708868
 10
11.17229018091553
 20
23.83886989848031
 10
11.23480184472531
 20
23.85781578805046
 10
11.29734641643214
 20
23.87661827636609
 10
11.35993287091703
 20
23.89523825399413
 10
11.422570183061
 20
23.91363661150155
 10
11.48526732774505
 20
23.93177423945527
 10
11.5480332798502
 20
23.94961202842226
 10
11.61087701425747
 20
23.96711086896946
  0
LWPOLYLINE
  5
254
330
1F
100
AcDbEntity
  8
Vector Layer 1
 62
    18
420
        0
370
    30
100
AcDbPolyline
 90
      340
 70
     0
 43
0.0
 10
-10.70721011351144
 20
34.08269895703963
 10
-7.64130842928758
 20
32.18689923759419
 10
-7.64130842928758
 20
32.18689923759419
 10
-7.554446761811051
 20
32.13310307297426
 10
-7.467759445119495
 20
32.07897749679779
 10
-7.381238554177233
 20
32.02453748231734
 10
-7.294876163948583
 20
31.96979800278548
 10
-7.208664349397865
 20
31.9147740314548
 10
-7.122595185489399
 20
31.85948054157784
 10
-7.036660747187503
 20
31.8039325064072
 10
-6.950853109456497
 20
31.74814489919543
 10
-6.865164347260701
 20
31.69213269319511
 10
-6.779586535564433
 20
31.6359108616588
 10
-6.694111749332014
 20
31.57949437783909
 10
-6.608732063527762
 20
31.52289821498853
 10
-6.523439553115997
 20
31.46613734635969
 10
-6.438226293061038
 20
31.40922674520516
 10
-6.353084358327206
 20
31.35218138477748
 10
-6.268005823878818
 20
31.29501623832926
 10
-6.182982764680194
 20
31.23774627911303
 10
-6.098007255695654
 20
31.18038648038139
 10
-6.013071371889518
 20
31.1229518153869
 10
-5.928167188226104
 20
31.06545725738213
 10
-5.843286779669732
 20
31.00791777961964
 10
-5.758422221184721
 20
30.95034835535201
 10
-5.67356558773539
 20
30.89276395783182
 10
-5.58870895428606
 20
30.83517956031162
 10
-5.503844395801049
 20
30.777610136044
 10
-5.418963987244676
 20
30.72007065828151
 10
-5.334059803581262
 20
30.66257610027674
 10
-5.249123919775126
 20
30.60514143528225
 10
-5.164148410790586
 20
30.5477816365506
 10
-5.079125351591962
 20
30.49051167733438
 10
-4.994046817143575
 20
30.43334653088615
 10
-4.908904882409741
 20
30.37630117045849
 10
-4.823691622354782
 20
30.31939056930395
 10
-4.738399111943016
 20
30.26262970067512
 10
-4.653019426138764
 20
30.20603353782455
 10
-4.567544639906344
 20
30.14961705400484
 10
-4.481966828210076
 20
30.09339522246853
 10
-4.396278066014279
 20
30.03738301646821
 10
-4.310470428283272
 20
29.98159540925644
 10
-4.224535989981375
 20
29.9260473740858
 10
-4.138466826072908
 20
29.87075388420884
 10
-4.052255011522189
 20
29.81572991287816
 10
-3.965892621293538
 20
29.7609904333463
 10
-3.879371730351274
 20
29.70655041886585
 10
-3.792684413659717
 20
29.65242484268938
 10
-3.705822746183186
 20
29.59862867806945
 10
-3.618778802886001
 20
29.54517689825864
 10
-3.531544658732481
 20
29.49208447650951
 10
-3.444112388686944
 20
29.43936638607464
 10
-3.356474067713712
 20
29.38703760020659
 10
-3.268621770777102
 20
29.33511309215794
 10
-3.180547572841435
 20
29.28360783518126
 10
-3.092243548871029
 20
29.23253680252911
 10
-3.003701773830205
 20
29.18191496745407
 10
-2.91491432268328
 20
29.13175730320871
 10
-2.825873270394576
 20
29.08207878304559
 10
-2.736570691928411
 20
29.03289438021729
 10
-2.646998662249104
 20
28.98421906797638
 10
-2.557149256320975
 20
28.93606781957543
 10
-2.467014549108344
 20
28.888455608267
 10
-2.376586615575529
 20
28.84139740730367
 10
-2.28585753068685
 20
28.79490818993802
 10
-2.194819369406627
 20
28.7490029294226
 10
-2.103464206699178
 20
28.70369659900999
 10
-2.011784117528824
 20
28.65900417195275
 10
-1.919771176859883
 20
28.61494062150347
 10
-1.827417459656675
 20
28.57152092091471
 10
-1.734715040883519
 20
28.52876004343904
 10
-1.641655995504734
 20
28.48667296232903
 10
-1.641655995504735
 20
28.48667296232904
 10
-1.563217660104287
 20
28.45197725308724
 10
-1.484511549976263
 20
28.41799205063935
 10
-1.405544864940938
 20
28.38469862105908
 10
-1.326324804818583
 20
28.35207823042019
 10
-1.246858569429472
 20
28.3201121447964
 10
-1.167153358593877
 20
28.28878163026145
 10
-1.087216372132071
 20
28.25806795288909
 10
-1.007054809864327
 20
28.22795237875304
 10
-0.9266758716109183
 20
28.19841617392704
 10
-0.8460867571921165
 20
28.16944060448484
 10
-0.7652946664281947
 20
28.14100693650016
 10
-0.6843067991394257
 20
28.11309643604674
 10
-0.6031303551460825
 20
28.08569036919833
 10
-0.5217725342684377
 20
28.05877000202865
 10
-0.440240536326764
 20
28.03231660061145
 10
-0.3585415611413343
 20
28.00631143102046
 10
-0.2766828085324213
 20
27.98073575932942
 10
-0.1946714783202979
 20
27.95557085161206
 10
-0.1125147703252367
 20
27.93079797394212
 10
-0.0302198843675106
 20
27.90639839239335
 10
0.0522059797326077
 20
27.88235337303947
 10
0.1347556221548455
 20
27.85864418195422
 10
0.2174218430789299
 20
27.83525208521134
 10
0.3001974426845883
 20
27.81215834888457
 10
0.3830752211515477
 20
27.78934423904764
 10
0.4660479786595356
 20
27.76679102177429
 10
0.549108515388279
 20
27.74447996313826
 10
0.6322496315175053
 20
27.72239232921329
 10
0.7154641272269416
 20
27.7005093860731
 10
0.7987448026963153
 20
27.67881239979144
 10
0.8820844581053533
 20
27.65728263644204
 10
0.9654758936337833
 20
27.63590136209865
 10
1.048911909461332
 20
27.614649842835
 10
1.132385305767727
 20
27.59350934472482
 10
1.215888882732695
 20
27.57246113384185
 10
1.299415440535965
 20
27.55148647625983
 10
1.382957779357262
 20
27.5305666380525
 10
1.466508699376315
 20
27.50968288529358
 10
1.550061000772849
 20
27.48881648405683
 10
1.633607483726594
 20
27.46794870041597
 10
1.717140948417275
 20
27.44706080044475
 10
1.800654195024621
 20
27.4261340502169
 10
1.884140023728357
 20
27.40514971580616
 10
1.967591234708213
 20
27.38408906328626
 10
2.051000628143914
 20
27.36293335873094
 10
2.134361004215188
 20
27.34166386821394
 10
2.217665163101762
 20
27.32026185780899
 10
2.300905904983364
 20
27.29870859358983
 10
2.384076030039721
 20
27.2769853416302
 10
2.467168338450559
 20
27.25507336800384
 10
2.550175630395607
 20
27.23295393878448
 10
2.633090706054591
 20
27.21060832004586
 10
2.715906365607239
 20
27.18801777786171
 10
2.798615409233278
 20
27.16516357830577
 10
2.79861540923328
 20
27.16516357830577
 10
2.876209707809891
 20
27.14383491621973
 10
2.95393648734087
 20
27.12295856260123
 10
3.031786082520343
 20
27.102502042446
 10
3.109748828042438
 20
27.08243288074975
 10
3.187815058601283
 20
27.06271860250819
 10
3.265975108891005
 20
27.04332673271703
 10
3.344219313605732
 20
27.024224796372
 10
3.422538007439592
 20
27.0053803184688
 10
3.500921525086712
 20
26.98676082400315
 10
3.57936020124122
 20
26.96833383797077
 10
3.657844370597244
 20
26.95006688536737
 10
3.736364367848912
 20
26.93192749118866
 10
3.81491052769035
 20
26.91388318043037
 10
3.893473184815687
 20
26.8959014780882
 10
3.97204267391905
 20
26.87794990915787
 10
4.050609329694567
 20
26.8599959986351
 10
4.129163486836366
 20
26.8420072715156
 10
4.207695480038574
 20
26.82395125279508
 10
4.286195643995319
 20
26.80579546746926
 10
4.364654313400729
 20
26.78750744053385
 10
4.443061822948931
 20
26.76905469698458
 10
4.521408507334053
 20
26.75040476181715
 10
4.599684701250222
 20
26.73152516002728
 10
4.677880739391566
 20
26.71238341661068
 10
4.755986956452214
 20
26.69294705656306
 10
4.833993687126292
 20
26.67318360488016
 10
4.911891266107928
 20
26.65306058655767
 10
4.98967002809125
 20
26.63254552659131
 10
5.067320307770385
 20
26.6116059499768
 10
5.144832439839462
 20
26.59020938170985
 10
5.222196758992607
 20
26.56832334678618
 10
5.299403599923949
 20
26.5459153702015
 10
5.376443297327615
 20
26.52295297695153
 10
5.453306185897734
 20
26.49940369203198
 10
5.52998260032843
 20
26.47523504043857
 10
5.606462875313835
 20
26.45041454716701
 10
5.682737345548074
 20
26.42490973721301
 10
5.758796345725275
 20
26.39868813557229
 10
5.758796345725276
 20
26.39868813557228
 10
5.840616845656834
 20
26.36962664154661
 10
5.922152749546119
 20
26.33985742855193
 10
6.00341569730571
 20
26.30940922508661
 10
6.084417328848186
 20
26.27831075964899
 10
6.165169284086124
 20
26.24659076073743
 10
6.245683202932105
 20
26.21427795685029
 10
6.325970725298706
 20
26.18140107648592
 10
6.406043491098506
 20
26.14798884814267
 10
6.485913140244083
 20
26.11407000031891
 10
6.565591312648016
 20
26.07967326151298
 10
6.645089648222883
 20
26.04482736022325
 10
6.724419786881264
 20
26.00956102494807
 10
6.803593368535736
 20
25.97390298418579
 10
6.882622033098878
 20
25.93788196643477
 10
6.96151742048327
 20
25.90152670019336
 10
7.040291170601488
 20
25.86486591395992
 10
7.118954923366112
 20
25.82792833623281
 10
7.197520318689721
 20
25.79074269551037
 10
7.275998996484893
 20
25.75333772029098
 10
7.354402596664207
 20
25.71574213907297
 10
7.43274275914024
 20
25.67798468035471
 10
7.511031123825572
 20
25.64009407263455
 10
7.589279330632782
 20
25.60209904441085
 10
7.667499019474448
 20
25.56402832418196
 10
7.745701830263148
 20
25.52591064044624
 10
7.823899402911461
 20
25.48777472170204
 10
7.902103377331965
 20
25.44964929644772
 10
7.98032539343724
 20
25.41156309318163
 10
8.058577091139863
 20
25.37354484040213
 10
8.136870110352413
 20
25.33562326660758
 10
8.215216090987469
 20
25.29782710029633
 10
8.293626672957611
 20
25.26018506996673
 10
8.372113496175414
 20
25.22272590411714
 10
8.450688200553459
 20
25.18547833124591
 10
8.529362426004324
 20
25.14847107985141
 10
8.608147812440588
 20
25.11173287843199
 10
8.687055999774829
 20
25.075292455486
 10
8.766098627919625
 20
25.03917853951179
 10
8.845287336787556
 20
25.00341985900772
 10
8.924633766291201
 20
24.96804514247215
 10
9.004149556343136
 20
24.93308311840344
 10
9.083846346855942
 20
24.89856251529993
 10
9.163735777742196
 20
24.86451206165999
 10
9.243829488914476
 20
24.83096048598196
 10
9.324139120285362
 20
24.79793651676422
 10
9.404676311767433
 20
24.76546888250509
 10
9.485452703273267
 20
24.73358631170296
 10
9.485452703273265
 20
24.73358631170296
 10
9.573214561270148
 20
24.69931492628585
 10
9.661007286867416
 20
24.66502294029689
 10
9.748835516718722
 20
24.63073245069343
 10
9.836703887477719
 20
24.59646555443284
 10
9.92461703579806
 20
24.56224434847249
 10
10.01257959833339
 20
24.52809092976972
 10
10.10059621173738
 20
24.49402739528192
 10
10.18867151266366
 20
24.46007584196643
 10
10.2768101377659
 20
24.42625836678063
 10
10.36501672369774
 20
24.39259706668187
 10
10.45329590711284
 20
24.35911403862752
 10
10.54165232466485
 20
24.32583137957495
 10
10.63009061300742
 20
24.29277118648152
 10
10.7186154087942
 20
24.25995555630457
 10
10.80723134867886
 20
24.2274065860015
 10
10.89594306931503
 20
24.19514637252964
 10
10.98475520735637
 20
24.16319701284637
 10
11.07367239945653
 20
24.13158060390906
 10
11.16269928226917
 20
24.10031924267505
 10
11.25184049244794
 20
24.06943502610172
 10
11.34110066664649
 20
24.03895005114644
 10
11.43048444151848
 20
24.00888641476655
 10
11.51999645371755
 20
23.97926621391943
 10
11.60964133989736
 20
23.95011154556244
 10
11.69942373671155
 20
23.92144450665294
 10
11.78934828081379
 20
23.89328719414829
 10
11.87941960885773
 20
23.86566170500587
 10
11.96964235749701
 20
23.83859013618302
 10
12.06002116338529
 20
23.81209458463712
 10
12.15056066317623
 20
23.78619714732552
 10
12.24126549352346
 20
23.76091992120559
 10
12.33214029108066
 20
23.73628500323469
 10
12.42318969250147
 20
23.7123144903702
 10
12.51441833443953
 20
23.68903047956946
 10
12.60583085354851
 20
23.66645506778984
 10
12.69743188648206
 20
23.6446103519887
 10
12.78922606989382
 20
23.62351842912342
 10
12.78922606989383
 20
23.62351842912342
 10
12.90106107037246
 20
23.59866642416776
 10
13.0130819937467
 20
23.57447482578812
 10
13.12528230853556
 20
23.55094768609242
 10
13.23765548325809
 20
23.52808905718857
 10
13.35019498643329
 20
23.50590299118451
 10
13.46289428658021
 20
23.48439354018815
 10
13.57574685221786
 20
23.46356475630742
 10
13.68874615186527
 20
23.44342069165025
 10
13.80188565404147
 20
23.42396539832456
 10
13.91515882726548
 20
23.40520292843827
 10
14.02855914005633
 20
23.38713733409932
 10
14.14208006093305
 20
23.36977266741561
 10
14.25571505841466
 20
23.35311298049508
 10
14.36945760102019
 20
23.33716232544566
 10
14.48330115726867
 20
23.32192475437526
 10
14.59723919567912
 20
23.30740431939182
 10
14.71126518477056
 20
23.29360507260325
 10
14.82537259306203
 20
23.28053106611748
 10
14.93955488907255
 20
23.26818635204244
 10
15.05380554132115
 20
23.25657498248604
 10
15.16811801832685
 20
23.24570100955621
 10
15.28248578860868
 20
23.23556848536088
 10
15.39690232068567
 20
23.22618146200798
 10
15.51136108307683
 20
23.21754399160542
 10
15.6258555443012
 20
23.20966012626113
 10
15.74037917287782
 20
23.20253391808304
 10
15.85492543732569
 20
23.19616941917907
 10
15.96948780616384
 20
23.19057068165714
 10
16.08405974791131
 20
23.18574175762518
 10
16.19863473108712
 20
23.18168669919111
 10
16.3132062242103
 20
23.17840955846286
 10
16.42776769579987
 20
23.17591438754835
 10
16.54231261437485
 20
23.1742052385555
 10
16.54231261437486
 20
23.1742052385555
 10
16.63690900727544
 20
23.17350064500191
 10
16.73151819932584
 20
23.17355032852766
 10
16.82613607930814
 20
23.17434202252526
 10
16.92075853600447
 20
23.17586346038723
 10
17.0153814581969
 20
23.17810237550608
 10
17.11000073466757
 20
23.1810465012743
 10
17.20461225419856
 20
23.18468357108443
 10
17.29921190557198
 20
23.18900131832894
 10
17.39379557756993
 20
23.19398747640037
 10
17.48835915897452
 20
23.19962977869121
 10
17.58289853856785
 20
23.20591595859399
 10
17.67740960513203
 20
23.21283374950119
 10
17.77188824744916
 20
23.22037088480534
 10
17.86633035430134
 20
23.22851509789895
 10
17.96073181447068
 20
23.23725412217451
 10
18.05508851673927
 20
23.24657569102456
 10
18.14939634988923
 20
23.25646753784157
 10
18.24365120270266
 20
23.26691739601808
 10
18.33784896396165
 20
23.27791299894659
 10
18.43198552244833
 20
23.28944208001961
 10
18.52605676694478
 20
23.30149237262964
 10
18.62005858623312
 20
23.31405161016919
 10
18.71398686909543
 20
23.32710752603079
 10
18.80783750431384
 20
23.34064785360692
 10
18.90160638067045
 20
23.35466032629011
 10
18.99528938694735
 20
23.36913267747286
 10
19.08888241192665
 20
23.38405264054767
 10
19.18238134439045
 20
23.39940794890707
 10
19.27578207312086
 20
23.41518633594355
 10
19.36908048689999
 20
23.43137553504963
 10
19.46227247450993
 20
23.44796327961782
 10
19.55535392473279
 20
23.46493730304062
 10
19.55535392473279
 20
23.46493730304062
 10
19.61833104175221
 20
23.47693099753453
 10
19.68114884178929
 20
23.48961838052038
 10
19.7438157069998
 20
23.50296236554106
 10
19.80634001953953
 20
23.51692586613947
 10
19.86873016156425
 20
23.53147179585848
 10
19.93099451522972
 20
23.54656306824101
 10
19.99314146269174
 20
23.56216259682993
 10
20.05517938610606
 20
23.57823329516815
 10
20.11711666762847
 20
23.59473807679856
 10
20.17896168941474
 20
23.61163985526404
 10
20.24072283362063
 20
23.62890154410749
 10
20.30240848240195
 20
23.64648605687181
 10
20.36402701791444
 20
23.66435630709989
 10
20.42558682231389
 20
23.68247520833461
 10
20.48709627775608
 20
23.70080567411888
 10
20.54856376639677
 20
23.71931061799558
 10
20.60999767039175
 20
23.73795295350761
 10
20.67140637189678
 20
23.75669559419785
 10
20.73279825306765
 20
23.77550145360922
 10
20.79418169606012
 20
23.79433344528458
  0
SPLINE
  5
255
330
1F
100
AcDbEntity
  8
Vector Layer 1
 62
    18
420
        0
370
    30
100
AcDbSpline
210
0.0
220
0.0
230
1.0
 70
     8
 71
     3
 72
     8
 73
     4
 74
     0
 42
0.0000000001
 43
0.0000000001
 40
0.0
 40
0.0
 40
0.0
 40
0.0
 40
1.0
 40
1.0
 40
1.0
 40
1.0
 10
31.5857273288093
 20
23.9548014366449
 30
0.0
 10
31.60001447146686
 20
23.9591418622341
 30
0.0
 10
31.61441508392021
 20
23.96313891924088
 30
0.0
 10
31.62883944251775
 20
23.96711086896946
 30
0.0
  0
LWPOLYLINE
  5
256
330
1F
100
AcDbEntity
  8
Vector Layer 1
 62
    18
420
        0
370
    30
100
AcDbPolyline
 90
      262
 70
     0
 43
0.0
 10
-2.035714511489323
 20
34.08269895703963
 10
1.030187172734543
 20
32.18689923759419
 10
1.030187172734543
 20
32.18689923759419
 10
1.117048840211072
 20
32.13310307297426
 10
1.203736156902628
 20
32.07897749679779
 10
1.29025704784489
 20
32.02453748231734
 10
1.37661943807354
 20
31.96979800278548
 10
1.462831252624258
 20
31.9147740314548
 10
1.548900416532724
 20
31.85948054157784
 10
1.63483485483462
 20
31.8039325064072
 10
1.720642492565626
 20
31.74814489919543
 10
1.806331254761422
 20
31.69213269319511
 10
1.891909066457689
 20
31.6359108616588
 10
1.977383852690109
 20
31.57949437783909
 10
2.06276353849436
 20
31.52289821498853
 10
2.148056048906125
 20
31.46613734635969
 10
2.233269308961083
 20
31.40922674520516
 10
2.318411243694916
 20
31.35218138477748
 10
2.403489778143304
 20
31.29501623832926
 10
2.488512837341927
 20
31.23774627911303
 10
2.573488346326467
 20
31.18038648038139
 10
2.658424230132604
 20
31.1229518153869
 10
2.743328413796018
 20
31.06545725738213
 10
2.82820882235239
 20
31.00791777961964
 10
2.913073380837401
 20
30.95034835535201
 10
2.997930014286732
 20
30.89276395783182
 10
3.082786647736062
 20
30.83517956031162
 10
3.167651206221073
 20
30.777610136044
 10
3.252531614777446
 20
30.72007065828151
 10
3.33743579844086
 20
30.66257610027674
 10
3.422371682246997
 20
30.60514143528225
 10
3.507347191231537
 20
30.5477816365506
 10
3.59237025043016
 20
30.49051167733438
 10
3.677448784878549
 20
30.43334653088615
 10
3.762590719612382
 20
30.37630117045849
 10
3.847803979667341
 20
30.31939056930395
 10
3.933096490079106
 20
30.26262970067512
 10
4.018476175883359
 20
30.20603353782455
 10
4.103950962115779
 20
30.14961705400484
 10
4.189528773812047
 20
30.09339522246853
 10
4.275217536007844
 20
30.03738301646821
 10
4.361025173738851
 20
29.98159540925644
 10
4.446959612040748
 20
29.9260473740858
 10
4.533028775949215
 20
29.87075388420884
 10
4.619240590499934
 20
29.81572991287816
 10
4.705602980728585
 20
29.7609904333463
 10
4.792123871670848
 20
29.70655041886585
 10
4.878811188362405
 20
29.65242484268938
 10
4.965672855838936
 20
29.59862867806945
 10
5.052716799136121
 20
29.54517689825864
 10
5.139950943289641
 20
29.49208447650951
 10
5.227383213335177
 20
29.43936638607464
 10
5.31502153430841
 20
29.38703760020659
 10
5.402873831245019
 20
29.33511309215794
 10
5.490948029180687
 20
29.28360783518126
 10
5.579252053151092
 20
29.23253680252911
 10
5.667793828191917
 20
29.18191496745407
 10
5.756581279338841
 20
29.13175730320871
 10
5.845622331627545
 20
29.08207878304559
 10
5.93492491009371
 20
29.03289438021729
 10
6.024496939773016
 20
28.98421906797638
 10
6.114346345701145
 20
28.93606781957543
 10
6.204481052913776
 20
28.888455608267
 10
6.294908986446591
 20
28.84139740730367
 10
6.38563807133527
 20
28.79490818993802
 10
6.476676232615493
 20
28.7490029294226
 10
6.568031395322941
 20
28.70369659900999
 10
6.659711484493296
 20
28.65900417195275
 10
6.751724425162238
 20
28.61494062150347
 10
6.844078142365446
 20
28.57152092091471
 10
6.936780561138601
 20
28.52876004343904
 10
7.029839606517386
 20
28.48667296232903
 10
7.029839606517387
 20
28.48667296232904
 10
7.108277941917836
 20
28.45197725308724
 10
7.186984052045859
 20
28.41799205063935
 10
7.265950737081185
 20
28.38469862105908
 10
7.34517079720354
 20
28.35207823042019
 10
7.42463703259265
 20
28.3201121447964
 10
7.504342243428245
 20
28.28878163026145
 10
7.584279229890051
 20
28.25806795288909
 10
7.664440792157795
 20
28.22795237875304
 10
7.744819730411204
 20
28.19841617392704
 10
7.825408844830007
 20
28.16944060448484
 10
7.906200935593928
 20
28.14100693650016
 10
7.987188802882697
 20
28.11309643604674
 10
8.068365246876041
 20
28.08569036919833
 10
8.149723067753686
 20
28.05877000202865
 10
8.231255065695361
 20
28.03231660061145
 10
8.312954040880791
 20
28.00631143102046
 10
8.394812793489704
 20
27.98073575932942
 10
8.476824123701828
 20
27.95557085161206
 10
8.558980831696889
 20
27.93079797394212
 10
8.641275717654615
 20
27.90639839239335
 10
8.723701581754733
 20
27.88235337303947
 10
8.806251224176971
 20
27.85864418195422
 10
8.888917445101055
 20
27.83525208521134
 10
8.971693044706714
 20
27.81215834888457
 10
9.054570823173675
 20
27.78934423904764
 10
9.137543580681663
 20
27.76679102177429
 10
9.220604117410406
 20
27.74447996313826
 10
9.303745233539633
 20
27.72239232921329
 10
9.386959729249069
 20
27.7005093860731
 10
9.470240404718442
 20
27.67881239979144
 10
9.55358006012748
 20
27.65728263644204
 10
9.63697149565591
 20
27.63590136209865
 10
9.720407511483459
 20
27.614649842835
 10
9.803880907789855
 20
27.59350934472482
 10
9.887384484754823
 20
27.57246113384185
 10
9.970911042558093
 20
27.55148647625983
 10
10.05445338137939
 20
27.5305666380525
 10
10.13800430139844
 20
27.50968288529358
 10
10.22155660279498
 20
27.48881648405683
 10
10.30510308574872
 20
27.46794870041597
 10
10.3886365504394
 20
27.44706080044475
 10
10.47214979704675
 20
27.4261340502169
 10
10.55563562575049
 20
27.40514971580616
 10
10.63908683673034
 20
27.38408906328626
 10
10.72249623016604
 20
27.36293335873094
 10
10.80585660623732
 20
27.34166386821394
 10
10.88916076512389
 20
27.32026185780899
 10
10.97240150700549
 20
27.29870859358983
 10
11.05557163206185
 20
27.2769853416302
 10
11.13866394047269
 20
27.25507336800384
 10
11.22167123241774
 20
27.23295393878448
 10
11.30458630807672
 20
27.21060832004586
 10
11.38740196762937
 20
27.18801777786171
 10
11.47011101125541
 20
27.16516357830577
 10
11.4701110112554
 20
27.16516357830577
 10
11.54770530983201
 20
27.14383491621973
 10
11.62543208936299
 20
27.12295856260123
 10
11.70328168454246
 20
27.102502042446
 10
11.78124443006456
 20
27.08243288074975
 10
11.8593106606234
 20
27.06271860250819
 10
11.93747071091313
 20
27.04332673271703
 10
12.01571491562785
 20
27.024224796372
 10
12.09403360946171
 20
27.0053803184688
 10
12.17241712710883
 20
26.98676082400315
 10
12.25085580326334
 20
26.96833383797077
 10
12.32933997261937
 20
26.95006688536737
 10
12.40785996987103
 20
26.93192749118866
 10
12.48640612971247
 20
26.91388318043037
 10
12.56496878683781
 20
26.8959014780882
 10
12.64353827594117
 20
26.87794990915787
 10
12.72210493171669
 20
26.8599959986351
 10
12.80065908885849
 20
26.8420072715156
 10
12.8791910820607
 20
26.82395125279508
 10
12.95769124601744
 20
26.80579546746926
 10
13.03614991542285
 20
26.78750744053385
 10
13.11455742497105
 20
26.76905469698458
 10
13.19290410935618
 20
26.75040476181715
 10
13.27118030327234
 20
26.73152516002728
 10
13.34937634141369
 20
26.71238341661068
 10
13.42748255847434
 20
26.69294705656306
 10
13.50548928914842
 20
26.67318360488016
 10
13.58338686813005
 20
26.65306058655767
 10
13.66116563011337
 20
26.63254552659131
 10
13.73881590979251
 20
26.6116059499768
 10
13.81632804186158
 20
26.59020938170985
 10
13.89369236101473
 20
26.56832334678618
 10
13.97089920194607
 20
26.5459153702015
 10
14.04793889934974
 20
26.52295297695153
 10
14.12480178791986
 20
26.49940369203198
 10
14.20147820235055
 20
26.47523504043857
 10
14.27795847733596
 20
26.45041454716701
 10
14.35423294757019
 20
26.42490973721301
 10
14.4302919477474
 20
26.39868813557229
 10
14.4302919477474
 20
26.39868813557228
 10
14.51211244767895
 20
26.36962664154661
 10
14.59364835156824
 20
26.33985742855193
 10
14.67491129932783
 20
26.30940922508661
 10
14.7559129308703
 20
26.27831075964899
 10
14.83666488610824
 20
26.24659076073743
 10
14.91717880495422
 20
26.21427795685029
 10
14.99746632732082
 20
26.18140107648592
 10
15.07753909312062
 20
26.14798884814267
 10
15.1574087422662
 20
26.11407000031891
 10
15.23708691467013
 20
26.07967326151298
 10
15.316585250245
 20
26.04482736022325
 10
15.39591538890338
 20
26.00956102494807
 10
15.47508897055785
 20
25.97390298418579
 10
15.55411763512099
 20
25.93788196643477
 10
15.63301302250538
 20
25.90152670019336
 10
15.7117867726236
 20
25.86486591395992
 10
15.79045052538823
 20
25.82792833623281
 10
15.86901592071183
 20
25.79074269551037
 10
15.94749459850701
 20
25.75333772029098
 10
16.02589819868632
 20
25.71574213907297
 10
16.10423836116235
 20
25.67798468035471
 10
16.18252672584768
 20
25.64009407263455
 10
16.26077493265489
 20
25.60209904441085
 10
16.33899462149656
 20
25.56402832418196
 10
16.41719743228525
 20
25.52591064044624
 10
16.49539500493357
 20
25.48777472170204
 10
16.57359897935407
 20
25.44964929644772
 10
16.65182099545935
 20
25.41156309318163
 10
16.73007269316197
 20
25.37354484040213
 10
16.80836571237452
 20
25.33562326660758
 10
16.88671169300957
 20
25.29782710029633
 10
16.96512227497971
 20
25.26018506996673
 10
17.04360909819752
 20
25.22272590411714
 10
17.12218380257556
 20
25.18547833124591
 10
17.20085802802643
 20
25.14847107985141
 10
17.27964341446269
 20
25.11173287843199
 10
17.35855160179693
 20
25.075292455486
 10
17.43759422994172
 20
25.03917853951179
 10
17.51678293880965
 20
25.00341985900772
 10
17.5961293683133
 20
24.96804514247215
 10
17.67564515836523
 20
24.93308311840344
 10
17.75534194887804
 20
24.89856251529993
 10
17.83523137976429
 20
24.86451206165999
 10
17.91532509093658
 20
24.83096048598196
 10
17.99563472230746
 20
24.79793651676422
 10
18.07617191378953
 20
24.76546888250509
 10
18.15694830529536
 20
24.73358631170296
 10
18.15694830529536
 20
24.73358631170296
 10
18.25402482811634
 20
24.69568558653903
 10
18.35110076057073
 20
24.65777350671894
 10
18.44818594119234
 20
24.61987898581154
 10
18.54529020851497
 20
24.58203093738566
 10
18.64242340107243
 20
24.54425827501014
 10
18.73959535739851
 20
24.50658991225383
 10
18.83681591602702
 20
24.46905476268556
 10
18.93409491549175
 20
24.43168173987417
 10
19.03144219432651
 20
24.39449975738851
 10
19.12886759106511
 20
24.35753772879742
 10
19.22638094424134
 20
24.32082456766973
 10
19.32399209238901
 20
24.28438918757429
 10
19.42171087404192
 20
24.24826050207993
 10
19.51954712773386
 20
24.2124674247555
 10
19.61751069199865
 20
24.17703886916984
 10
19.71561140537008
 20
24.14200374889179
 10
19.81385910638196
 20
24.10739097749019
 10
19.91226363356808
 20
24.07322946853387
 10
20.01083482546226
 20
24.03954813559168
 10
20.10958252059829
 20
24.00637589223246
 10
20.20851655750998
 20
23.97374165202506
 10
20.30764677473111
 20
23.9416743285383
 10
20.40698301079551
 20
23.91020283534104
 10
20.50653510423697
 20
23.87935608600211
 10
20.60631289358929
 20
23.84916299409035
 10
20.70632621738627
 20
23.8196524731746
 10
20.70632621738627
 20
23.8196524731746
 10
20.77007215797675
 20
23.80130864014046
 10
20.83385733798331
 20
23.7832718822468
 10
20.89770090559635
 20
23.76535652617669
 10
20.89770090559635
 20
23.76535652617669
 10
20.96769594548745
 20
23.74606754875258
 10
21.03783585188531
 20
23.72737136970183
 10
21.10810284237923
 20
23.70919433487953
 10
21.17847913455853
 20
23.6914627901408
 10
21.24894694601254
 20
23.67410308134072
 10
21.31948849433055
 20
23.65704155433439
 10
21.39008599710191
 20
23.64020455497692
 10
21.4607216719159
 20
23.62351842912342
 10
21.4607216719159
 20
23.62351842912342
 10
21.57143261829337
 20
23.59891355776811
 10
21.68229721435586
 20
23.57496716604622
 10
21.79328048525389
 20
23.551694440577
 10
21.90434745613801
 20
23.5291105679797
 10
22.01546315215875
 20
23.50723073487357
 10
22.12659259846665
 20
23.48607012787787
 10
22.23770082021222
 20
23.46564393361183
  0
LWPOLYLINE
  5
257
330
1F
100
AcDbEntity
  8
Vector Layer 1
 62
    18
420
        0
370
    30
100
AcDbPolyline
 90
      139
 70
     0
 43
0.0
 10
7.704147115536904
 20
34.08269895703963
 10
10.77004879976076
 20
32.18689923759419
 10
10.77004879976076
 20
32.18689923759419
 10
10.85691046723729
 20
32.13310307297426
 10
10.94359778392885
 20
32.07897749679779
 10
11.03011867487111
 20
32.02453748231734
 10
11.11648106509976
 20
31.96979800278548
 10
11.20269287965048
 20
31.9147740314548
 10
11.28876204355895
 20
31.85948054157784
 10
11.37469648186084
 20
31.8039325064072
 10
11.46050411959185
 20
31.74814489919543
 10
11.54619288178764
 20
31.69213269319511
 10
11.63177069348391
 20
31.6359108616588
 10
11.71724547971633
 20
31.57949437783909
 10
11.80262516552058
 20
31.52289821498853
 10
11.88791767593235
 20
31.46613734635969
 10
11.97313093598731
 20
31.40922674520516
 10
12.05827287072114
 20
31.35218138477748
 10
12.14335140516953
 20
31.29501623832926
 10
12.22837446436815
 20
31.23774627911303
 10
12.31334997335269
 20
31.18038648038139
 10
12.39828585715883
 20
31.1229518153869
 10
12.48319004082224
 20
31.06545725738213
 10
12.56807044937861
 20
31.00791777961964
 10
12.65293500786363
 20
30.95034835535201
 10
12.73779164131296
 20
30.89276395783182
 10
12.82264827476229
 20
30.83517956031162
 10
12.9075128332473
 20
30.777610136044
 10
12.99239324180367
 20
30.72007065828151
 10
13.07729742546708
 20
30.66257610027674
 10
13.16223330927322
 20
30.60514143528225
 10
13.24720881825776
 20
30.5477816365506
 10
13.33223187745639
 20
30.49051167733438
 10
13.41731041190478
 20
30.43334653088615
 10
13.50245234663861
 20
30.37630117045849
 10
13.58766560669357
 20
30.31939056930395
 10
13.67295811710533
 20
30.26262970067512
 10
13.75833780290959
 20
30.20603353782455
 10
13.843812589142
 20
30.14961705400484
 10
13.92939040083827
 20
30.09339522246853
 10
14.01507916303407
 20
30.03738301646821
 10
14.10088680076508
 20
29.98159540925644
 10
14.18682123906697
 20
29.9260473740858
 10
14.27289040297544
 20
29.87075388420884
 10
14.35910221752616
 20
29.81572991287816
 10
14.44546460775481
 20
29.7609904333463
 10
14.53198549869707
 20
29.70655041886585
 10
14.61867281538863
 20
29.65242484268938
 10
14.70553448286516
 20
29.59862867806945
 10
14.79257842616235
 20
29.54517689825864
 10
14.87981257031586
 20
29.49208447650951
 10
14.9672448403614
 20
29.43936638607464
 10
15.05488316133463
 20
29.38703760020659
 10
15.14273545827124
 20
29.33511309215794
 10
15.23080965620691
 20
29.28360783518126
 10
15.31911368017731
 20
29.23253680252911
 10
15.40765545521814
 20
29.18191496745407
 10
15.49644290636506
 20
29.13175730320871
 10
15.58548395865377
 20
29.08207878304559
 10
15.67478653711993
 20
29.03289438021729
 10
15.76435856679924
 20
28.98421906797638
 10
15.85420797272736
 20
28.93606781957543
 10
15.94434267994
 20
28.888455608267
 10
16.03477061347281
 20
28.84139740730367
 10
16.12549969836149
 20
28.79490818993802
 10
16.21653785964171
 20
28.7490029294226
 10
16.30789302234916
 20
28.70369659900999
 10
16.39957311151951
 20
28.65900417195275
 10
16.49158605218845
 20
28.61494062150347
 10
16.58393976939166
 20
28.57152092091471
 10
16.67664218816481
 20
28.52876004343904
 10
16.7697012335436
 20
28.48667296232903
 10
16.7697012335436
 20
28.48667296232904
 10
16.84813956894405
 20
28.45197725308724
 10
16.92684567907207
 20
28.41799205063935
 10
17.0058123641074
 20
28.38469862105908
 10
17.08503242422975
 20
28.35207823042019
 10
17.16449865961887
 20
28.3201121447964
 10
17.24420387045446
 20
28.28878163026145
 10
17.32414085691627
 20
28.25806795288909
 10
17.40430241918401
 20
28.22795237875304
 10
17.48468135743742
 20
28.19841617392704
 10
17.56527047185622
 20
28.16944060448484
 10
17.64606256262015
 20
28.14100693650016
 10
17.72705042990892
 20
28.11309643604674
 10
17.80822687390226
 20
28.08569036919833
 10
17.8895846947799
 20
28.05877000202865
 10
17.97111669272158
 20
28.03231660061145
 10
18.05281566790701
 20
28.00631143102046
 10
18.13467442051592
 20
27.98073575932942
 10
18.21668575072804
 20
27.95557085161206
 10
18.2988424587231
 20
27.93079797394212
 10
18.38113734468083
 20
27.90639839239335
 10
18.46356320878095
 20
27.88235337303947
 10
18.54611285120318
 20
27.85864418195422
 10
18.62877907212727
 20
27.83525208521134
 10
18.71155467173293
 20
27.81215834888457
 10
18.79443245019988
 20
27.78934423904764
 10
18.87740520770787
 20
27.76679102177429
 10
18.96046574443662
 20
27.74447996313826
 10
19.04360686056584
 20
27.72239232921329
 10
19.12682135627528
 20
27.7005093860731
 10
19.21010203174466
 20
27.67881239979144
 10
19.29344168715369
 20
27.65728263644204
 10
19.37683312268212
 20
27.63590136209865
 10
19.46026913850967
 20
27.614649842835
 10
19.54374253481607
 20
27.59350934472482
 10
19.62724611178104
 20
27.57246113384185
 10
19.7107726695843
 20
27.55148647625983
 10
19.7943150084056
 20
27.5305666380525
 10
19.87786592842465
 20
27.50968288529358
 10
19.96141822982119
 20
27.48881648405683
 10
20.04496471277493
 20
27.46794870041597
 10
20.12849817746561
 20
27.44706080044475
 10
20.21201142407296
 20
27.4261340502169
 10
20.2954972527767
 20
27.40514971580616
 10
20.37894846375655
 20
27.38408906328626
 10
20.46235785719225
 20
27.36293335873094
 10
20.54571823326353
 20
27.34166386821394
 10
20.6290223921501
 20
27.32026185780899
 10
20.7122631340317
 20
27.29870859358983
 10
20.79543325908806
 20
27.2769853416302
 10
20.8785255674989
 20
27.25507336800384
 10
20.96153285944394
 20
27.23295393878448
 10
21.04444793510293
 20
27.21060832004586
 10
21.12726359465558
 20
27.18801777786171
 10
21.20997263828162
 20
27.16516357830577
 10
21.20997263828162
 20
27.16516357830577
 10
21.30273460522603
 20
27.1397239827316
 10
21.39568227636731
 20
27.11492255332876
 10
21.48879827482493
 20
27.0907048573245
 10
21.58206522371837
 20
27.06701646194605
 10
21.67546574616711
 20
27.04380293442064
 10
21.76898246529065
 20
27.02100984197552
 10
21.86259800420847
 20
26.99858275183791
 10
21.95629498604005
 20
26.97646723123505
 10
22.05005603390488
 20
26.95460884739418
 10
22.14386377092244
 20
26.93295316754253
 10
22.23770082021222
 20
26.91144575890734
  0
LWPOLYLINE
  5
258
330
1F
100
AcDbEntity
  8
Vector Layer 1
 62
    18
420
        0
370
    30
100
AcDbPolyline
 90
       20
 70
     0
 43
0.0
 10
-17.14988256280102
 20
34.08269895703963
 10
-20.21578424702488
 20
32.18689923759419
 10
-20.21578424702488
 20
32.18689923759419
 10
-20.33666248880894
 20
32.11191504187717
 10
-20.45720587378317
 20
32.03630565403773
 10
-20.57743282399021
 20
31.96011335320518
 10
-20.69736176147271
 20
31.88338041850882
 10
-20.8170111082733
 20
31.80614912907794
 10
-20.93639928643461
 20
31.72846176404185
 10
-21.0555447179993
 20
31.65036060252987
 10
-21.17446582500999
 20
31.57188792367128
 10
-21.29318102950934
 20
31.49308600659539
 10
-21.41170875353997
 20
31.41399713043152
 10
-21.53006741914453
 20
31.33466357430896
 10
-21.64827544836566
 20
31.25512761735701
 10
-21.766351263246
 20
31.17543153870498
 10
-21.88431328582819
 20
31.09561761748217
 10
-22.00217993815486
 20
31.01572813281789
 10
-22.11996964226866
 20
30.93580536384144
 10
-22.23770082021222
 20
30.85589158968212
210
0.0
220
0.0
230
-1.0
  0
LWPOLYLINE
  5
259
330
1F
100
AcDbEntity
  8
Vector Layer 1
 62
    18
420
        0
370
    30
100
AcDbPolyline
 90
      102
 70
     0
 43
0.0
 10
-34.38915525474003
 20
36.3744790133228
 10
-34.38900859006098
 20
34.55836720107817
 10
-34.38900859006098
 20
34.55836720107817
 10
-34.37862832643439
 20
34.3767560198537
 10
-34.37862832643439
 20
34.3767560198537
 10
-34.23480364330461
 20
34.21330595675168
 10
-34.23480364330461
 20
34.21330595675168
 10
-33.70651841558864
 20
34.06801701177211
 10
-33.70651841558864
 20
34.06801701177211
 10
-33.50952106811455
 20
34.01353365740477
 10
-33.50952106811455
 20
34.01353365740477
 10
-33.51245265849283
 20
33.57766682246606
 10
-33.51245265849283
 20
33.57766682246606
 10
-33.47398374326875
 20
33.1236388694049
 10
-33.47398374326875
 20
33.1236388694049
 10
-33.38944073416641
 20
32.65144979822129
 10
-33.38944073416641
 20
32.65144979822129
 10
-33.25426737465313
 20
32.14293849079279
 10
-33.25426737465313
 20
32.14293849079279
 10
-33.06158707835128
 20
31.5981049471194
 10
-33.06158707835128
 20
31.5981049471194
 10
-32.87297175921848
 20
31.1259158759358
 10
-32.87297175921848
 20
31.1259158759358
 10
-32.96808238424709
 20
30.94430469471133
 10
-32.96808238424709
 20
30.94430469471133
 10
-34.38915525474003
 20
30.59664231615513
 10
-34.38915525474003
 20
30.59664231615513
 10
-34.45275681861093
 20
30.58108233226241
 10
-34.45275681861093
 20
30.58108233226241
 10
-34.5174791844969
 20
30.54476009601752
 10
-34.5174791844969
 20
30.54476009601752
 10
-34.64450886942795
 20
30.3813100329155
 10
-34.64450886942795
 20
30.3813100329155
 10
-34.72637226753285
 20
30.16337661544614
 10
-34.72637226753285
 20
30.16337661544614
 10
-34.77636940501979
 20
29.90912096173189
 10
-34.77636940501979
 20
29.90912096173189
 10
-34.79153415434411
 20
29.6003819536503
 10
-34.79153415434411
 20
29.6003819536503
 10
-34.76314025096943
 20
29.25532070932382
 10
-34.76314025096943
 20
29.25532070932382
 10
-34.6888069013541
 20
28.91025946499734
 10
-34.6888069013541
 20
28.91025946499734
 10
-34.56631965808919
 20
28.56519822067086
 10
-34.56631965808919
 20
28.56519822067086
 10
-34.4058319749718
 20
28.25645921258927
 10
-34.4058319749718
 20
28.25645921258927
 10
-34.38915525474003
 20
28.23236143484019
 10
-34.38915525474003
 20
28.23236143484019
 10
-34.22987589933326
 20
28.00220355887502
 10
-34.22987589933326
 20
28.00220355887502
 10
-34.04613325395038
 20
27.80243125952811
 10
-34.04613325395038
 20
27.80243125952811
 10
-33.85287670739343
 20
27.6389811964261
 10
-33.85287670739343
 20
27.6389811964261
 10
-33.62802877821376
 20
27.49369225144653
 10
-33.62802877821376
 20
27.49369225144653
 10
-33.07705726869752
 20
27.31208107022206
 10
-33.07705726869752
 20
27.31208107022206
 10
-31.78585001029422
 20
27.1304698889976
 10
-31.78585001029422
 20
27.1304698889976
 10
-31.04381189443519
 20
26.94885870777314
 10
-31.04381189443519
 20
26.94885870777314
 10
-31.02021231748512
 20
26.93069758965069
 10
-31.02021231748512
 20
26.93069758965069
 10
-31.06299033560207
 20
26.76724752654867
 10
-31.06299033560207
 20
26.76724752654867
 10
-31.26440503396442
 20
26.54931410907932
 10
-31.26440503396442
 20
26.54931410907932
 10
-31.53840720452716
 20
26.33138069160996
 10
-31.53840720452716
 20
26.33138069160996
 10
-31.78626180686405
 20
26.1497695103855
 10
-31.78626180686405
 20
26.1497695103855
 10
-32.00728453196933
 20
25.94999721103859
 10
-32.00728453196933
 20
25.94999721103859
 10
-32.2044374386256
 20
25.71390267544678
 10
-32.2044374386256
 20
25.71390267544678
 10
-32.33958127595832
 20
25.47780813985498
 10
-32.33958127595832
 20
25.47780813985498
 10
-32.41564933754851
 20
25.25987472238562
 10
-32.41564933754851
 20
25.25987472238562
 10
-32.45650538601329
 20
25.02378018679382
 10
-32.45650538601329
 20
25.02378018679382
 10
-32.45322804548194
 20
24.75136341495713
 10
-32.45322804548194
 20
24.75136341495713
 10
-32.4017213026469
 20
24.53342999748777
 10
-32.4017213026469
 20
24.53342999748777
 10
-32.31719400085857
 20
24.33365769814086
 10
-32.31719400085857
 20
24.33365769814086
 10
-32.19949739374568
 20
24.15204651691639
 10
-32.19949739374568
 20
24.15204651691639
 10
-32.11124083496978
 20
24.04307980818172
 10
-32.11124083496978
 20
24.04307980818172
 10
-31.69679748811176
 20
23.86146862695725
 10
-31.69679748811176
 20
23.86146862695725
 10
-30.05390138723304
 20
23.67985744573279
 10
-30.05390138723304
 20
23.67985744573279
 10
-28.85226120747974
 20
23.49824626450832
 10
-28.85226120747974
 20
23.49824626450832
 10
-28.83094240822246
 20
23.46192402826343
 10
-28.83094240822246
 20
23.46192402826343
 10
-28.83094240822246
 20
20.99782209773937
210
0.0
220
0.0
230
-1.0
  0
LWPOLYLINE
  5
25A
330
1F
100
AcDbEntity
  8
Vector Layer 1
 62
    18
420
        0
370
    30
100
AcDbPolyline
 90
        6
 70
     0
 43
0.0
 10
-28.83094240822246
 20
20.99782209773937
 10
-26.53281652163529
 20
20.99782209773937
 10
-26.53281652163529
 20
20.99782209773937
 10
-26.53281652163529
 20
36.3744790133228
 10
-26.53281652163529
 20
36.3744790133228
 10
-34.38915525474003
 20
36.3744790133228
210
0.0
220
0.0
230
-1.0
  0
ENDSEC
  0
SECTION
  2
OBJECTS
  0
DICTIONARY
  5
C
330
0
100
AcDbDictionary
281
     1
  3
ACAD_CIP_PREVIOUS_PRODUCT_INFO
350
216
  3
ACAD_COLOR
350
6B
  3
ACAD_DETAILVIEWSTYLE
350
21B
  3
ACAD_GROUP
350
D
  3
ACAD_LAYOUT
350
1A
  3
ACAD_MATERIAL
350
6A
  3
ACAD_MLEADERSTYLE
350
12D
  3
ACAD_MLINESTYLE
350
17
  3
ACAD_PLOTSETTINGS
350
19
  3
ACAD_PLOTSTYLENAME
350
E
  3
ACAD_SCALELIST
350
10C
  3
ACAD_SECTIONVIEWSTYLE
350
219
  3
ACAD_TABLESTYLE
350
7E
  3
ACAD_VISUALSTYLE
350
EF
  3
ACDB_RECOMPOSE_DATA
350
25D
  3
AcDbVariableDictionary
350
5E
  3
AcDsDecomposeData
350
263
  0
DICTIONARY
  5
1FF
330
2
100
AcDbDictionary
280
     1
281
     1
  3
ACAD_LAYERSTATES
360
200
  0
DICTIONARY
  5
13C
330
10
100
AcDbDictionary
280
     1
281
     1
  0
DICTIONARY
  5
1CE
330
1F
100
AcDbDictionary
280
     1
281
     1
  0
XRECORD
  5
216
102
{ACAD_REACTORS
330
C
102
}
330
C
100
AcDbXrecord
280
     1
300
ACD
300
2015
300

  0
DICTIONARY
  5
6B
102
{ACAD_REACTORS
330
C
102
}
330
C
100
AcDbDictionary
281
     1
  0
DICTIONARY
  5
21B
102
{ACAD_REACTORS
330
C
102
}
330
C
100
AcDbDictionary
281
     1
  3
Metric50
350
21C
  0
DICTIONARY
  5
D
102
{ACAD_REACTORS
330
C
102
}
330
C
100
AcDbDictionary
281
     1
  0
DICTIONARY
  5
1A
102
{ACAD_REACTORS
330
C
102
}
330
C
100
AcDbDictionary
281
     1
  3
Layout1
350
D3
  3
Layout2
350
D7
  3
Model
350
22
  0
DICTIONARY
  5
6A
102
{ACAD_REACTORS
330
C
102
}
330
C
100
AcDbDictionary
281
     1
  3
ByBlock
350
ED
  3
ByLayer
350
EC
  3
Global
350
EE
  0
DICTIONARY
  5
12D
102
{ACAD_REACTORS
330
C
102
}
330
C
100
AcDbDictionary
281
     1
  3
Annotative
350
13B
  3
Standard
350
12E
  0
DICTIONARY
  5
17
102
{ACAD_REACTORS
330
C
102
}
330
C
100
AcDbDictionary
281
     1
  3
Standard
350
18
  0
DICTIONARY
  5
19
102
{ACAD_REACTORS
330
C
102
}
330
C
100
AcDbDictionary
281
     1
  0
ACDBDICTIONARYWDFLT
  5
E
102
{ACAD_REACTORS
330
C
102
}
330
C
100
AcDbDictionary
281
     1
  3
Normal
350
F
100
AcDbDictionaryWithDefault
340
F
  0
DICTIONARY
  5
10C
102
{ACAD_REACTORS
330
C
102
}
330
C
100
AcDbDictionary
281
     1
  3
A0
350
10D
  3
A1
350
1BE
  3
A2
350
1BF
  3
A3
350
1C0
  3
A4
350
1C1
  3
A5
350
1C2
  3
A6
350
1C3
  3
A7
350
1C4
  3
A8
350
1C5
  3
A9
350
1C6
  3
B0
350
1C7
  3
B1
350
1C8
  3
B2
350
1C9
  3
B3
350
1CA
  3
B4
350
1CB
  3
B5
350
1CC
  3
B6
350
1CD
  0
DICTIONARY
  5
219
102
{ACAD_REACTORS
330
C
102
}
330
C
100
AcDbDictionary
281
     1
  3
Metric50
350
21A
  0
DICTIONARY
  5
7E
102
{ACAD_REACTORS
330
C
102
}
330
C
100
AcDbDictionary
281
     1
  3
Standard
350
7F
  0
DICTIONARY
  5
EF
102
{ACAD_REACTORS
330
C
102
}
330
C
100
AcDbDictionary
281
     1
  3
2dWireframe
350
F5
  3
Basic
350
F4
  3
Brighten
350
FB
  3
ColorChange
350
FF
  3
Conceptual
350
F8
  3
Dim
350
FA
  3
EdgeColorOff
350
1E6
  3
Facepattern
350
FE
  3
Flat
350
F0
  3
FlatWithEdges
350
F1
  3
Gouraud
350
F2
  3
GouraudWithEdges
350
F3
  3
Hidden
350
F7
  3
JitterOff
350
1E4
  3
Linepattern
350
FD
  3
OverhangOff
350
1E5
  3
Realistic
350
F9
  3
Shaded
350
1F3
  3
Shaded with edges
350
1F2
  3
Shades of Gray
350
1EF
  3
Sketchy
350
1F0
  3
Thicken
350
FC
  3
Wireframe
350
F6
  3
X-Ray
350
1F1
  0
XRECORD
  5
25D
102
{ACAD_REACTORS
330
C
102
}
330
C
100
AcDbXrecord
280
     1
 90
        1
330
7F
  0
DICTIONARY
  5
5E
102
{ACAD_REACTORS
330
C
102
}
330
C
100
AcDbDictionary
281
     1
  3
CANNOSCALE
350
146
  3
CMLEADERSTYLE
350
145
  3
CTABLESTYLE
350
84
  3
CVIEWDETAILSTYLE
350
227
  3
CVIEWSECTIONSTYLE
350
228
  3
DIMASSOC
350
5F
  3
HIDETEXT
350
63
  3
LAYEREVAL
350
1AE
  3
LAYERNOTIFY
350
1AF
  3
XCLIPFRAME
350
25B
  0
DICTIONARY
  5
263
102
{ACAD_REACTORS
330
C
102
}
330
C
100
AcDbDictionary
281
     1
  3
AcDsRecords
350
265
  3
AcDsSchemas
350
264
1001
ACAD
1070
     2
  0
DICTIONARY
  5
200
102
{ACAD_REACTORS
330
1FF
102
}
330
1FF
100
AcDbDictionary
281
     1
  0
ACDBDETAILVIEWSTYLE
  5
21C
102
{ACAD_XDICTIONARY
360
236
102
}
102
{ACAD_REACTORS
330
21B
102
}
330
21B
100
AcDbModelDocViewStyle
 70
     0
  3
Metric50
290
     0
100
AcDbDetailViewStyle
 70
     0
 71
     0
 90
        3
 71
     1
340
11
 62
   256
 40
5.0
340
0
 62
   256
 40
5.0
300

 40
0.0
280
     1
 71
     2
340
16
 90
       25
 62
   256
 71
     3
340
11
 62
   256
 40
5.0
 90
        0
 40
15.0
 90
        1
300
%<\AcVar ViewDetailId>% (%<\AcVar ViewScale \f "%sn">%)
 71
     4
340
16
 90
       25
 62
   256
340
16
 90
       25
 62
   256
280
     0
  0
LAYOUT
  5
D3
102
{ACAD_REACTORS
330
1A
102
}
330
1A
100
AcDbPlotSettings
  1

  2
C:\Documents and Settings\basas\Application Data\Autodesk\AutoCAD 2005\R16.1\enu\plotters\Default Windows System Printer.pc3
  4

  6

 40
0.0
 41
0.0
 42
0.0
 43
0.0
 44
0.0
 45
0.0
 46
0.0
 47
0.0
 48
0.0
 49
0.0
140
0.0
141
0.0
142
1.0
143
1.0
 70
   688
 72
     0
 73
     0
 74
     5
  7

 75
    16
147
1.0
 76
     0
 77
     2
 78
   300
148
0.0
149
0.0
100
AcDbLayout
  1
Layout1
 70
     1
 71
     1
 10
0.0
 20
0.0
 11
12.0
 21
9.0
 12
0.0
 22
0.0
 32
0.0
 14
0.0
 24
0.0
 34
0.0
 15
0.0
 25
0.0
 35
0.0
146
0.0
 13
0.0
 23
0.0
 33
0.0
 16
1.0
 26
0.0
 36
0.0
 17
0.0
 27
1.0
 37
0.0
 76
     0
330
D2
  0
LAYOUT
  5
D7
102
{ACAD_REACTORS
330
1A
102
}
330
1A
100
AcDbPlotSettings
  1

  2
C:\Documents and Settings\basas\Application Data\Autodesk\AutoCAD 2005\R16.1\enu\plotters\Default Windows System Printer.pc3
  4

  6

 40
0.0
 41
0.0
 42
0.0
 43
0.0
 44
0.0
 45
0.0
 46
0.0
 47
0.0
 48
0.0
 49
0.0
140
0.0
141
0.0
142
1.0
143
1.0
 70
   688
 72
     0
 73
     0
 74
     5
  7

 75
    16
147
1.0
 76
     0
 77
     2
 78
   300
148
0.0
149
0.0
100
AcDbLayout
  1
Layout2
 70
     1
 71
     2
 10
0.0
 20
0.0
 11
12.0
 21
9.0
 12
0.0
 22
0.0
 32
0.0
 14
0.0
 24
0.0
 34
0.0
 15
0.0
 25
0.0
 35
0.0
146
0.0
 13
0.0
 23
0.0
 33
0.0
 16
1.0
 26
0.0
 36
0.0
 17
0.0
 27
1.0
 37
0.0
 76
     0
330
D6
  0
LAYOUT
  5
22
102
{ACAD_XDICTIONARY
360
205
102
}
102
{ACAD_REACTORS
330
1A
102
}
330
1A
100
AcDbPlotSettings
  1

  2
none_device
  4
ISO_A4_(210.00_x_297.00_MM)
  6

 40
7.5
 41
20.0
 42
7.5
 43
20.0
 44
210.0
 45
297.0
 46
11.54999923706054
 47
-13.65000009536743
 48
0.0
 49
0.0
140
0.0
141
0.0
142
1.0
143
8.704084754739808
 70
 11952
 72
     1
 73
     0
 74
     0
  7

 75
     0
147
0.1148885871608098
 76
     0
 77
     2
 78
   300
148
0.0
149
0.0
100
AcDbLayout
  1
Model
 70
     1
 71
     0
 10
0.0
 20
0.0
 11
12.0
 21
9.0
 12
0.0
 22
0.0
 32
0.0
 14
0.0
 24
0.0
 34
0.0
 15
0.0
 25
0.0
 35
0.0
146
0.0
 13
0.0
 23
0.0
 33
0.0
 16
1.0
 26
0.0
 36
0.0
 17
0.0
 27
1.0
 37
0.0
 76
     0
330
1F
331
EA
1001
ACAD_PSEXT
1000
None
1000
None
1000
Not applicable
1000
The layout will not be plotted unless a new plotter configuration name is selected.
1070
     0
  0
MATERIAL
  5
ED
102
{ACAD_XDICTIONARY
360
1F9
102
}
102
{ACAD_REACTORS
330
6A
102
}
330
6A
100
AcDbMaterial
  1
ByBlock
 94
       63
  0
MATERIAL
  5
EC
102
{ACAD_XDICTIONARY
360
1F7
102
}
102
{ACAD_REACTORS
330
6A
102
}
330
6A
100
AcDbMaterial
  1
ByLayer
 94
       63
  0
MATERIAL
  5
EE
102
{ACAD_XDICTIONARY
360
173
102
}
102
{ACAD_REACTORS
330
6A
102
}
330
6A
100
AcDbMaterial
  1
Global
 43
0.0007999999797903
 43
0.0
 43
0.0
 43
0.0
 43
0.0
 43
0.0007999999797903
 43
0.0
 43
0.0
 43
0.0
 43
0.0
 43
1.0
 43
0.0
 43
0.0
 43
0.0
 43
0.0
 43
1.0
 49
0.0007999999797903
 49
0.0
 49
0.0
 49
0.0
 49
0.0
 49
0.0007999999797903
 49
0.0
 49
0.0
 49
0.0
 49
0.0
 49
1.0
 49
0.0
 49
0.0
 49
0.0
 49
0.0
 49
1.0
142
0.0007999999797903
142
0.0
142
0.0
142
0.0
142
0.0
142
0.0007999999797903
142
0.0
142
0.0
142
0.0
142
0.0
142
1.0
142
0.0
142
0.0
142
0.0
142
0.0
142
1.0
144
0.0007999999797903
144
0.0
144
0.0
144
0.0
144
0.0
144
0.0007999999797903
144
0.0
144
0.0
144
0.0
144
0.0
144
1.0
144
0.0
144
0.0
144
0.0
144
0.0
144
1.0
 94
       63
1001
ACAD
1070
    -1
1070
     3
1070
     0
1000

1071
        0
1070
     0
  0
MLEADERSTYLE
  5
13B
102
{ACAD_REACTORS
330
12D
102
}
330
12D
100
AcDbMLeaderStyle
170
     2
171
     1
172
     0
 90
        2
 40
0.0
 41
0.0
173
     1
 91
-1056964608
340
14
 92
       -2
290
     1
 42
2.0
291
     1
 43
8.0
  3
Standard
 44
4.0
300

342
11
174
     1
178
     1
175
     1
176
     0
 93
-1056964608
 45
4.0
292
     0
297
     0
 46
4.0
 94
-1056964608
 47
1.0
 49
1.0
140
1.0
293
     1
141
0.0
294
     1
177
     0
142
1.0
295
     0
296
     1
143
3.75
1001
ACAD_MLEADERVER
1070
     2
  0
MLEADERSTYLE
  5
12E
102
{ACAD_REACTORS
330
12D
102
}
330
12D
100
AcDbMLeaderStyle
170
     2
171
     1
172
     0
 90
        2
 40
0.0
 41
0.0
173
     1
 91
-1056964608
340
14
 92
       -2
290
     1
 42
2.0
291
     1
 43
8.0
  3
Standard
 44
4.0
300

342
11
174
     1
178
     1
175
     1
176
     0
 93
-1056964608
 45
4.0
292
     0
297
     0
 46
4.0
 94
-1056964608
 47
1.0
 49
1.0
140
1.0
293
     1
141
0.0
294
     1
177
     0
142
1.0
295
     0
296
     0
143
3.75
1001
ACAD_MLEADERVER
1070
     2
  0
MLINESTYLE
  5
18
102
{ACAD_REACTORS
330
17
102
}
330
17
100
AcDbMlineStyle
  2
STANDARD
 70
     0
  3

 62
   256
 51
90.0
 52
90.0
 71
     2
 49
0.5
 62
   256
  6
BYLAYER
 49
-0.5
 62
   256
  6
BYLAYER
  0
ACDBPLACEHOLDER
  5
F
102
{ACAD_REACTORS
330
E
102
}
330
E
  0
SCALE
  5
10D
102
{ACAD_REACTORS
330
10C
102
}
330
10C
100
AcDbScale
 70
     0
300
1:1
140
1.0
141
1.0
290
     1
  0
SCALE
  5
1BE
102
{ACAD_REACTORS
330
10C
102
}
330
10C
100
AcDbScale
 70
     0
300
1:2
140
1.0
141
2.0
290
     0
  0
SCALE
  5
1BF
102
{ACAD_REACTORS
330
10C
102
}
330
10C
100
AcDbScale
 70
     0
300
1:4
140
1.0
141
4.0
290
     0
  0
SCALE
  5
1C0
102
{ACAD_REACTORS
330
10C
102
}
330
10C
100
AcDbScale
 70
     0
300
1:5
140
1.0
141
5.0
290
     0
  0
SCALE
  5
1C1
102
{ACAD_REACTORS
330
10C
102
}
330
10C
100
AcDbScale
 70
     0
300
1:8
140
1.0
141
8.0
290
     0
  0
SCALE
  5
1C2
102
{ACAD_REACTORS
330
10C
102
}
330
10C
100
AcDbScale
 70
     0
300
1:10
140
1.0
141
10.0
290
     0
  0
SCALE
  5
1C3
102
{ACAD_REACTORS
330
10C
102
}
330
10C
100
AcDbScale
 70
     0
300
1:16
140
1.0
141
16.0
290
     0
  0
SCALE
  5
1C4
102
{ACAD_REACTORS
330
10C
102
}
330
10C
100
AcDbScale
 70
     0
300
1:20
140
1.0
141
20.0
290
     0
  0
SCALE
  5
1C5
102
{ACAD_REACTORS
330
10C
102
}
330
10C
100
AcDbScale
 70
     0
300
1:30
140
1.0
141
30.0
290
     0
  0
SCALE
  5
1C6
102
{ACAD_REACTORS
330
10C
102
}
330
10C
100
AcDbScale
 70
     0
300
1:40
140
1.0
141
40.0
290
     0
  0
SCALE
  5
1C7
102
{ACAD_REACTORS
330
10C
102
}
330
10C
100
AcDbScale
 70
     0
300
1:50
140
1.0
141
50.0
290
     0
  0
SCALE
  5
1C8
102
{ACAD_REACTORS
330
10C
102
}
330
10C
100
AcDbScale
 70
     0
300
1:100
140
1.0
141
100.0
290
     0
  0
SCALE
  5
1C9
102
{ACAD_REACTORS
330
10C
102
}
330
10C
100
AcDbScale
 70
     0
300
2:1
140
2.0
141
1.0
290
     0
  0
SCALE
  5
1CA
102
{ACAD_REACTORS
330
10C
102
}
330
10C
100
AcDbScale
 70
     0
300
4:1
140
4.0
141
1.0
290
     0
  0
SCALE
  5
1CB
102
{ACAD_REACTORS
330
10C
102
}
330
10C
100
AcDbScale
 70
     0
300
8:1
140
8.0
141
1.0
290
     0
  0
SCALE
  5
1CC
102
{ACAD_REACTORS
330
10C
102
}
330
10C
100
AcDbScale
 70
     0
300
10:1
140
10.0
141
1.0
290
     0
  0
SCALE
  5
1CD
102
{ACAD_REACTORS
330
10C
102
}
330
10C
100
AcDbScale
 70
     0
300
100:1
140
100.0
141
1.0
290
     0
  0
ACDBSECTIONVIEWSTYLE
  5
21A
102
{ACAD_XDICTIONARY
360
234
102
}
102
{ACAD_REACTORS
330
219
102
}
330
219
100
AcDbModelDocViewStyle
 70
     0
  3
Metric50
290
     0
100
AcDbSectionViewStyle
 70
     0
 71
     0
 90
      102
 71
     1
340
11
 62
   256
 40
5.0
340
0
340
0
 62
   256
 40
5.0
300
I, O, Q, S, X, Z
 40
10.0
 90
        0
 40
2.5
 90
        0
 71
     2
340
16
 90
       25
 62
   256
340
16
 90
       50
 62
   256
 40
5.0
 40
2.5
 40
5.0
 71
     3
340
11
 62
   256
 40
5.0
 90
        0
 40
15.0
 90
        1
300
%<\AcVar ViewSectionStartId>%-%<\AcVar ViewSectionEndId>% (%<\AcVar ViewScale \f "%sn">%)
 71
     4
 62
   256
 62
   257
300
ANSI31
 40
1.0
 90
        0
290
     0
290
     0
 90
        6
 40
0.0
 40
1.570796326794896
 40
0.2617993877991494
 40
1.308996938995747
 40
-0.2617993877991494
 40
1.832595714594046
  0
TABLESTYLE
  5
7F
102
{ACAD_XDICTIONARY
360
162
102
}
102
{ACAD_REACTORS
330
7E
102
}
330
7E
100
AcDbTableStyle
  3
Standard
 70
     0
 71
     0
 40
1.5
 41
1.5
280
     0
281
     0
  7
Standard
140
4.5
170
     2
 62
     0
 63
     7
283
     0
 90
      512
 91
        0
  1

274
    -2
284
     1
 64
     0
275
    -2
285
     1
 65
     0
276
    -2
286
     1
 66
     0
277
    -2
287
     1
 67
     0
278
    -2
288
     1
 68
     0
279
    -2
289
     1
 69
     0
  7
Standard
140
6.0
170
     5
 62
     0
 63
     7
283
     0
 90
      512
 91
        0
  1

274
    -2
284
     1
 64
     0
275
    -2
285
     1
 65
     0
276
    -2
286
     1
 66
     0
277
    -2
287
     1
 67
     0
278
    -2
288
     1
 68
     0
279
    -2
289
     1
 69
     0
  7
Standard
140
4.5
170
     5
 62
     0
 63
     7
283
     0
 90
      512
 91
        0
  1

274
    -2
284
     1
 64
     0
275
    -2
285
     1
 65
     0
276
    -2
286
     1
 66
     0
277
    -2
287
     1
 67
     0
278
    -2
288
     1
 68
     0
279
    -2
289
     1
 69
     0
  0
VISUALSTYLE
  5
F5
102
{ACAD_XDICTIONARY
360
270
102
}
102
{ACAD_REACTORS
330
EF
102
}
330
EF
100
AcDbVisualStyle
  2
2dWireframe
 70
     4
 71
     0
 72
     2
 73
     1
 90
        0
 40
-0.6
 41
-30.0
 62
     5
 63
     7
421
 16777215
 74
     1
 91
        4
 64
     7
 65
   257
 75
     1
175
     1
 42
1.0
 92
        0
 66
   257
 43
1.0
 76
     1
 77
     6
 78
     2
 67
     7
 79
     5
170
     0
171
     0
290
     0
174
     0
 93
        1
 44
0.0
173
     0
291
     0
 45
0.0
1001
ACAD
1000
AcDbSavedByObjectVersion
1070
     0
  0
VISUALSTYLE
  5
F4
102
{ACAD_XDICTIONARY
360
26E
102
}
102
{ACAD_REACTORS
330
EF
102
}
330
EF
100
AcDbVisualStyle
  2
Basic
 70
     7
 71
     1
 72
     0
 73
     1
 90
        0
 40
-0.6
 41
-30.0
 62
     5
 63
     7
421
 16777215
 74
     0
 91
        4
 64
     7
 65
   257
 75
     1
175
     1
 42
1.0
 92
        8
 66
     7
 43
1.0
 76
     1
 77
     6
 78
     2
 67
     7
 79
     5
170
     0
171
     0
290
     0
174
     0
 93
        1
 44
0.0
173
     0
291
     1
 45
0.0
1001
ACAD
1000
AcDbSavedByObjectVersion
1070
     0
  0
VISUALSTYLE
  5
FB
102
{ACAD_XDICTIONARY
360
27C
102
}
102
{ACAD_REACTORS
330
EF
102
}
330
EF
100
AcDbVisualStyle
  2
Brighten
 70
    12
 71
     2
 72
     2
 73
     1
 90
        0
 40
-0.6
 41
-30.0
 62
     5
 63
     7
421
 16777215
 74
     1
 91
        4
 64
     7
 65
   257
 75
     1
175
     1
 42
1.0
 92
        8
 66
     7
 43
1.0
 76
     1
 77
     6
 78
     2
 67
     7
 79
     5
170
     0
171
     0
290
     0
174
     0
 93
        1
 44
50.0
173
     0
291
     1
 45
0.0
1001
ACAD
1000
AcDbSavedByObjectVersion
1070
     0
  0
VISUALSTYLE
  5
FF
102
{ACAD_XDICTIONARY
360
284
102
}
102
{ACAD_REACTORS
330
EF
102
}
330
EF
100
AcDbVisualStyle
  2
ColorChange
 70
    16
 71
     2
 72
     2
 73
     3
 90
        0
 40
-0.6
 41
-30.0
 62
     5
 63
     8
421
  8421504
 74
     1
 91
        4
 64
     7
 65
   257
 75
     1
175
     1
 42
1.0
 92
        8
 66
     8
424
  8421504
 43
1.0
 76
     1
 77
     6
 78
     2
 67
     7
 79
     5
170
     0
171
     0
290
     0
174
     0
 93
        1
 44
0.0
173
     0
291
     1
 45
0.0
1001
ACAD
1000
AcDbSavedByObjectVersion
1070
     0
  0
VISUALSTYLE
  5
F8
102
{ACAD_XDICTIONARY
360
276
102
}
102
{ACAD_REACTORS
330
EF
102
}
330
EF
100
AcDbVisualStyle
  2
Conceptual
 70
     9
 71
     3
 72
     2
 73
     1
 90
        0
 40
-0.6
 41
-30.0
 62
     5
 63
     7
421
 16777215
 74
     2
 91
        2
 64
     7
 65
   257
 75
     1
175
     1
 42
40.0
 92
        8
 66
     7
 43
1.0
 76
     1
 77
     6
 78
     2
 67
     7
 79
     3
170
     0
171
     0
290
     0
174
     0
 93
        1
 44
0.0
173
     0
291
     0
 45
0.0
1001
ACAD
1000
AcDbSavedByObjectVersion
1070
     0
  0
VISUALSTYLE
  5
FA
102
{ACAD_XDICTIONARY
360
27A
102
}
102
{ACAD_REACTORS
330
EF
102
}
330
EF
100
AcDbVisualStyle
  2
Dim
 70
    11
 71
     2
 72
     2
 73
     1
 90
        0
 40
-0.6
 41
-30.0
 62
     5
 63
     7
421
 16777215
 74
     1
 91
        4
 64
     7
 65
   257
 75
     1
175
     1
 42
1.0
 92
        8
 66
     7
 43
1.0
 76
     1
 77
     6
 78
     2
 67
     7
 79
     5
170
     0
171
     0
290
     0
174
     0
 93
        1
 44
-50.0
173
     0
291
     1
 45
0.0
1001
ACAD
1000
AcDbSavedByObjectVersion
1070
     0
  0
VISUALSTYLE
  5
1E6
102
{ACAD_XDICTIONARY
360
28A
102
}
102
{ACAD_REACTORS
330
EF
102
}
330
EF
100
AcDbVisualStyle
  2
EdgeColorOff
 70
    22
 71
     2
 72
     2
 73
     0
 90
        0
 40
-0.6
 41
-30.0
 62
     5
 63
     7
421
 16777215
 74
     1
 91
        4
 64
     7
 65
   257
 75
     1
175
     1
 42
1.0
 92
        8
 66
     7
 43
1.0
 76
     1
 77
     6
 78
     2
 67
     7
 79
     5
170
     0
171
     0
290
     0
174
     0
 93
        1
 44
0.0
173
     0
291
     1
 45
0.0
1001
ACAD
1000
AcDbSavedByObjectVersion
1070
     0
  0
VISUALSTYLE
  5
FE
102
{ACAD_XDICTIONARY
360
282
102
}
102
{ACAD_REACTORS
330
EF
102
}
330
EF
100
AcDbVisualStyle
  2
Facepattern
 70
    15
 71
     2
 72
     2
 73
     1
 90
        0
 40
-0.6
 41
-30.0
 62
     5
 63
     7
421
 16777215
 74
     1
 91
        4
 64
     7
 65
   257
 75
     1
175
     1
 42
1.0
 92
        8
 66
     7
 43
1.0
 76
     1
 77
     6
 78
     2
 67
     7
 79
     5
170
     0
171
     0
290
     0
174
     0
 93
        1
 44
0.0
173
     0
291
     1
 45
0.0
1001
ACAD
1000
AcDbSavedByObjectVersion
1070
     0
  0
VISUALSTYLE
  5
F0
102
{ACAD_XDICTIONARY
360
266
102
}
102
{ACAD_REACTORS
330
EF
102
}
330
EF
100
AcDbVisualStyle
  2
Flat
 70
     0
 71
     2
 72
     1
 73
     1
 90
        2
 40
-0.6
 41
30.0
 62
     5
 63
     7
421
 16777215
 74
     0
 91
        0
 64
     7
 65
   257
 75
     1
175
     1
 42
1.0
 92
        8
 66
     7
 43
1.0
 76
     1
 77
     6
 78
     2
 67
     7
 79
     5
170
     0
171
     0
290
     0
174
     0
 93
       13
 44
0.0
173
     0
291
     1
 45
0.0
1001
ACAD
1000
AcDbSavedByObjectVersion
1070
     0
  0
VISUALSTYLE
  5
F1
102
{ACAD_XDICTIONARY
360
268
102
}
102
{ACAD_REACTORS
330
EF
102
}
330
EF
100
AcDbVisualStyle
  2
FlatWithEdges
 70
     1
 71
     2
 72
     1
 73
     1
 90
        2
 40
-0.6
 41
30.0
 62
     5
 63
     7
421
 16777215
 74
     1
 91
        0
 64
     7
 65
   257
 75
     1
175
     1
 42
1.0
 92
        0
 66
   257
 43
1.0
 76
     1
 77
     6
 78
     2
 67
     7
 79
     5
170
     0
171
     0
290
     0
174
     0
 93
       13
 44
0.0
173
     0
291
     1
 45
0.0
1001
ACAD
1000
AcDbSavedByObjectVersion
1070
     0
  0
VISUALSTYLE
  5
F2
102
{ACAD_XDICTIONARY
360
26A
102
}
102
{ACAD_REACTORS
330
EF
102
}
330
EF
100
AcDbVisualStyle
  2
Gouraud
 70
     2
 71
     2
 72
     2
 73
     1
 90
        2
 40
-0.6
 41
30.0
 62
     5
 63
     7
421
 16777215
 74
     0
 91
        0
 64
     7
 65
   257
 75
     1
175
     1
 42
1.0
 92
        0
 66
     7
 43
1.0
 76
     1
 77
     6
 78
     2
 67
     7
 79
     5
170
     0
171
     0
290
     0
174
     0
 93
       13
 44
0.0
173
     0
291
     1
 45
0.0
1001
ACAD
1000
AcDbSavedByObjectVersion
1070
     0
  0
VISUALSTYLE
  5
F3
102
{ACAD_XDICTIONARY
360
26C
102
}
102
{ACAD_REACTORS
330
EF
102
}
330
EF
100
AcDbVisualStyle
  2
GouraudWithEdges
 70
     3
 71
     2
 72
     2
 73
     1
 90
        2
 40
-0.6
 41
30.0
 62
     5
 63
     7
421
 16777215
 74
     1
 91
        0
 64
     7
 65
   257
 75
     1
175
     1
 42
1.0
 92
        0
 66
   257
 43
1.0
 76
     1
 77
     6
 78
     2
 67
     7
 79
     5
170
     0
171
     0
290
     0
174
     0
 93
       13
 44
0.0
173
     0
291
     1
 45
0.0
1001
ACAD
1000
AcDbSavedByObjectVersion
1070
     0
  0
VISUALSTYLE
  5
F7
102
{ACAD_XDICTIONARY
360
274
102
}
102
{ACAD_REACTORS
330
EF
102
}
330
EF
100
AcDbVisualStyle
  2
Hidden
 70
     6
 71
     1
 72
     2
 73
     2
 90
        0
 40
-0.6
 41
-30.0
 62
     5
 63
     7
421
 16777215
 74
     2
 91
        2
 64
     7
 65
   257
 75
     2
175
     1
 42
40.0
 92
        0
 66
   257
 43
1.0
 76
     1
 77
     6
 78
     2
 67
     7
 79
     3
170
     0
171
     0
290
     0
174
     0
 93
        1
 44
0.0
173
     0
291
     0
 45
0.0
1001
ACAD
1000
AcDbSavedByObjectVersion
1070
     0
  0
VISUALSTYLE
  5
1E4
102
{ACAD_XDICTIONARY
360
286
102
}
102
{ACAD_REACTORS
330
EF
102
}
330
EF
100
AcDbVisualStyle
  2
JitterOff
 70
    20
 71
     2
 72
     2
 73
     0
 90
        0
 40
-0.6
 41
-30.0
 62
     5
 63
     7
421
 16777215
 74
     1
 91
        4
 64
     7
 65
   257
 75
     1
175
     1
 42
1.0
 92
       10
 66
     7
 43
1.0
 76
     1
 77
     6
 78
     2
 67
     7
 79
     5
170
     0
171
     0
290
     0
174
     0
 93
        1
 44
0.0
173
     0
291
     1
 45
0.0
1001
ACAD
1000
AcDbSavedByObjectVersion
1070
     0
  0
VISUALSTYLE
  5
FD
102
{ACAD_XDICTIONARY
360
280
102
}
102
{ACAD_REACTORS
330
EF
102
}
330
EF
100
AcDbVisualStyle
  2
Linepattern
 70
    14
 71
     2
 72
     2
 73
     1
 90
        0
 40
-0.6
 41
-30.0
 62
     5
 63
     7
421
 16777215
 74
     1
 91
        4
 64
     7
 65
   257
 75
     7
175
     7
 42
1.0
 92
        8
 66
     7
 43
1.0
 76
     1
 77
     6
 78
     2
 67
     7
 79
     5
170
     0
171
     0
290
     0
174
     0
 93
        1
 44
0.0
173
     0
291
     1
 45
0.0
1001
ACAD
1000
AcDbSavedByObjectVersion
1070
     0
  0
VISUALSTYLE
  5
1E5
102
{ACAD_XDICTIONARY
360
288
102
}
102
{ACAD_REACTORS
330
EF
102
}
330
EF
100
AcDbVisualStyle
  2
OverhangOff
 70
    21
 71
     2
 72
     2
 73
     0
 90
        0
 40
-0.6
 41
-30.0
 62
     5
 63
     7
421
 16777215
 74
     1
 91
        4
 64
     7
 65
   257
 75
     1
175
     1
 42
1.0
 92
        9
 66
     7
 43
1.0
 76
     1
 77
     6
 78
     2
 67
     7
 79
     5
170
     0
171
     0
290
     0
174
     0
 93
        1
 44
0.0
173
     0
291
     1
 45
0.0
1001
ACAD
1000
AcDbSavedByObjectVersion
1070
     0
  0
VISUALSTYLE
  5
F9
102
{ACAD_XDICTIONARY
360
278
102
}
102
{ACAD_REACTORS
330
EF
102
}
330
EF
100
AcDbVisualStyle
  2
Realistic
 70
     8
 71
     2
 72
     3
 73
     0
 90
        2
 40
-0.6
 41
30.0
 62
     5
 63
     7
421
 16777215
 74
     0
 91
        0
 64
     7
 65
   257
 75
     1
175
     1
 42
1.0
 92
        8
 66
   257
 43
1.0
 76
     1
 77
     6
 78
     2
 67
     7
 79
     3
170
     0
171
     0
290
     0
174
     0
 93
       13
 44
0.0
173
     0
291
     0
 45
0.0
1001
ACAD
1000
AcDbSavedByObjectVersion
1070
     0
  0
VISUALSTYLE
  5
1F3
102
{ACAD_XDICTIONARY
360
294
102
}
102
{ACAD_REACTORS
330
EF
102
}
330
EF
100
AcDbVisualStyle
  2
Shaded
 70
    27
 71
     2
 72
     2
 73
     1
 90
        2
 40
-0.6
 41
30.0
 62
     5
 63
     7
421
 16777215
 74
     0
 91
        4
 64
     7
 65
   257
 75
     1
175
     1
 42
1.0
 92
        8
 66
   257
 43
1.0
 76
     1
 77
     6
 78
     2
 67
     8
425
  7895160
 79
     3
170
     0
171
     0
290
     0
174
     0
 93
        5
 44
0.0
173
     0
291
     0
 45
0.0
1001
ACAD
1000
AcDbSavedByObjectVersion
1070
     0
  0
VISUALSTYLE
  5
1F2
102
{ACAD_XDICTIONARY
360
292
102
}
102
{ACAD_REACTORS
330
EF
102
}
330
EF
100
AcDbVisualStyle
  2
Shaded with edges
 70
    26
 71
     2
 72
     2
 73
     1
 90
        2
 40
-0.6
 41
30.0
 62
     5
 63
     7
421
 16777215
 74
     1
 91
       10
 64
     7
 65
   257
 75
     2
175
     1
 42
1.0
 92
        8
 66
   257
 43
1.0
 76
     1
 77
     6
 78
     2
 67
     7
 79
     3
170
     0
171
     0
290
     0
174
     0
 93
        5
 44
0.0
173
     0
291
     0
 45
0.0
1001
ACAD
1000
AcDbSavedByObjectVersion
1070
     0
  0
VISUALSTYLE
  5
1EF
102
{ACAD_XDICTIONARY
360
28C
102
}
102
{ACAD_REACTORS
330
EF
102
}
330
EF
100
AcDbVisualStyle
  2
Shades of Gray
 70
    23
 71
     2
 72
     2
 73
     3
 90
        0
 40
-0.6
 41
-30.0
 62
     5
 63
     7
421
 16777215
 74
     2
 91
        2
 64
     7
 65
     7
 75
     1
175
     1
 42
40.0
 92
        8
 66
     7
 43
1.0
 76
     1
 77
     6
 78
     2
 67
     7
 79
     3
170
     0
171
     0
290
     0
174
     0
 93
        1
 44
0.0
173
     0
291
     0
 45
0.0
1001
ACAD
1000
AcDbSavedByObjectVersion
1070
     0
  0
VISUALSTYLE
  5
1F0
102
{ACAD_XDICTIONARY
360
28E
102
}
102
{ACAD_REACTORS
330
EF
102
}
330
EF
100
AcDbVisualStyle
  2
Sketchy
 70
    24
 71
     1
 72
     2
 73
     2
 90
        0
 40
-0.6
 41
-30.0
 62
     5
 63
     7
421
 16777215
 74
     2
 91
        2
 64
     7
 65
     7
 75
     1
175
     1
 42
40.0
 92
       11
 66
     7
 43
1.0
 76
     1
 77
     6
 78
     2
 67
     7
 79
     6
170
     0
171
     0
290
     0
174
     0
 93
        1
 44
0.0
173
     0
291
     0
 45
0.0
1001
ACAD
1000
AcDbSavedByObjectVersion
1070
     0
  0
VISUALSTYLE
  5
FC
102
{ACAD_XDICTIONARY
360
27E
102
}
102
{ACAD_REACTORS
330
EF
102
}
330
EF
100
AcDbVisualStyle
  2
Thicken
 70
    13
 71
     2
 72
     2
 73
     1
 90
        0
 40
-0.6
 41
-30.0
 62
     5
 63
     7
421
 16777215
 74
     1
 91
        4
 64
     7
 65
   257
 75
     1
175
     1
 42
1.0
 92
       12
 66
     7
 43
1.0
 76
     1
 77
     6
 78
     2
 67
     7
 79
     5
170
     0
171
     0
290
     0
174
     0
 93
        1
 44
0.0
173
     0
291
     1
 45
0.0
1001
ACAD
1000
AcDbSavedByObjectVersion
1070
     0
  0
VISUALSTYLE
  5
F6
102
{ACAD_XDICTIONARY
360
272
102
}
102
{ACAD_REACTORS
330
EF
102
}
330
EF
100
AcDbVisualStyle
  2
Wireframe
 70
     5
 71
     0
 72
     2
 73
     0
 90
        0
 40
-0.6
 41
-30.0
 62
     5
 63
     7
421
 16777215
 74
     1
 91
        4
 64
     7
 65
   257
 75
     1
175
     1
 42
1.0
 92
        0
 66
   257
 43
1.0
 76
     1
 77
     6
 78
     2
 67
     7
 79
     3
170
     0
171
     0
290
     0
174
     0
 93
        1
 44
0.0
173
     0
291
     0
 45
0.0
1001
ACAD
1000
AcDbSavedByObjectVersion
1070
     0
  0
VISUALSTYLE
  5
1F1
102
{ACAD_XDICTIONARY
360
290
102
}
102
{ACAD_REACTORS
330
EF
102
}
330
EF
100
AcDbVisualStyle
  2
X-Ray
 70
    25
 71
     2
 72
     2
 73
     1
 90
        1
 40
0.5
 41
-30.0
 62
     5
 63
     7
421
 16777215
 74
     1
 91
        0
 64
     7
 65
   257
 75
     1
175
     1
 42
1.0
 92
        8
 66
     7
 43
1.0
 76
     1
 77
     6
 78
     2
 67
     7
 79
     3
170
     0
171
     0
290
     0
174
     0
 93
       13
 44
0.0
173
     0
291
     0
 45
0.0
1001
ACAD
1000
AcDbSavedByObjectVersion
1070
     0
  0
DICTIONARYVAR
  5
146
102
{ACAD_REACTORS
330
5E
102
}
330
5E
100
DictionaryVariables
280
     0
  1
1:1
  0
DICTIONARYVAR
  5
145
102
{ACAD_REACTORS
330
5E
102
}
330
5E
100
DictionaryVariables
280
     0
  1
STANDARD
  0
DICTIONARYVAR
  5
84
102
{ACAD_REACTORS
330
5E
102
}
330
5E
100
DictionaryVariables
280
     0
  1
STANDARD
  0
DICTIONARYVAR
  5
227
102
{ACAD_REACTORS
330
5E
102
}
330
5E
100
DictionaryVariables
280
     0
  1
Metric50
  0
DICTIONARYVAR
  5
228
102
{ACAD_REACTORS
330
5E
102
}
330
5E
100
DictionaryVariables
280
     0
  1
Metric50
  0
DICTIONARYVAR
  5
5F
102
{ACAD_REACTORS
330
5E
102
}
330
5E
100
DictionaryVariables
280
     0
  1
2
  0
DICTIONARYVAR
  5
63
102
{ACAD_REACTORS
330
5E
102
}
330
5E
100
DictionaryVariables
280
     0
  1
1
  0
DICTIONARYVAR
  5
1AE
102
{ACAD_REACTORS
330
5E
102
}
330
5E
100
DictionaryVariables
280
     0
  1
0
  0
DICTIONARYVAR
  5
1AF
102
{ACAD_REACTORS
330
5E
102
}
330
5E
100
DictionaryVariables
280
     0
  1
0
  0
DICTIONARYVAR
  5
25B
102
{ACAD_REACTORS
330
5E
102
}
330
5E
100
DictionaryVariables
280
     0
  1
2
  0
DICTIONARY
  5
265
102
{ACAD_REACTORS
330
263
102
}
330
263
100
AcDbDictionary
281
     1
  0
DICTIONARY
  5
264
102
{ACAD_REACTORS
330
263
102
}
330
263
100
AcDbDictionary
281
     1
  3
140688180141536
350
25E
  3
140688180141552
350
25F
  3
140688180141568
350
260
  3
140688180141584
350
261
  3
140688180141600
350
262
  0
DICTIONARY
  5
236
330
21C
100
AcDbDictionary
280
     1
281
     1
  3
ACAD_XREC_ROUNDTRIP
360
297
  0
DICTIONARY
  5
205
330
22
100
AcDbDictionary
280
     1
281
     1
  0
DICTIONARY
  5
1F9
330
ED
100
AcDbDictionary
280
     1
281
     1
  3
FBXASSET
360
1FA
  0
DICTIONARY
  5
1F7
330
EC
100
AcDbDictionary
280
     1
281
     1
  3
FBXASSET
360
1F8
  0
DICTIONARY
  5
173
330
EE
100
AcDbDictionary
280
     1
281
     1
  3
BUMPTILE
360
175
  3
DIFFUSETILE
360
174
  3
FBXASSET
360
1FB
  3
OPACITYTILE
360
176
  3
REFLECTIONTILE
360
177
  0
DICTIONARY
  5
234
330
21A
100
AcDbDictionary
280
     1
281
     1
  3
ACAD_XREC_ROUNDTRIP
360
296
  0
DICTIONARY
  5
162
330
7F
100
AcDbDictionary
280
     1
281
     1
  3
ACAD_ROUNDTRIP_2008_TABLESTYLE_CELLSTYLEMAP
360
25C
  0
DICTIONARY
  5
270
330
F5
100
AcDbDictionary
280
     1
281
     1
  3
ACAD_XREC_ROUNDTRIP
360
271
  0
DICTIONARY
  5
26E
330
F4
100
AcDbDictionary
280
     1
281
     1
  3
ACAD_XREC_ROUNDTRIP
360
26F
  0
DICTIONARY
  5
27C
330
FB
100
AcDbDictionary
280
     1
281
     1
  3
ACAD_XREC_ROUNDTRIP
360
27D
  0
DICTIONARY
  5
284
330
FF
100
AcDbDictionary
280
     1
281
     1
  3
ACAD_XREC_ROUNDTRIP
360
285
  0
DICTIONARY
  5
276
330
F8
100
AcDbDictionary
280
     1
281
     1
  3
ACAD_XREC_ROUNDTRIP
360
277
  0
DICTIONARY
  5
27A
330
FA
100
AcDbDictionary
280
     1
281
     1
  3
ACAD_XREC_ROUNDTRIP
360
27B
  0
DICTIONARY
  5
28A
330
1E6
100
AcDbDictionary
280
     1
281
     1
  3
ACAD_XREC_ROUNDTRIP
360
28B
  0
DICTIONARY
  5
282
330
FE
100
AcDbDictionary
280
     1
281
     1
  3
ACAD_XREC_ROUNDTRIP
360
283
  0
DICTIONARY
  5
266
330
F0
100
AcDbDictionary
280
     1
281
     1
  3
ACAD_XREC_ROUNDTRIP
360
267
  0
DICTIONARY
  5
268
330
F1
100
AcDbDictionary
280
     1
281
     1
  3
ACAD_XREC_ROUNDTRIP
360
269
  0
DICTIONARY
  5
26A
330
F2
100
AcDbDictionary
280
     1
281
     1
  3
ACAD_XREC_ROUNDTRIP
360
26B
  0
DICTIONARY
  5
26C
330
F3
100
AcDbDictionary
280
     1
281
     1
  3
ACAD_XREC_ROUNDTRIP
360
26D
  0
DICTIONARY
  5
274
330
F7
100
AcDbDictionary
280
     1
281
     1
  3
ACAD_XREC_ROUNDTRIP
360
275
  0
DICTIONARY
  5
286
330
1E4
100
AcDbDictionary
280
     1
281
     1
  3
ACAD_XREC_ROUNDTRIP
360
287
  0
DICTIONARY
  5
280
330
FD
100
AcDbDictionary
280
     1
281
     1
  3
ACAD_XREC_ROUNDTRIP
360
281
  0
DICTIONARY
  5
288
330
1E5
100
AcDbDictionary
280
     1
281
     1
  3
ACAD_XREC_ROUNDTRIP
360
289
  0
DICTIONARY
  5
278
330
F9
100
AcDbDictionary
280
     1
281
     1
  3
ACAD_XREC_ROUNDTRIP
360
279
  0
DICTIONARY
  5
294
330
1F3
100
AcDbDictionary
280
     1
281
     1
  3
ACAD_XREC_ROUNDTRIP
360
295
  0
DICTIONARY
  5
292
330
1F2
100
AcDbDictionary
280
     1
281
     1
  3
ACAD_XREC_ROUNDTRIP
360
293
  0
DICTIONARY
  5
28C
330
1EF
100
AcDbDictionary
280
     1
281
     1
  3
ACAD_XREC_ROUNDTRIP
360
28D
  0
DICTIONARY
  5
28E
330
1F0
100
AcDbDictionary
280
     1
281
     1
  3
ACAD_XREC_ROUNDTRIP
360
28F
  0
DICTIONARY
  5
27E
330
FC
100
AcDbDictionary
280
     1
281
     1
  3
ACAD_XREC_ROUNDTRIP
360
27F
  0
DICTIONARY
  5
272
330
F6
100
AcDbDictionary
280
     1
281
     1
  3
ACAD_XREC_ROUNDTRIP
360
273
  0
DICTIONARY
  5
290
330
1F1
100
AcDbDictionary
280
     1
281
     1
  3
ACAD_XREC_ROUNDTRIP
360
291
  0
XRECORD
  5
25E
102
{ACAD_REACTORS
330
264
102
}
330
264
100
AcDbXrecord
280
     1
  1
AcDb_Thumbnail_Schema
102
{ATTRRECORD
341
25F
  2
AcDbDs::TreatedAsObjectData
280
     1
291
     1
102
ATTRRECORD}
102
{ATTRRECORD
341
260
  2
AcDbDs::Legacy
280
     1
291
     1
102
ATTRRECORD}
  2
AcDbDs::ID
280
    10
 91
        8
102
{ATTRRECORD
341
261
  2
AcDs:Indexable
280
     1
291
     1
102
ATTRRECORD}
102
{ATTRRECORD
341
262
  2
AcDbDs::HandleAttribute
280
     7
282
     1
102
ATTRRECORD}
  2
Thumbnail_Data
280
    15
 91
        0
  0
XRECORD
  5
25F
102
{ACAD_REACTORS
330
264
102
}
330
264
100
AcDbXrecord
280
     1
  1
AcDbDs::TreatedAsObjectDataSchema
  2
AcDbDs::TreatedAsObjectData
280
     1
 91
        0
  0
XRECORD
  5
260
102
{ACAD_REACTORS
330
264
102
}
330
264
100
AcDbXrecord
280
     1
  1
AcDbDs::LegacySchema
  2
AcDbDs::Legacy
280
     1
 91
        0
  0
XRECORD
  5
261
102
{ACAD_REACTORS
330
264
102
}
330
264
100
AcDbXrecord
280
     1
  1
AcDbDs::IndexedPropertySchema
  2
AcDs:Indexable
280
     1
 91
        0
  0
XRECORD
  5
262
102
{ACAD_REACTORS
330
264
102
}
330
264
100
AcDbXrecord
280
     1
  1
AcDbDs::HandleAttributeSchema
  2
AcDbDs::HandleAttribute
280
     7
 91
        1
284
     1
  0
XRECORD
  5
297
102
{ACAD_REACTORS
330
236
102
}
330
236
100
AcDbXrecord
280
     1
102
DISPLAYNAME
  1
Metric50
102
FLAGS
 90
        0
  0
XRECORD
  5
1FA
102
{ACAD_REACTORS
330
1F9
102
}
330
1F9
100
AcDbXrecord
280
     1
 70
     1
 90
429727718
  1
D62C5603-E3A1-4AEA-B7FB-FE5D8D0755AF
310
504B03040A0000080000CC70623B3DEE336E79000000790000001B0000006175746F6465736B2D64657369676E2D7061636B6167652E786D6C3C3F786D6C2076657273696F6E3D22312E302220656E636F64696E673D227574662D3822203F3E3C666F726D6174733E3C666F726D61743E687474703A2F2F736368656D612E
310
6175746F6465736B2E636F6D2F64657369676E2D7061636B6167652F323030393C2F666F726D61743E3C2F666F726D6174733E504B0304140006080800CC70623BD486FD9CA0000000F4000000130000005B436F6E74656E745F54797065735D2E786D6C7D8EC10E82300C865F65E91D8A1E8C310C0EEA1BF002731658846E
310
D98AC1B77784ABF1D8FE5FBFBF75BBCE937A534CCEB38643598122B6FEE978D0B0485F9C41B54DDD7D022595594E1A469170414C76A4D9A4D207E29CF43ECE46F218070CC6BECC4078ACAA135ACF422C856C0E68EA1BF5669944DDD7BCDE7B1F8E415D77AECB980613C2E4AC91FC167A2B244592486606FC29C8FD7F045B9A
310
EF7053A7E60B504B0304140006080800CC70623B853B8169EB0000007C01000008000000636F72652E786D6C8D90416EC3201045AF62CDB6C206821CC7C244919D9CA01740401C94182C03558F5F9C3852BBEB6A467FFE9B197D7EFC9E1EC5975982F5AE035262288C535E5B377690E21535501C055FBC8FBF6C503839990E
310
5619041F179FE64D52DE45E362569DD7661365082642A11EB9E920A89B99642953CC8E702F67A9EE7234257977194EC9EAE275C4EABCCF5EAD5940D4AC6F0E35A568B8F43562CD7046CD199FD07E60174276A7BE677B5EADB0E0D14EEFFB6A31321A0D82627C4084204C3F096B71DD52F6819B16635EADF63F509AF53FA164
310
5DDCD1EDDD17164090FCC8732078B56691CB33A85CD7DCC40F504B0304140006080800CC70623B55019EA25F0000007C00000007000000636E782E786D6C4DCB3B0E80201045D1AD90E915ED2CF8AC45050C11660C8261F98AB1B07AC9C97D42D718D865D3E909258CFD00CCE24AC6E326A164D74DC0B4128928FF32603847
310
2BA13128B1252AC747C6BAB984FC68F0B87FE8960A5C09FE86CFB69FBA01504B0304140006080800CC70623BDBABAAF470010000D40300000C0000006662782F636F72652E786D6CC553D16E823014FD95A6AF4B694182CC941A83FA05FB810A9511A125A5257EFE2E82712ECEB8A7F100CD39F7F69E734AF9FADC366850B6
310
AF8DCE7018308C942E4C59EB2AC3DE1D498AD15A706B8CFB56869196ADCAF00863C12B6B7C374385D14E6907A836A59A41D9F7CA615434B0C8705F7CAA5606D23BA8E84F41278B93AC54100640439DE0BDB320004D43C63716C7C399D30917DCFBBA9CD9BA8469F5B156168B24CED3F7248AC8769F27244EB73B92EED8862C
310
B7F13E0C179B3C8F979C8ECD82BBBABDAA2BAC924E9558448CBD9330242CFA08E3154B5651FCC6D215639C8EE5774DBE2B5F6CF2B5768B68963BB5F5588420E442FC700B1139D4CB01F450C1E918227C2E09DF070D8140C84E1E9AAB8F1340832A9CB13130A5F1376A908D57309505ECF2A0DF179C4E9D30F5B239B87E3823
310
7A79C6F31DE1A8A5AEC08474B03C7837EAE4938639B44E5932B833D2C6B6B279CDC613877FA26EE21F4A2A4C63EC7F29A2F301D1F9F7A0E37D145F504B0304140006080800CC70623B9C113CC27E0000009D0000000B0000006662782F636E782E786D6C4DCCDF0A83201C86E15B91DFB94BFB330DD428C8FB886521330DA7
310
6397BF1A1DECE883878F57749FCDA1B7892F1BBC047A23808C7F84D9FA55424E0BE6803A256208E9EF06C84F9B91703228B1C690F78B66B34CD9A5439DF5CF0BFBF65E35BCA1B8D6A5C6F540381E886698B5741C695F9503EBA150A2F8958E3DC3EA0B504B0304140006080800CC70623B7DF2F77C2A010000120200003100
310
00006662782F41393633353835312D344632462D344230382D423046372D3739314545314133324237412F636F72652E786D6C8D51DB8EC22014FC15C2939B0D2DB4B45643319AE817EC0F6041255A68B86CFCFC856D4D76DF7CE190393373060EDB3DC707F856CE6B6B7A480A0C81328395DA5C7B18C3057510EC3873D686
310
3F34088C18550F330C39BB3A1BA7051AAC09CA84841A2BD5020AEF55806078A44B0FFD7053A328440C89E1EFC52486BBB8AA8214A99D789CF9E05200300FC927E4FB4D5B375D43103D5527440FB843077C5AA3F5861C8F645F5787F59E95B390B318B55CE45AA638FAA2957BD7248B390B7A7CC51F9C124149C82B8C378810
310
84AB2F42B7B8DD56F413775B8C5999E9FF4471926F8AA236A1AE96B8B3CC434E5839373893369E1FAF30EA395917409EB7F26AF8801C171837A4A6AC9C89E9F9C9B1A58BA30FD6A5EF5DDDCF894B9AD9B6A59C957943A9FCAE2FD5BC4DFE03504B0304140006080800CC70623BAD7543B64E01000033030000300000006662
310
782F41393633353835312D344632462D344230382D423046372D3739314545314133324237412F636E782E786D6CD593CD6EC32010845F0571AD6CE3D48AD20813A9873E410FBD12D82434182C7EAAE6EDBB2424CD25871E7B41D6EC30B3FA84F9E67BB2E40B4234DE8DB46F1925E094D7C6ED479AD3AE5951B2113C789FEE
310
6C943839C1488B4C05DF079FE72A69D8C96C13AAD6B8631503449F83828872B949AC57D26200B826A308D316B4064D6E46FCDA41C05550DC9E483A00797BFD207EFB092A45DE9514C1BBD22178396BD39D891265658C238DEA00936C654E5E433CB65A26D9F6EDB5EBC14EBF49A45CB856E66048291F6939A9A81BB5C89177
310
38143CA680F4AA299D66A042CEB3354A2684DC9D8D178FE0D9B8B41CAAD720F880EE7EF93C0C18769E099ECC04D5A102C8049A8A05632F4DDF376CF1DE0F6BB65C2F8627B65A33C6BB62177CEBBDAD973006829F89F22E814B54F4BC2BE347F8AA8F681390B50FA73F804400B5F542E796F19FF974E7F78DB802FE05E20750
310
4B0304140006080800CC70623BE75B7789680500003C100000340000006662782F41393633353835312D344632462D344230382D423046372D3739314545314133324237412F6F626A656374732E786D6CAD575B8F9B3818FD2B887D06C22499CB8AA1CA655245D5B455A356FB305264C061D8018C6C3393D95FBFC7600890
310
A4CD5EF210B0B1BFEBF98E3F7B1FF6596ABC522E1296DF9BAE3D320D9A872C4AF2F8DE2CE5CEBA358D0FBEC719939D65A691938CDE9B6ADAF4BD98B3B2D05311DD91329583D9D5FC0F438434A7A611A644887B5384CF34233629258BA878B12322891DEFF6B66BD70BFB62634E8AE781D082709A4B588AF91C528CDA28B73F
310
1C998EEF39EABBEFA97FBD6A7C7E9553F9D3D79FE442923C3C523610337627CB87ABE99D359D4CC6D6E4FACAB5E6ABF9D2726FC6A3C5F56271377BB88362213924694B38DD99FE47C48627A1E7D49F5A8BB5E1A74C0A599ED3B0F21F1E56366B89112D681E218F0915D0D6F17AD41FBA2A369DCF6335D62ABBD39779D5DDD1
310
11D4D8DE3CBB96B2E04FB8202E41051754A1AA8E8F76B4C6DFE810B580B1547F4B84911149794252234D024EF8BBE963A95AE27B3D310A9D5C215C7960FAEE415ED75694C6AFB17BCACA5D99A60A9AA65F217B0BFC53292ACB92BF283FAD0D3621576592CB5BED907C2FA8E9DF794E35E97BEA31BED21FEB401ABB94C44839
310
DCACBF0E1C5DA8DA5B2F4DFFD32AD86F543D9E565E7056502E157C00AD2671CD534549AB752FCA9CDA00677A313F04E51B22FF19E57B300579E3C97EB29F682D92935CEC18CF901B7B54FD8C51F362B56FC72FE0B3C1EAE335EDCCBF5AEC39ADB17DC238973F804BA5E6F6BFE7AF1FB32E523BE9F3BD571418E3631DCA4D48
310
5250CF639223210A9446CA30052EDF057BD35F8329C1ECD84552BF0DC8D18BE7BCE23BFE6BD960AB4A7DE79923A103BEBD80F911CBAA2C60DB19B01CF164A5583B772EE6D3FFA56666CBCDA74DC97724A48F9A58967497E489C4D979006FD7A05E227A1EBDD0F737C623387A9C844D3709995625106D157315F8B8392CD4E0
310
A0B9A720C4BE9829CEF37EA1E13111214D53925356365ADA634861B52519DD27A00AEB808EAF0628E6F435519D446F45CF2C9CF5214F0A15B2F6D06B79DA3EE3CBF7F56780D2F4E7EF73A0F5E5B02A38D07DC852C6B7C1FBB6664213E0C39E3EBA7FF4E1AD23EA2829407C85E586727488B751B2DB9502BC7B228A3FD68B6E
310
A65A22397E690AA8D158D7E404EC8CDA235CC3B7D1898680131CEC2CDF2638C65196279577750F15884AEE19F94199155B92B13297978469D4F8D358DF0AEF7631E28DC8F0D9F437D5D39A83B2231A1D52D543813A824EF8D44BCFF2FA6A31BD1E8DAD87F1CCB526B3879935BF59CDADD5C37479BB1CDD4CA7B3556B516589
310
EF352754B706114D9C885EC9131DE6EFEB43D99AFE2391C2F958179413D7CFEF6B1B6DB1E7600F00DE6E5C67454A339A4BA2E0FBA85ED26F045D454F463DBFCE484C2F90F2E5E3666003662ED8F755951A7D1BECD5B30B550B2785C8E7320B7292A4838DDA71BBC863ED7613CAF659337A3354231D4FF4A182A54904C2898C
310
98B28C4AD0CE056CCF332A80986E571EE9DBC305BB5FEB7E509220A58D25CF042D712A806AC0AD0C657FDEF80D2D9CEAA2EE4D1C76F60BFE74219A06527D6F82DF6412526107381E55E353090704D085B52408A8913C4ED159D79BDA71BB4BC506F4831350EB6F975CD22D69BF7AC49B91A2C0A9DDA3D5CA36AD20FC478E37
310
E61844E2352865EBCB61A275A65283CAAA9DD27703B4102F5AF51EF5F573B75CBB5AD38BC845F7A49F82A0966A49C2E3EA5EA0ECD326CD965F1DB402C6FA8B51A4658C5C5E2EC9E214602E55810345408596591009A82E7E7FFACA19EEA299B14A0081A705CB3296EBC14CDF658DCD336EA6D1136881AAEB87B81AB9EE53D5
310
F5EB8BC8362082DA24122F98680A4E7930C01A0079749CEA14382A0783E5EBA5A10F8C098456A03D6A4AEB6BB881E2513747552A5DB22C7EDAF83BD5528081A365F7FF06504B0304140006080000CC70623B000000000000000000000000350000006662782F41393633353835312D344632462D344230382D423046372D37
310
39314545314133324237412F76657274696365732E62696E504B0304140006080800CC70623BF270F1330600000004000000360000006662782F41393633353835312D344632462D344230382D423046372D3739314545314133324237412F747269616E676C65732E62696E636660600000504B0304140006080000CC7062
310
3B000000000000000000000000370000006662782F41393633353835312D344632462D344230382D423046372D3739314545314133324237412F617474726962757465732E62696E504B0304140006080800CC70623B08DA0BD19000000041010000360000006662782F41393633353835312D344632462D344230382D4230
310
46372D3739314545314133324237412F6469726563746F72792E786D6C858F410AC3201045AF22B36F53E9A60B35CBEEBAE80D244E44489C6234F4F835464A48035D0DF398FF9F8AF63D0E6CC63039F212F8F9020C7D47C6792B21C5FE7403D62A1188E2E60C98D7234A5830286103A55745067B9D86B8A3CF9C7F90C11DE6
310
07FB144396D7B6A82D282E9A152AD114D5EF2CB866EEE831B8EEA07A7BB5A8D7D61A2BAAEB7FD5F70921FF497D00504B0304140006080800CC70623BEDD1DC58FD000000A00100003B0000006662782F41393633353835312D344632462D344230382D423046372D3739314545314133324237412F7265736F75726365732F
310
636F72652E786D6C8D504B6E833010BD0A9A6D65B00922041947112427E8052C33A156828DFCA97AFC9A40A576D7CDCCE87D344F8F9FBFE667F689CE6B6B3A6039850C8DB2A336530731DC4903D95970676DF82583CCC8193B5861107C72362E3BA4AC096842428D1D7107A5F7182053CF7474E0D507CE32973124857FE48B
310
540F3961CEF244279DE03EB81420DB9EAC1384436FA353E879B1B182C7A8C75DA3C7F453DF353A1075D537A7BA6464B8F535A99AE14A9A2BBD90E350DD183B5CFABE3AF262350B1EF4FC9351399401471025A527C218A1E53BAB5A5AB765F5469B96525EACF23FA6B88CFF34456DC2A1DCE36E360F82A5202F42F062ED2BAD
310
579969AFDD8A6F504B010214000A0000080000CC70623B3DEE336E79000000790000001B00000000000000000000000000000000006175746F6465736B2D64657369676E2D7061636B6167652E786D6C504B01021400140006080800CC70623BD486FD9CA0000000F40000001300000000000000000000000000B20000005B
310
436F6E74656E745F54797065735D2E786D6C504B01021400140006080800CC70623B853B8169EB0000007C010000080000000000000000000000000083010000636F72652E786D6C504B01021400140006080800CC70623B55019EA25F0000007C000000070000000000000000000000000094020000636E782E786D6C504B
310
01021400140006080800CC70623BDBABAAF470010000D40300000C00000000000000000000000000180300006662782F636F72652E786D6C504B01021400140006080800CC70623B9C113CC27E0000009D0000000B00000000000000000000000000B20400006662782F636E782E786D6C504B01021400140006080800CC70
310
623B7DF2F77C2A010000120200003100000000000000000000000000590500006662782F41393633353835312D344632462D344230382D423046372D3739314545314133324237412F636F72652E786D6C504B01021400140006080800CC70623BAD7543B64E010000330300003000000000000000000000000000D2060000
310
6662782F41393633353835312D344632462D344230382D423046372D3739314545314133324237412F636E782E786D6C504B01021400140006080800CC70623BE75B7789680500003C10000034000000000000000000000000006E0800006662782F41393633353835312D344632462D344230382D423046372D3739314545
310
314133324237412F6F626A656374732E786D6C504B01021400140006080000CC70623B0000000000000000000000003500000000000000000000000000280E00006662782F41393633353835312D344632462D344230382D423046372D3739314545314133324237412F76657274696365732E62696E504B01021400140006
310
080800CC70623BF270F133060000000400000036000000000000000000000000007B0E00006662782F41393633353835312D344632462D344230382D423046372D3739314545314133324237412F747269616E676C65732E62696E504B01021400140006080000CC70623B0000000000000000000000003700000000000000
310
000000000000D50E00006662782F41393633353835312D344632462D344230382D423046372D3739314545314133324237412F617474726962757465732E62696E504B01021400140006080800CC70623B08DA0BD1900000004101000036000000000000000000000000002A0F00006662782F41393633353835312D344632
310
462D344230382D423046372D3739314545314133324237412F6469726563746F72792E786D6C504B01021400140006080800CC70623BEDD1DC58FD000000A00100003B000000000000000000000000000E1000006662782F41393633353835312D344632462D344230382D423046372D3739314545314133324237412F7265
310
736F75726365732F636F72652E786D6C504B0506000000000E000E0080040000641100000000
  0
XRECORD
  5
1F8
102
{ACAD_REACTORS
330
1F7
102
}
330
1F7
100
AcDbXrecord
280
     1
 70
     1
 90
429727718
  1
30362254-06B7-45E0-A893-8CFA70E3D6BC
310
504B03040A0000080000CC70623B3DEE336E79000000790000001B0000006175746F6465736B2D64657369676E2D7061636B6167652E786D6C3C3F786D6C2076657273696F6E3D22312E302220656E636F64696E673D227574662D3822203F3E3C666F726D6174733E3C666F726D61743E687474703A2F2F736368656D612E
310
6175746F6465736B2E636F6D2F64657369676E2D7061636B6167652F323030393C2F666F726D61743E3C2F666F726D6174733E504B0304140006080800CC70623BD486FD9CA0000000F4000000130000005B436F6E74656E745F54797065735D2E786D6C7D8EC10E82300C865F65E91D8A1E8C310C0EEA1BF002731658846E
310
D98AC1B77784ABF1D8FE5FBFBF75BBCE937A534CCEB38643598122B6FEE978D0B0485F9C41B54DDD7D022595594E1A469170414C76A4D9A4D207E29CF43ECE46F218070CC6BECC4078ACAA135ACF422C856C0E68EA1BF5669944DDD7BCDE7B1F8E415D77AECB980613C2E4AC91FC167A2B244592486606FC29C8FD7F045B9A
310
EF7053A7E60B504B0304140006080800CC70623B1EC5D7A3EB0000007C01000008000000636F72652E786D6C8D90416EC3201045AF82665B6103C6756C6122AB4D4ED00B204C5C94182C03558F5F9C3852BBEB6A467FFE9B197D71FC9E6FE8CBACC17AD7032D0820E3B41FAD9B7A48F1820F808E52ACDEC75F36404ECDA687
310
4D0629A6D5A76597B477D1B89855E747B38B2A041301E95B6E7A08FAD3CCAA50296647B8168BD2573599823EBB0CA76447F43862C7BCCF5EAC59410E4DDD9C7973C2755553CCCFA4C603E3040F1565ED3B1FDE4E432BCA0D9622DAF9795FAF464533826484B498524CD807E51D79ED187F21878E10516EF63F505AC67F42C9
310
BA58B1FDDD071640D2FCC87D2045B96591CB3DA85CB7DCE40F504B0304140006080800CC70623B55019EA25F0000007C00000007000000636E782E786D6C4DCB3B0E80201045D1AD90E915ED2CF8AC45050C11660C8261F98AB1B07AC9C97D42D718D865D3E909258CFD00CCE24AC6E326A164D74DC0B4128928FF32603847
310
2BA13128B1252AC747C6BAB984FC68F0B87FE8960A5C09FE86CFB69FBA01504B0304140006080800CC70623B8C9102E971010000D40300000C0000006662782F636F72652E786D6CC5535B6E833010BC8AE5DF0A6C08340F1947A84D4ED00B38C6A128602363A31CBFCB234A53A551FA553EC09AD9F5CE8C31DB9E9B1AF5CA
310
7695D1198E428A91D2D214952E33ECDD315861B4E5CC1AE3BE9561A445A3323CC098B3D21ADFCE9034DA29ED00D5A6503328BA4E398C640D8B0C77F253352214DE4145770A5B214FA2546114020D759C75CE8200340D19DE981F0F6746269C33EFAB6266AB02A655C74A59CCF365BADC27CB5D902ED22848F6340DF238A141
310
BE88E2F57B92BFEDF23523433367AE6A2EEAA455C2A902F398D2751045018D3FA264435F3771F242571B4A1919CA6F9A7C5B3CD9E42BED16F12C776AEB308F40C848FC700B1139D4891EF410CEC810227CC6846F8386402064270EF5C5C709A05E49676C024C61FC95EA45ED154CA5211D1FF4FB8291A913A68E9B83EBBB33
310
E2A7673CDE118E5AE8124C0807CB8377834E366998436B950D7A7746DAD846D4CFD978E0F04FD455FC5D49D2D4C6FE9722321F10997F0F32DC47FE05504B0304140006080800CC70623BFFEA85907E0000009D0000000B0000006662782F636E782E786D6C4DCCD10A83201886E15B91FFDC95D95A811AB6F23E625948A6C3
310
E9D8E5AF46073BFAE0E1E365ED67B3E8ADC3CB78C7815C7240DA3DFC64DCC221C519D7805AC182F7F1EF06C88D9BE6703008B6049F9E274D7A1E938DBB5AE3D6131B2589BA0D3D965551E0B2EA732C9B9A624AAEB41E3A557677029960D9AFB4EF11165F504B0304140006080800CC70623B4FEEA4082C0100001202000031
310
0000006662782F39464131463745442D413632322D343644302D413938332D3331353338454246344243312F636F72652E786D6C8D515B6EC32010BC0AE2AB55850DD871ED0813254D72825EC00192A2C460F1A872FC42ED48ED5F7E00CDCECCCEB26C731F6FE05B39AFADE921293004CA082BB5B9F43086336A21D870E6AC
310
0D7F68109861543DCC30E4ECE26C9C164858139409093556AA051CBC570102714B8F1E7AF1A5C6A11862480C7F2DA6415C878B2A4891CA89C7990F2E050073937C42DE1DB7E4F87ED8A36D4329AA9B3D46DBAEAD504556557BD81DEBDD0761E52CE42C462D17B996298E3E6BE59E35C962CE821E1FF18553435012728A7187
310
0841987E927A8D9B35ADDF70BBC6989599FE4F1427F9A4286A132ABAC49D651EF234CD5CE04CDA78BA3DC2A8FB645D00B9DF8B57E215725C60BCA2A463E54C4CE327C7A65E1C7DB02E7DEFCBF594B864C5CA6CDBD49C957943E9FA5D5FBAF336F90F504B0304140006080800CC70623BAD7543B64E01000033030000300000
310
006662782F39464131463745442D413632322D343644302D413938332D3331353338454246344243312F636E782E786D6CD593CD6EC32010845F0571AD6CE3D48AD20813A9873E410FBD12D82434182C7EAAE6EDBB2424CD25871E7B41D6EC30B3FA84F9E67BB2E40B4234DE8DB46F1925E094D7C6ED479AD3AE5951B2113C
310
789FEE6C943839C1488B4C05DF079FE72A69D8C96C13AAD6B8631503449F83828872B949AC57D26200B826A308D316B4064D6E46FCDA41C05550DC9E483A00797BFD207EFB092A45DE9514C1BBD22178396BD39D891265658C238DEA00936C654E5E433CB65A26D9F6EDB5EBC14EBF49A45CB856E66048291F6939A9A81BB5
310
C8917738143CA680F4AA299D66A042CEB3354A2684DC9D8D178FE0D9B8B41CAAD720F880EE7EF93C0C18769E099ECC04D5A102C8049A8A05632F4DDF376CF1DE0F6BB65C2F8627B65A33C6BB62177CEBBDAD973006829F89F22E814B54F4BC2BE347F8AA8F681390B50FA73F804400B5F542E796F19FF974E7F78DB802FE05
310
E207504B0304140006080800CC70623B16AB87BA640500003C100000340000006662782F39464131463745442D413632322D343644302D413938332D3331353338454246344243312F6F626A656374732E786D6CAD575B6FA33818FD2B887DE6924B3BED8A326A92B68A663B534DD4D13E548A0C38942D60649B369D5FBFC7
310
600890A493BDE42160637FD7F31D7FF63E6FB3D478A55C242CBF3247B66B1A340F5994E4F19559CA8D75611A9F7D8F33263BCB4C232719BD32D5B4E97B316765A1A722BA21652A07B3B7B33F0D11D29C9A46981221AE4C113ED38CD8A4942CA2E2C58E882476BCD9DA23BB5ED8171B73523C0F841684D35CC252CCE79062D4
310
468DFA43D7747CCF51DF7D4FFDEB5593E3AB9CCA9FBEFE241792E4E19EB28198C968BAB8199F5D5A67D3E9C49A9E8F47D6EC76B6B0469F26EEFC7C3EBFBCBEB98462213924694B38DD98FE1D62C393D073EA4FADC5DAF04326852CCF6958F90F0F2B9BB5C48816348F90C7840A68EB78EDF68723159BCEE7891A6B95DDE9D3
310
BCEAEEE8086A6C6F9E5D4B59F0175C10A7A0820BAA5055C7473B5AE3CFDD452D602CD5DF12616444529E90D448938013FE6EFA58AA96F85E4F8C42275708571E98FE6827AF6B2B4AE3D7D83D64E5A64C53054DD3AF90BD06FEA9149565C94FCA0F6B834DC85599E4F2423B24DF0B6AFA979E534DFA9E7A4CC6FA631D486393
310
921829879BF5D781A373557BCB85E97FB90DB62B558F8795179C15944B051F40AB495CF35451D26A4727654E6D8033BD98EF82F21D91FF8AF2DD9982BCF1643BDD4EB516C9492E368C67C88DED563FC36D5EACF66DFF057C3658BDBFA69DF9578B3DA735B64F18C7F20770A9D45CFCF7FCF563D6456A277DBEF78A02637CA2
310
43B90A490AEAB94F72244481D24819A6C0E59B606BFA4B3025981DBB48EAB701D97BF19C577CC77F2D1B6C55A9EF3C732474C0B727303F625995056C3B02963D9EAC146BE78EC5FCEC7FA999EBC5EACBAAE41B12D27B4D2C0BBA49F244E2ECDC81B76B502F113D8F5EE8FB1BE3111CDD4FC2AA9B844CAB1288B68AB90A7CDC
310
1C166AB0D3DC5310625FCC14E779BFD0709F8890A629C9292B1B2DED31A4B0DA928CEE135085754027E3018A397D4D5427D15BD1330B677DC8934285AC3DF45A9EB68FF8F2B8FC0A509AFEECFD0FF2DE25CC6047F7214B195F07EFEB9A094D800F7BFAE8FED187B78EA8A3A400F115961BCAD1215E47C966530AF0EE8128FE
310
58CEBB996A8964FFA529A046635D9353B0336A8F700DDF46271A024E70B0B37C9DE01847591E54DED53D54202AB947E4076556AC49C6CA5C9E1226B7F1A7B1BE15DEED62C41B91E1B3E9AFAAA735036547343A925075041DF0A9979E893B391F8FCFA6967B3EFB644DCF6E5CEBFAE272625DCC6FAF3FB93793C5F90CE1EF57
310
407342756B10D1C489E8953CD1617E5CEECAD6F4EF8914CE5D5D504E5C3F1F9736DA62CFC11E00BCDDB8CC8A9466349744C1F75EBDA4DF09BA8A9E8C7A7E9991989E20E5DBDD6A6003664ED8F7A04A8DBE0DF6EAD9B9AA858342E47399053949D2C146EDB85DE4B176BB0965FBAC19BD19AA918E27FA50C1D22402E144464C
310
59462568E704B6E71915404CB72B8FF4EDE184DDAF753F284990D2C6926782963815403548A70C657FDEF80D2D9CEAA2AE4C1C76F60BFE74219A06527D6582DF6412526107381E55E353090704D085B52408D0933C4ED159D79BDA71BB4BC506F4831350EB6F979CD22D69BF7AC49B91A2C0A9DDA3D5CA36AD20FC478E37E6
310
1844E2352865EBCB6EA275A652E3836BE04EFB400BF1A2556F515F1FBB35B2AB35BD889C744FFA1004B5544B121E57F70215746DD2F5E2C1412B602CBF19455AC6C8E5E9922C4E01E65215385004546899059180EAFCF7A707CE7017CD8CDB0410789AB32C63B91E5CEBBBACB17AC6CD347A022D5075FD106377347AAABA7E
310
7D11590744509B44E205134DC1290F06580320F78E537D3D73540E06CB970B431F185308AD40BBD794D6D77003C5A36E8EAA54BA64597CD8F83BD552A080A365F7FF06504B0304140006080000CC70623B000000000000000000000000350000006662782F39464131463745442D413632322D343644302D413938332D3331
310
353338454246344243312F76657274696365732E62696E504B0304140006080800CC70623BF270F1330600000004000000360000006662782F39464131463745442D413632322D343644302D413938332D3331353338454246344243312F747269616E676C65732E62696E636660600000504B0304140006080000CC70623B
310
000000000000000000000000370000006662782F39464131463745442D413632322D343644302D413938332D3331353338454246344243312F617474726962757465732E62696E504B0304140006080800CC70623B08DA0BD19000000041010000360000006662782F39464131463745442D413632322D343644302D413938
310
332D3331353338454246344243312F6469726563746F72792E786D6C858F410AC3201045AF22B36F53E9A60B35CBEEBAE80D244E44489C6234F4F835464A48035D0DF398FF9F8AF63D0E6CC63039F212F8F9020C7D47C6792B21C5FE7403D62A1188E2E60C98D7234A5830286103A55745067B9D86B8A3CF9C7F90C11DE607
310
FB144396D7B6A82D282E9A152AD114D5EF2CB866EEE831B8EEA07A7BB5A8D7D61A2BAAEB7FD5F70921FF497D00504B0304140006080800CC70623B0D6EF93BFE000000A00100003B0000006662782F39464131463745442D413632322D343644302D413938332D3331353338454246344243312F7265736F75726365732F63
310
6F72652E786D6C8D50596E833010BD0A9ADFCA60B334011947A8694ED00B586642AC041B79A97AFC9A40A5F6AF3F33A3B7689E1E3F7DCD8FEC139DD7D6F4C0720A191A65476DA61E62B892236427C19DB5E1970C322367EC618541F0C9D9B8EC90B226A009093576C41D94DE63804C3DD2D18357379C652E63480A7FCF17A9
310
EE72C29CE5894E3AC17D702940B63D59270887DE46A7D0F36263058F518FBB468FE9A7BE6A7420864373B8D4873369AA8691FA421B3294352543C5CAF65C0F6FEF43CB8BD52C78D0F34F46E550061C419494B6843142CB0F5677F4B52BEB177AEC28E5C52AFF638ACBF84F53D42654E51E77B379102C05791282176B5F693D
310
CB4C7BED567C03504B010214000A0000080000CC70623B3DEE336E79000000790000001B00000000000000000000000000000000006175746F6465736B2D64657369676E2D7061636B6167652E786D6C504B01021400140006080800CC70623BD486FD9CA0000000F40000001300000000000000000000000000B20000005B
310
436F6E74656E745F54797065735D2E786D6C504B01021400140006080800CC70623B1EC5D7A3EB0000007C010000080000000000000000000000000083010000636F72652E786D6C504B01021400140006080800CC70623B55019EA25F0000007C000000070000000000000000000000000094020000636E782E786D6C504B
310
01021400140006080800CC70623B8C9102E971010000D40300000C00000000000000000000000000180300006662782F636F72652E786D6C504B01021400140006080800CC70623BFFEA85907E0000009D0000000B00000000000000000000000000B30400006662782F636E782E786D6C504B01021400140006080800CC70
310
623B4FEEA4082C0100001202000031000000000000000000000000005A0500006662782F39464131463745442D413632322D343644302D413938332D3331353338454246344243312F636F72652E786D6C504B01021400140006080800CC70623BAD7543B64E010000330300003000000000000000000000000000D5060000
310
6662782F39464131463745442D413632322D343644302D413938332D3331353338454246344243312F636E782E786D6C504B01021400140006080800CC70623B16AB87BA640500003C1000003400000000000000000000000000710800006662782F39464131463745442D413632322D343644302D413938332D3331353338
310
454246344243312F6F626A656374732E786D6C504B01021400140006080000CC70623B0000000000000000000000003500000000000000000000000000270E00006662782F39464131463745442D413632322D343644302D413938332D3331353338454246344243312F76657274696365732E62696E504B01021400140006
310
080800CC70623BF270F133060000000400000036000000000000000000000000007A0E00006662782F39464131463745442D413632322D343644302D413938332D3331353338454246344243312F747269616E676C65732E62696E504B01021400140006080000CC70623B0000000000000000000000003700000000000000
310
000000000000D40E00006662782F39464131463745442D413632322D343644302D413938332D3331353338454246344243312F617474726962757465732E62696E504B01021400140006080800CC70623B08DA0BD190000000410100003600000000000000000000000000290F00006662782F39464131463745442D413632
310
322D343644302D413938332D3331353338454246344243312F6469726563746F72792E786D6C504B01021400140006080800CC70623B0D6EF93BFE000000A00100003B000000000000000000000000000D1000006662782F39464131463745442D413632322D343644302D413938332D3331353338454246344243312F7265
310
736F75726365732F636F72652E786D6C504B0506000000000E000E0080040000641100000000
  0
XRECORD
  5
175
102
{ACAD_REACTORS
330
173
102
}
330
173
100
AcDbXrecord
280
     1
270
     1
271
     1
  0
XRECORD
  5
174
102
{ACAD_REACTORS
330
173
102
}
330
173
100
AcDbXrecord
280
     1
270
     1
271
     1
  0
XRECORD
  5
1FB
102
{ACAD_REACTORS
330
173
102
}
330
173
100
AcDbXrecord
280
     1
 70
     0
 90
1673772943
  1
ECE7A1D2-D628-4531-984C-D00F80459256
310
504B03040A0000080000CC70623B3DEE336E79000000790000001B0000006175746F6465736B2D64657369676E2D7061636B6167652E786D6C3C3F786D6C2076657273696F6E3D22312E302220656E636F64696E673D227574662D3822203F3E3C666F726D6174733E3C666F726D61743E687474703A2F2F736368656D612E
310
6175746F6465736B2E636F6D2F64657369676E2D7061636B6167652F323030393C2F666F726D61743E3C2F666F726D6174733E504B0304140006080800CC70623BD486FD9CA0000000F4000000130000005B436F6E74656E745F54797065735D2E786D6C7D8EC10E82300C865F65E91D8A1E8C310C0EEA1BF002731658846E
310
D98AC1B77784ABF1D8FE5FBFBF75BBCE937A534CCEB38643598122B6FEE978D0B0485F9C41B54DDD7D022595594E1A469170414C76A4D9A4D207E29CF43ECE46F218070CC6BECC4078ACAA135ACF422C856C0E68EA1BF5669944DDD7BCDE7B1F8E415D77AECB980613C2E4AC91FC167A2B244592486606FC29C8FD7F045B9A
310
EF7053A7E60B504B0304140006080800CC70623BD9DDAED0EC0000007C01000008000000636F72652E786D6C8D90416EC3201045AF82665B61836D9CD8C2444DD39CA01740405C94182C03558F5F9C3852BBEB6A467FFE9B197D7EF89E6EE8CB2CC17A37002D0820E394D7D68D03A478C17B4007C117EFE32F1B20272733C0
310
2A83E0E3E2D3BC49CABB685CCCAAF3DA6CA20CC14440EA969B0182FA34932C648AD911AEC52CD5558EA6A0CF2EC329598D1E47ACCEFBECC59A050463A7EA5833865FEBDD0E37353BE3EE8DBDE3F6786A48D375FBF6CC78B9C282473B3DEFABC5C86834888A900E538A49F5419B9EB47DD5BC907D4F082F57FB1F28CDFA9F50
310
B22ED6D5F6EE030B20687EE43E10BC5CB3C8E51E54AE6B6EE207504B0304140006080800CC70623B55019EA25F0000007C00000007000000636E782E786D6C4DCB3B0E80201045D1AD90E915ED2CF8AC45050C11660C8261F98AB1B07AC9C97D42D718D865D3E909258CFD00CCE24AC6E326A164D74DC0B4128928FF326038
310
472BA13128B1252AC747C6BAB984FC68F0B87FE8960A5C09FE86CFB69FBA01504B0304140006080800CC70623BA24EB22D72010000D40300000C0000006662782F636F72652E786D6CC5535B6E833010BC8AE5DF0A6C5E49888CA3A6694ED00B38E05014B091B1518EDFE511A5A9D228FD2A1F60CDEC7A67C6986DCE4D8D7A
310
69BA4AAB0C073EC548AA5C17952A33ECECD15B61B4E1CC686DBF9561A44423333CC098B3D268D7CE50AE9595CA02AA74216750749DB418E5352C32DCE59FB211BE70162ABA93DF8AFC244AE9073ED050C759670D0840D390E18DF9F1706664C23973AE2A66B62A605A75ACA4C13C4976E1364A12EF355A2EBD384AF65EFA96
310
BC7B8BED2EA6719AAE16FB8491A199335B351775B991C2CA02F390D2D40B028F861F41BCA68B7518BFD0D59A524686F29B26D7164F36B94AD9289CE54E6D1DE6010819891F6E21228B3AD1831EC219194284CF98F06DD01008846CC5A1BEF83801D4CBDC6A1303536877A57A513B0953A94FC707FDBE6064EA84A9E3E6E0FA
310
EE8CF0E9198F7784A316AA0413C2C2F2E0ECA0934D1AE6D05A69BCDE9E91D2A611F573361E38FC1375157F5752AE6B6DFE4B11990F88CCBF0719EE23FF02504B0304140006080800CC70623B408A7D3B7C0000009D0000000B0000006662782F636E782E786D6C4DCCD10A83201886E15B91FFDC552A92A0064DBC8F581632
310
D3703A76F9ABD1C18E3E78F878E5F0D9027ABBFCF2292AE86E2D20171F69F6715550CB827B40839639A5F2770314A7CD293819B45C73AAFB45B35BA61ACAA1C1C7E7855C58C15BC331339661262CC762340413D68D77DA5B42298546CBE6573AF60CEB2F504B0304140006080800CC70623B449FB9BD290100001202000031
310
0000006662782F36394639363044362D344446342D343946362D394244322D3234314243333846323333332F636F72652E786D6C8D515B6EC32010BC0AE22B55850D98B871848994463E412FE002495162B07854397EA176A4F62F3F2C9A9D991D587EB84F37F0AD7D30CEF6905418026DA553C65E7A98E219ED203808EE9D
310
8B7F6810D871D23D2C3014FCE25D9A57483A1BB58D19B54EE9151C43D0110279CB971E06F9A5A7B11A53CC8C70ADE6515EC78BAE4895DB992778883E0700CB907242D17643D7E2538BD869608875438BBAE38922CAC8F1BDD90DB4691A5E2F42C153326A951B95E398B3D1FE599322163C9AE9115F7A3D46ADA0A018778810
310
84E907617BDCEE297BC5BB3DC6BC2EF47FA234AB2745C9D8D8D035EE220B50105E2F0DC1954B9FB747187D9F9D8FA0CCDB042D5FA0C015C65B42DF78BD10F3F3B363CB56C7109DCFDFBBB97E662ED92EB62D13BC2E1BCAE5777DB9966D8A1F504B0304140006080800CC70623BAD7543B64E01000033030000300000006662
310
782F36394639363044362D344446342D343946362D394244322D3234314243333846323333332F636E782E786D6CD593CD6EC32010845F0571AD6CE3D48AD20813A9873E410FBD12D82434182C7EAAE6EDBB2424CD25871E7B41D6EC30B3FA84F9E67BB2E40B4234DE8DB46F1925E094D7C6ED479AD3AE5951B2113C789FEE
310
6C943839C1488B4C05DF079FE72A69D8C96C13AAD6B8631503449F83828872B949AC57D26200B826A308D316B4064D6E46FCDA41C05550DC9E483A00797BFD207EFB092A45DE9514C1BBD22178396BD39D891265658C238DEA00936C654E5E433CB65A26D9F6EDB5EBC14EBF49A45CB856E66048291F6939A9A81BB5C89177
310
38143CA680F4AA299D66A042CEB3354A2684DC9D8D178FE0D9B8B41CAAD720F880EE7EF93C0C18769E099ECC04D5A102C8049A8A05632F4DDF376CF1DE0F6BB65C2F8627B65A33C6BB62177CEBBDAD973006829F89F22E814B54F4BC2BE347F8AA8F681390B50FA73F804400B5F542E796F19FF974E7F78DB802FE05E20750
310
4B0304140006080800CC70623B8D05915C650500003B100000340000006662782F36394639363044362D344446342D343946362D394244322D3234314243333846323333332F6F626A656374732E786D6CAD575B6FA33814FE2B887D06429276DA1565D4266D158D3A339A6846FB502932E050B66023DB74D2FDF5FB190C01
310
9276B2973C046C8ECFF53B17071F77456EBD502133CEAE6CDF9DD81665314F32965ED995DA3A17B6F5310C04E7AA47665B8C14F4CAD6DB7618A48257A5D94AE89654B91AEDDEDDFC61C998326A5B714EA4BCB265FC440BE2924AF184CA6737218AB8E976E7FA6E4338649B0A523E8D98964450A6A029F619B8588D52FE7039
310
B1BD30F0F4F730D0FF866AF6369557DB33949F31A9088B0F848DD8CCFCF9F2767A76E99CCDE733677E3EF59D9BBB9BA5E37F984D16E78BC5E5F5ED25044B25C0C96822E8D60EEFE11B91C581D77CEA34368A1F5329E68CD1B8B61F16D63A1B8E092D294B10C78C4A48EB593D192E7DED9BDEE7995E1B91FDEDD3ACEA9FE831
310
6A756F9F7D4D79F4274C90A7A04248AA51D5F8C718DAE06FB2F75AC4796EBE65D22A88A22223B995679120E2D50E41AA49C260C046A35368846B0BECD0DFF3EBEB8AD4F835768F69B9ADF25C43D30E6B646F807FAA64AD59F61715C7A54127C4AACA98BA3006A9D792DAE165E0D59B61A01FB3A9F9D838D2DAE62445C86166
310
F37564E842E7DE6A69879FEEA2DD5AE7E371E1A5E025154AC307D06A03D73EB5978C58FFA4C8E9033066E0F3BD53BEC1F39F91BE7B55103791EDE6BBB991A2046172CB4581D8B893FA674DDA17A77B3B7C413D1B511FD2743BFF8A38F03A658705E3ADF8015C3A3417FF3D7E439FF591DA0B5F18BC20C1B8981957AE6392A3
310
F43C640C01D1A0B4728E2DD4F26DB4B3C3152A252A3B4E913CEC1C72F012782FF88EFF8637AA552DBEF76408E8A8DE9E50F9E1CB3A2DA0DB1B6039A893B56063DC5B3E3FFB5F72E67AB9FEB4AEC496C4F4C1149625DD662C53E89D7BF0F6151A046260D1337DFDC94502430F83B0EE07A130A224BCAD7DAE1D9FB6CD422FF6
310
920702629C4BB9AE79C12F243C6432A6794E18E5552BA56B431AAB5D91317302B2B071E86C3A42B1A02F999E24061403B5D0EB639195DA655DD3EBEAB4FB862DDF579F014AD0E73C22F99E28DA57FB98E75C6CA2D74D53086D600F4786E0FE3144B771A8A7B900F03594DB8A633CBC49B2EDB69228BB479CF863B5E807AAAB
310
23872F6DFEB4129B949CA33823F58830E86D65621E10047D9DB34D862E8EAC3C2ABC2F7B2C40D67CDFE01F5545B92105AF983AC54D93D69E56FB8E797F88913F898A9FEC705D3F9D1B54EC8426FB500D40A03BD0119B06E1B95DDC7EB8F6975367793EBD70E66733DFB9BC982F9CE564727731999F5D4ECFCE3B8D6A4DC2A0
310
6D50FD148437D110834A64C6CDDF57FBACB5C307A2A477DFE4939736CFEF2B175371E0E10CF0DD1D5C15654E0BCA14D1E87DD02FF93782A162C0A3D95F1524A52770F972BF1EE9809D13CE7DD599467F8ECE9ADD85CE85A34CD45355448C64F9E8A031DC2D596ACC6E5DD93D9B82DE2EF5CAF81363A8E47996A0DE24564A79
310
4115AACE09C55E14540231FDA13C319787134EBF34E3A022514E5B4D9E0826E25C02D5805B15ABE1BEF51B26383D445DD9E875EE33FE4C22DA16427D65A3BCA92CA6D28DD01DF5DC53330704308475351050232CCD31583787BA75774AFB06E5070DD0C8EF484E19968C5D83BA5B90B244D31E54D55A372320FE4786B7EA58
310
44E135AA5467CB7EA333A61683CC6A8C3257034C10CF46F40EF9F5BE59BE5BD30C3C72D235E95D10345C1D45445A5F0BB47E46A5EBE5570F9380B5FA629579952296A773720405982B9DE04011506178964401AA8BDF1FBF0A8EAB6861DD6580C0E38217056766716DAEB2D6FA0917D3E4116581EADB879C4E7CFFB11EFACD
310
3D641311495D92C8676CB409A72D18610D803CE8A626049E8EC1887CB5B44CC39883690DDA8399B4B9855B481E7D71D4A9D22F96E5BB73BF5793020C02137BF837504B0304140006080000CC70623B000000000000000000000000350000006662782F36394639363044362D344446342D343946362D394244322D32343142
310
43333846323333332F76657274696365732E62696E504B0304140006080800CC70623BF270F1330600000004000000360000006662782F36394639363044362D344446342D343946362D394244322D3234314243333846323333332F747269616E676C65732E62696E636660600000504B0304140006080000CC70623B0000
310
00000000000000000000370000006662782F36394639363044362D344446342D343946362D394244322D3234314243333846323333332F617474726962757465732E62696E504B0304140006080800CC70623B08DA0BD19000000041010000360000006662782F36394639363044362D344446342D343946362D394244322D
310
3234314243333846323333332F6469726563746F72792E786D6C858F410AC3201045AF22B36F53E9A60B35CBEEBAE80D244E44489C6234F4F835464A48035D0DF398FF9F8AF63D0E6CC63039F212F8F9020C7D47C6792B21C5FE7403D62A1188E2E60C98D7234A5830286103A55745067B9D86B8A3CF9C7F90C11DE607FB14
310
4396D7B6A82D282E9A152AD114D5EF2CB866EEE831B8EEA07A7BB5A8D7D61A2BAAEB7FD5F70921FF497D00504B0304140006080800CC70623BCA768048FE000000A00100003B0000006662782F36394639363044362D344446342D343946362D394244322D3234314243333846323333332F7265736F75726365732F636F72
310
652E786D6C8D50596E833010BD0A9ADFCA60D600328E9AA639412F609909B1126CE4A5EAF16B0295DABFFECC8CDEA2797AECF8353F924FB44E193D409E5248504B332A3D0D10FC95B4901C39B3C6F85F3248B49871801506CE266BC2B243D2688FDA47549B11775038871E12F988C7004EDE7016A9083E2ADC3D5D84BC8B09
310
D33C8D74D471E6BC8D0192EDC93A815B742658898E651BCB59086ADC356A8C3FD555A1055ED7E7E254D615792D0F075295F585746FF53B694EE78A565DD736979A65AB9933AFE69F8CD2A2F038022F28ED489E135A7CE4554F9BBEA85E68DB53CAB255FEC71496F19FA6A0B42F8B3DEE6673C0F318E4497096AD7DC5F52C33
310
EEB55BFE0D504B010214000A0000080000CC70623B3DEE336E79000000790000001B00000000000000000000000000000000006175746F6465736B2D64657369676E2D7061636B6167652E786D6C504B01021400140006080800CC70623BD486FD9CA0000000F40000001300000000000000000000000000B20000005B436F
310
6E74656E745F54797065735D2E786D6C504B01021400140006080800CC70623BD9DDAED0EC0000007C010000080000000000000000000000000083010000636F72652E786D6C504B01021400140006080800CC70623B55019EA25F0000007C000000070000000000000000000000000095020000636E782E786D6C504B0102
310
1400140006080800CC70623BA24EB22D72010000D40300000C00000000000000000000000000190300006662782F636F72652E786D6C504B01021400140006080800CC70623B408A7D3B7C0000009D0000000B00000000000000000000000000B50400006662782F636E782E786D6C504B01021400140006080800CC70623B
310
449FB9BD290100001202000031000000000000000000000000005A0500006662782F36394639363044362D344446342D343946362D394244322D3234314243333846323333332F636F72652E786D6C504B01021400140006080800CC70623BAD7543B64E010000330300003000000000000000000000000000D20600006662
310
782F36394639363044362D344446342D343946362D394244322D3234314243333846323333332F636E782E786D6C504B01021400140006080800CC70623B8D05915C650500003B10000034000000000000000000000000006E0800006662782F36394639363044362D344446342D343946362D394244322D32343142433338
310
46323333332F6F626A656374732E786D6C504B01021400140006080000CC70623B0000000000000000000000003500000000000000000000000000250E00006662782F36394639363044362D344446342D343946362D394244322D3234314243333846323333332F76657274696365732E62696E504B010214001400060808
310
00CC70623BF270F13306000000040000003600000000000000000000000000780E00006662782F36394639363044362D344446342D343946362D394244322D3234314243333846323333332F747269616E676C65732E62696E504B01021400140006080000CC70623B00000000000000000000000037000000000000000000
310
00000000D20E00006662782F36394639363044362D344446342D343946362D394244322D3234314243333846323333332F617474726962757465732E62696E504B01021400140006080800CC70623B08DA0BD190000000410100003600000000000000000000000000270F00006662782F36394639363044362D344446342D
310
343946362D394244322D3234314243333846323333332F6469726563746F72792E786D6C504B01021400140006080800CC70623BCA768048FE000000A00100003B000000000000000000000000000B1000006662782F36394639363044362D344446342D343946362D394244322D3234314243333846323333332F7265736F
310
75726365732F636F72652E786D6C504B0506000000000E000E0080040000621100000000
  0
XRECORD
  5
176
102
{ACAD_REACTORS
330
173
102
}
330
173
100
AcDbXrecord
280
     1
270
     1
271
     1
  0
XRECORD
  5
177
102
{ACAD_REACTORS
330
173
102
}
330
173
100
AcDbXrecord
280
     1
270
     1
271
     1
  0
XRECORD
  5
296
102
{ACAD_REACTORS
330
234
102
}
330
234
100
AcDbXrecord
280
     1
102
DISPLAYNAME
  1
Metric50
102
FLAGS
 90
        0
  0
CELLSTYLEMAP
  5
25C
102
{ACAD_REACTORS
330
162
102
}
330
162
100
AcDbCellStyleMap
 90
        3
300
CELLSTYLE
  1
TABLEFORMAT_BEGIN
 90
        5
170
     1
 91
        0
 92
    32768
 62
   257
 93
        1
300
CONTENTFORMAT
  1
CONTENTFORMAT_BEGIN
 90
        0
 91
        0
 92
      512
 93
        0
300

 40
0.0
140
1.0
 94
        5
 62
     0
340
11
144
6.0
309
CONTENTFORMAT_END
171
     1
301
MARGIN
  1
CELLMARGIN_BEGIN
 40
1.5
 40
1.5
 40
1.5
 40
1.5
 40
4.5
 40
4.5
309
CELLMARGIN_END
 94
        6
 95
        1
302
GRIDFORMAT
  1
GRIDFORMAT_BEGIN
 90
        0
 91
        1
 62
     0
 92
       -2
340
14
 93
        0
 40
1.125
309
GRIDFORMAT_END
 95
        2
302
GRIDFORMAT
  1
GRIDFORMAT_BEGIN
 90
        0
 91
        1
 62
     0
 92
       -2
340
14
 93
        0
 40
1.125
309
GRIDFORMAT_END
 95
        4
302
GRIDFORMAT
  1
GRIDFORMAT_BEGIN
 90
        0
 91
        1
 62
     0
 92
       -2
340
14
 93
        0
 40
1.125
309
GRIDFORMAT_END
 95
        8
302
GRIDFORMAT
  1
GRIDFORMAT_BEGIN
 90
        0
 91
        1
 62
     0
 92
       -2
340
14
 93
        0
 40
1.125
309
GRIDFORMAT_END
 95
       16
302
GRIDFORMAT
  1
GRIDFORMAT_BEGIN
 90
        0
 91
        1
 62
     0
 92
       -2
340
14
 93
        0
 40
1.125
309
GRIDFORMAT_END
 95
       32
302
GRIDFORMAT
  1
GRIDFORMAT_BEGIN
 90
        0
 91
        1
 62
     0
 92
       -2
340
14
 93
        0
 40
1.125
309
GRIDFORMAT_END
309
TABLEFORMAT_END
  1
CELLSTYLE_BEGIN
 90
        1
 91
        1
300
_TITLE
309
CELLSTYLE_END
300
CELLSTYLE
  1
TABLEFORMAT_BEGIN
 90
        5
170
     1
 91
        0
 92
        0
 62
   257
 93
        1
300
CONTENTFORMAT
  1
CONTENTFORMAT_BEGIN
 90
        0
 91
        0
 92
      512
 93
        0
300

 40
0.0
140
1.0
 94
        5
 62
     0
340
11
144
4.5
309
CONTENTFORMAT_END
171
     1
301
MARGIN
  1
CELLMARGIN_BEGIN
 40
1.5
 40
1.5
 40
1.5
 40
1.5
 40
4.5
 40
4.5
309
CELLMARGIN_END
 94
        6
 95
        1
302
GRIDFORMAT
  1
GRIDFORMAT_BEGIN
 90
        0
 91
        1
 62
     0
 92
       -2
340
14
 93
        0
 40
1.125
309
GRIDFORMAT_END
 95
        2
302
GRIDFORMAT
  1
GRIDFORMAT_BEGIN
 90
        0
 91
        1
 62
     0
 92
       -2
340
14
 93
        0
 40
1.125
309
GRIDFORMAT_END
 95
        4
302
GRIDFORMAT
  1
GRIDFORMAT_BEGIN
 90
        0
 91
        1
 62
     0
 92
       -2
340
14
 93
        0
 40
1.125
309
GRIDFORMAT_END
 95
        8
302
GRIDFORMAT
  1
GRIDFORMAT_BEGIN
 90
        0
 91
        1
 62
     0
 92
       -2
340
14
 93
        0
 40
1.125
309
GRIDFORMAT_END
 95
       16
302
GRIDFORMAT
  1
GRIDFORMAT_BEGIN
 90
        0
 91
        1
 62
     0
 92
       -2
340
14
 93
        0
 40
1.125
309
GRIDFORMAT_END
 95
       32
302
GRIDFORMAT
  1
GRIDFORMAT_BEGIN
 90
        0
 91
        1
 62
     0
 92
       -2
340
14
 93
        0
 40
1.125
309
GRIDFORMAT_END
309
TABLEFORMAT_END
  1
CELLSTYLE_BEGIN
 90
        2
 91
        1
300
_HEADER
309
CELLSTYLE_END
300
CELLSTYLE
  1
TABLEFORMAT_BEGIN
 90
        5
170
     1
 91
        0
 92
        0
 62
   257
 93
        1
300
CONTENTFORMAT
  1
CONTENTFORMAT_BEGIN
 90
        0
 91
        0
 92
      512
 93
        0
300

 40
0.0
140
1.0
 94
        2
 62
     0
340
11
144
4.5
309
CONTENTFORMAT_END
171
     1
301
MARGIN
  1
CELLMARGIN_BEGIN
 40
1.5
 40
1.5
 40
1.5
 40
1.5
 40
4.5
 40
4.5
309
CELLMARGIN_END
 94
        6
 95
        1
302
GRIDFORMAT
  1
GRIDFORMAT_BEGIN
 90
        0
 91
        1
 62
     0
 92
       -2
340
14
 93
        0
 40
1.125
309
GRIDFORMAT_END
 95
        2
302
GRIDFORMAT
  1
GRIDFORMAT_BEGIN
 90
        0
 91
        1
 62
     0
 92
       -2
340
14
 93
        0
 40
1.125
309
GRIDFORMAT_END
 95
        4
302
GRIDFORMAT
  1
GRIDFORMAT_BEGIN
 90
        0
 91
        1
 62
     0
 92
       -2
340
14
 93
        0
 40
1.125
309
GRIDFORMAT_END
 95
        8
302
GRIDFORMAT
  1
GRIDFORMAT_BEGIN
 90
        0
 91
        1
 62
     0
 92
       -2
340
14
 93
        0
 40
1.125
309
GRIDFORMAT_END
 95
       16
302
GRIDFORMAT
  1
GRIDFORMAT_BEGIN
 90
        0
 91
        1
 62
     0
 92
       -2
340
14
 93
        0
 40
1.125
309
GRIDFORMAT_END
 95
       32
302
GRIDFORMAT
  1
GRIDFORMAT_BEGIN
 90
        0
 91
        1
 62
     0
 92
       -2
340
14
 93
        0
 40
1.125
309
GRIDFORMAT_END
309
TABLEFORMAT_END
  1
CELLSTYLE_BEGIN
 90
        3
 91
        2
300
_DATA
309
CELLSTYLE_END
  0
XRECORD
  5
271
102
{ACAD_REACTORS
330
270
102
}
330
270
100
AcDbXrecord
280
     1
102
RTVSPost2010Prop28
280
     1
102
RTVSPost2010PropOp28
 70
     1
102
RTVSPost2010Prop29
280
     1
102
RTVSPost2010PropOp29
 70
     1
102
RTVSPost2010Prop30
280
     0
102
RTVSPost2010PropOp30
 70
     1
102
RTVSPost2010Prop31
280
     0
102
RTVSPost2010PropOp31
 70
     1
102
RTVSPost2010Prop32
280
     0
102
RTVSPost2010PropOp32
 70
     1
102
RTVSPost2010Prop33
280
     0
102
RTVSPost2010PropOp33
 70
     1
102
RTVSPost2010Prop34
280
     0
102
RTVSPost2010PropOp34
 70
     1
102
RTVSPost2010Prop35
280
     0
102
RTVSPost2010PropOp35
 70
     1
102
RTVSPost2010Prop36
280
     0
102
RTVSPost2010PropOp36
 70
     1
102
RTVSPost2010Prop37
 90
       50
102
RTVSPost2010PropOp37
 70
     1
102
RTVSPost2010Prop38
140
0.0
102
RTVSPost2010PropOp38
 70
     1
102
RTVSPost2010Prop39
140
1.0
102
RTVSPost2010PropOp39
 70
     1
102
RTVSPost2010Prop40
 90
        0
102
RTVSPost2010PropOp40
 70
     1
102
RTVSPost2010Prop41ColorIndex
 90
       18
102
RTVSPost2010Prop41ColorRGB
 90
        0
102
RTVSPost2010PropOp41
 70
     1
102
RTVSPost2010Prop42
 90
       50
102
RTVSPost2010PropOp42
 70
     1
102
RTVSPost2010Prop43
 90
        3
102
RTVSPost2010PropOp43
 70
     1
102
RTVSPost2010Prop44ColorIndex
 90
        5
102
RTVSPost2010Prop44ColorRGB
 90
      255
102
RTVSPost2010PropOp44
 70
     1
102
RTVSPost2010Prop45
280
     0
102
RTVSPost2010PropOp45
 70
     1
102
RTVSPost2010Prop46
 90
       50
102
RTVSPost2010PropOp46
 70
     1
102
RTVSPost2010Prop47
 90
       50
102
RTVSPost2010PropOp47
 70
     1
102
RTVSPost2010Prop48
 90
       50
102
RTVSPost2010PropOp48
 70
     1
102
RTVSPost2010Prop49
280
     0
102
RTVSPost2010PropOp49
 70
     1
102
RTVSPost2010Prop50
 90
       50
102
RTVSPost2010PropOp50
 70
     1
102
RTVSPost2010Prop51ColorIndex
 90
      256
102
RTVSPost2010Prop51ColorRGB
 90
-16777216
102
RTVSPost2010PropOp51
 70
     0
102
RTVSPost2010Prop52
140
1.0
102
RTVSPost2010PropOp52
 70
     0
102
RTVSPost2010Prop53
 90
        2
102
RTVSPost2010PropOp53
 70
     1
102
RTVSPost2010Prop54
  1
strokes_ogs.tif
102
RTVSPost2010PropOp54
 70
     1
102
RTVSPost2010Prop55
280
     0
102
RTVSPost2010PropOp55
 70
     1
102
RTVSPost2010Prop56
140
1.0
102
RTVSPost2010PropOp56
 70
     1
102
RTVSPost2010Prop57
140
1.0
102
RTVSPost2010PropOp57
 70
     1
102
RTVSPropertyOp0
 70
     1
102
RTVSPropertyOp1
 70
     1
102
RTVSPropertyOp2
 70
     1
102
RTVSPropertyOp3
 70
     1
102
RTVSPropertyOp4
 70
     1
102
RTVSPropertyOp5
 70
     1
102
RTVSPropertyOp6
 70
     1
102
RTVSPropertyOp7
 70
     1
102
RTVSPropertyOp8
 70
     1
102
RTVSPropertyOp9
 70
     1
102
RTVSPropertyOp10
 70
     1
102
RTVSPropertyOp11
 70
     1
102
RTVSPropertyOp12
 70
     1
102
RTVSPropertyOp13
 70
     1
102
RTVSPropertyOp14
 70
     1
102
RTVSPropertyOp15
 70
     1
102
RTVSPropertyOp16
 70
     1
102
RTVSPropertyOp17
 70
     1
102
RTVSPropertyOp18
 70
     1
102
RTVSPropertyOp19
 70
     1
102
RTVSPropertyOp20
 70
     1
102
RTVSPropertyOp21
 70
     1
102
RTVSPropertyOp22
 70
     1
102
RTVSPropertyOp23
 70
     1
102
RTVSPropertyOp24
 70
     1
102
RTVSPropertyOp25
 70
     1
102
RTVSPropertyOp26
 70
     1
102
RTVSPropertyOp27
 70
     1
102
RTVSPropertyOp28
 70
     1
102
RTVSPropertyOp29
 70
     1
102
RTVSPropertyOp30
 70
     1
102
RTVSPropertyOp31
 70
     1
102
RTVSPropertyOp32
 70
     1
102
RTVSPropertyOp33
 70
     1
102
RTVSPropertyOp34
 70
     1
102
RTVSPropertyOp35
 70
     1
102
RTVSPropertyOp36
 70
     1
102
RTVSPropertyOp37
 70
     1
102
RTVSPropertyOp38
 70
     1
102
RTVSPropertyOp39
 70
     1
102
RTVSPropertyOp40
 70
     1
102
RTVSPropertyOp41
 70
     1
102
RTVSPropertyOp42
 70
     1
102
RTVSPropertyOp43
 70
     1
102
RTVSPropertyOp44
 70
     1
102
RTVSPropertyOp45
 70
     1
102
RTVSPropertyOp46
 70
     1
102
RTVSPropertyOp47
 70
     1
102
RTVSPropertyOp48
 70
     1
102
RTVSPropertyOp49
 70
     1
102
RTVSPropertyOp50
 70
     1
102
RTVSPropertyOp51
 70
     0
102
RTVSPropertyOp52
 70
     0
102
RTVSPropertyOp53
 70
     1
102
RTVSPropertyOp54
 70
     1
102
RTVSPropertyOp55
 70
     1
102
RTVSPropertyOp56
 70
     1
102
RTVSPropertyOp57
 70
     1
102
RTVSPropertyOp58
 70
     1
102
RTVSPropertyOp59
 70
     1
102
RTVSPropertyOp60
 70
     1
102
RTVSPropertyOp61
 70
     1
102
RTVSPropertyOp62
 70
     1
  0
XRECORD
  5
26F
102
{ACAD_REACTORS
330
26E
102
}
330
26E
100
AcDbXrecord
280
     1
102
RTVSPost2010Prop28
280
     0
102
RTVSPost2010PropOp28
 70
     1
102
RTVSPost2010Prop29
280
     1
102
RTVSPost2010PropOp29
 70
     1
102
RTVSPost2010Prop30
280
     1
102
RTVSPost2010PropOp30
 70
     1
102
RTVSPost2010Prop31
280
     0
102
RTVSPost2010PropOp31
 70
     1
102
RTVSPost2010Prop32
280
     0
102
RTVSPost2010PropOp32
 70
     1
102
RTVSPost2010Prop33
280
     0
102
RTVSPost2010PropOp33
 70
     1
102
RTVSPost2010Prop34
280
     0
102
RTVSPost2010PropOp34
 70
     1
102
RTVSPost2010Prop35
280
     0
102
RTVSPost2010PropOp35
 70
     1
102
RTVSPost2010Prop36
280
     0
102
RTVSPost2010PropOp36
 70
     1
102
RTVSPost2010Prop37
 90
       50
102
RTVSPost2010PropOp37
 70
     1
102
RTVSPost2010Prop38
140
0.0
102
RTVSPost2010PropOp38
 70
     1
102
RTVSPost2010Prop39
140
1.0
102
RTVSPost2010PropOp39
 70
     1
102
RTVSPost2010Prop40
 90
        0
102
RTVSPost2010PropOp40
 70
     1
102
RTVSPost2010Prop41ColorIndex
 90
       18
102
RTVSPost2010Prop41ColorRGB
 90
        0
102
RTVSPost2010PropOp41
 70
     1
102
RTVSPost2010Prop42
 90
       50
102
RTVSPost2010PropOp42
 70
     1
102
RTVSPost2010Prop43
 90
        3
102
RTVSPost2010PropOp43
 70
     1
102
RTVSPost2010Prop44ColorIndex
 90
        5
102
RTVSPost2010Prop44ColorRGB
 90
      255
102
RTVSPost2010PropOp44
 70
     1
102
RTVSPost2010Prop45
280
     0
102
RTVSPost2010PropOp45
 70
     1
102
RTVSPost2010Prop46
 90
       50
102
RTVSPost2010PropOp46
 70
     1
102
RTVSPost2010Prop47
 90
       50
102
RTVSPost2010PropOp47
 70
     1
102
RTVSPost2010Prop48
 90
       50
102
RTVSPost2010PropOp48
 70
     1
102
RTVSPost2010Prop49
280
     0
102
RTVSPost2010PropOp49
 70
     1
102
RTVSPost2010Prop50
 90
       50
102
RTVSPost2010PropOp50
 70
     1
102
RTVSPost2010Prop51ColorIndex
 90
      256
102
RTVSPost2010Prop51ColorRGB
 90
-16777216
102
RTVSPost2010PropOp51
 70
     0
102
RTVSPost2010Prop52
140
1.0
102
RTVSPost2010PropOp52
 70
     0
102
RTVSPost2010Prop53
 90
        2
102
RTVSPost2010PropOp53
 70
     1
102
RTVSPost2010Prop54
  1
strokes_ogs.tif
102
RTVSPost2010PropOp54
 70
     1
102
RTVSPost2010Prop55
280
     0
102
RTVSPost2010PropOp55
 70
     1
102
RTVSPost2010Prop56
140
1.0
102
RTVSPost2010PropOp56
 70
     1
102
RTVSPost2010Prop57
140
1.0
102
RTVSPost2010PropOp57
 70
     1
102
RTVSPropertyOp0
 70
     1
102
RTVSPropertyOp1
 70
     1
102
RTVSPropertyOp2
 70
     1
102
RTVSPropertyOp3
 70
     1
102
RTVSPropertyOp4
 70
     1
102
RTVSPropertyOp5
 70
     1
102
RTVSPropertyOp6
 70
     1
102
RTVSPropertyOp7
 70
     1
102
RTVSPropertyOp8
 70
     1
102
RTVSPropertyOp9
 70
     1
102
RTVSPropertyOp10
 70
     1
102
RTVSPropertyOp11
 70
     1
102
RTVSPropertyOp12
 70
     1
102
RTVSPropertyOp13
 70
     1
102
RTVSPropertyOp14
 70
     1
102
RTVSPropertyOp15
 70
     1
102
RTVSPropertyOp16
 70
     1
102
RTVSPropertyOp17
 70
     1
102
RTVSPropertyOp18
 70
     1
102
RTVSPropertyOp19
 70
     1
102
RTVSPropertyOp20
 70
     1
102
RTVSPropertyOp21
 70
     1
102
RTVSPropertyOp22
 70
     1
102
RTVSPropertyOp23
 70
     1
102
RTVSPropertyOp24
 70
     1
102
RTVSPropertyOp25
 70
     1
102
RTVSPropertyOp26
 70
     1
102
RTVSPropertyOp27
 70
     1
102
RTVSPropertyOp28
 70
     1
102
RTVSPropertyOp29
 70
     1
102
RTVSPropertyOp30
 70
     1
102
RTVSPropertyOp31
 70
     1
102
RTVSPropertyOp32
 70
     1
102
RTVSPropertyOp33
 70
     1
102
RTVSPropertyOp34
 70
     1
102
RTVSPropertyOp35
 70
     1
102
RTVSPropertyOp36
 70
     1
102
RTVSPropertyOp37
 70
     1
102
RTVSPropertyOp38
 70
     1
102
RTVSPropertyOp39
 70
     1
102
RTVSPropertyOp40
 70
     1
102
RTVSPropertyOp41
 70
     1
102
RTVSPropertyOp42
 70
     1
102
RTVSPropertyOp43
 70
     1
102
RTVSPropertyOp44
 70
     1
102
RTVSPropertyOp45
 70
     1
102
RTVSPropertyOp46
 70
     1
102
RTVSPropertyOp47
 70
     1
102
RTVSPropertyOp48
 70
     1
102
RTVSPropertyOp49
 70
     1
102
RTVSPropertyOp50
 70
     1
102
RTVSPropertyOp51
 70
     0
102
RTVSPropertyOp52
 70
     0
102
RTVSPropertyOp53
 70
     1
102
RTVSPropertyOp54
 70
     1
102
RTVSPropertyOp55
 70
     1
102
RTVSPropertyOp56
 70
     1
102
RTVSPropertyOp57
 70
     1
102
RTVSPropertyOp58
 70
     1
102
RTVSPropertyOp59
 70
     1
102
RTVSPropertyOp60
 70
     1
102
RTVSPropertyOp61
 70
     1
102
RTVSPropertyOp62
 70
     1
  0
XRECORD
  5
27D
102
{ACAD_REACTORS
330
27C
102
}
330
27C
100
AcDbXrecord
280
     1
102
RTVSPost2010Prop28
280
     0
102
RTVSPost2010PropOp28
 70
     1
102
RTVSPost2010Prop29
280
     1
102
RTVSPost2010PropOp29
 70
     1
102
RTVSPost2010Prop30
280
     1
102
RTVSPost2010PropOp30
 70
     1
102
RTVSPost2010Prop31
280
     0
102
RTVSPost2010PropOp31
 70
     1
102
RTVSPost2010Prop32
280
     0
102
RTVSPost2010PropOp32
 70
     1
102
RTVSPost2010Prop33
280
     0
102
RTVSPost2010PropOp33
 70
     1
102
RTVSPost2010Prop34
280
     0
102
RTVSPost2010PropOp34
 70
     1
102
RTVSPost2010Prop35
280
     0
102
RTVSPost2010PropOp35
 70
     1
102
RTVSPost2010Prop36
280
     0
102
RTVSPost2010PropOp36
 70
     1
102
RTVSPost2010Prop37
 90
       50
102
RTVSPost2010PropOp37
 70
     1
102
RTVSPost2010Prop38
140
0.0
102
RTVSPost2010PropOp38
 70
     1
102
RTVSPost2010Prop39
140
1.0
102
RTVSPost2010PropOp39
 70
     1
102
RTVSPost2010Prop40
 90
        0
102
RTVSPost2010PropOp40
 70
     1
102
RTVSPost2010Prop41ColorIndex
 90
       18
102
RTVSPost2010Prop41ColorRGB
 90
        0
102
RTVSPost2010PropOp41
 70
     1
102
RTVSPost2010Prop42
 90
       50
102
RTVSPost2010PropOp42
 70
     1
102
RTVSPost2010Prop43
 90
        3
102
RTVSPost2010PropOp43
 70
     1
102
RTVSPost2010Prop44ColorIndex
 90
        5
102
RTVSPost2010Prop44ColorRGB
 90
      255
102
RTVSPost2010PropOp44
 70
     1
102
RTVSPost2010Prop45
280
     0
102
RTVSPost2010PropOp45
 70
     1
102
RTVSPost2010Prop46
 90
       50
102
RTVSPost2010PropOp46
 70
     1
102
RTVSPost2010Prop47
 90
       50
102
RTVSPost2010PropOp47
 70
     1
102
RTVSPost2010Prop48
 90
       50
102
RTVSPost2010PropOp48
 70
     1
102
RTVSPost2010Prop49
280
     0
102
RTVSPost2010PropOp49
 70
     1
102
RTVSPost2010Prop50
 90
       50
102
RTVSPost2010PropOp50
 70
     1
102
RTVSPost2010Prop51ColorIndex
 90
      256
102
RTVSPost2010Prop51ColorRGB
 90
-16777216
102
RTVSPost2010PropOp51
 70
     0
102
RTVSPost2010Prop52
140
1.0
102
RTVSPost2010PropOp52
 70
     0
102
RTVSPost2010Prop53
 90
        2
102
RTVSPost2010PropOp53
 70
     1
102
RTVSPost2010Prop54
  1
strokes_ogs.tif
102
RTVSPost2010PropOp54
 70
     1
102
RTVSPost2010Prop55
280
     0
102
RTVSPost2010PropOp55
 70
     1
102
RTVSPost2010Prop56
140
1.0
102
RTVSPost2010PropOp56
 70
     1
102
RTVSPost2010Prop57
140
1.0
102
RTVSPost2010PropOp57
 70
     1
102
RTVSPropertyOp0
 70
     1
102
RTVSPropertyOp1
 70
     1
102
RTVSPropertyOp2
 70
     1
102
RTVSPropertyOp3
 70
     1
102
RTVSPropertyOp4
 70
     1
102
RTVSPropertyOp5
 70
     1
102
RTVSPropertyOp6
 70
     1
102
RTVSPropertyOp7
 70
     1
102
RTVSPropertyOp8
 70
     1
102
RTVSPropertyOp9
 70
     1
102
RTVSPropertyOp10
 70
     1
102
RTVSPropertyOp11
 70
     1
102
RTVSPropertyOp12
 70
     1
102
RTVSPropertyOp13
 70
     1
102
RTVSPropertyOp14
 70
     1
102
RTVSPropertyOp15
 70
     1
102
RTVSPropertyOp16
 70
     1
102
RTVSPropertyOp17
 70
     1
102
RTVSPropertyOp18
 70
     1
102
RTVSPropertyOp19
 70
     1
102
RTVSPropertyOp20
 70
     1
102
RTVSPropertyOp21
 70
     1
102
RTVSPropertyOp22
 70
     1
102
RTVSPropertyOp23
 70
     1
102
RTVSPropertyOp24
 70
     1
102
RTVSPropertyOp25
 70
     1
102
RTVSPropertyOp26
 70
     1
102
RTVSPropertyOp27
 70
     1
102
RTVSPropertyOp28
 70
     1
102
RTVSPropertyOp29
 70
     1
102
RTVSPropertyOp30
 70
     1
102
RTVSPropertyOp31
 70
     1
102
RTVSPropertyOp32
 70
     1
102
RTVSPropertyOp33
 70
     1
102
RTVSPropertyOp34
 70
     1
102
RTVSPropertyOp35
 70
     1
102
RTVSPropertyOp36
 70
     1
102
RTVSPropertyOp37
 70
     1
102
RTVSPropertyOp38
 70
     1
102
RTVSPropertyOp39
 70
     1
102
RTVSPropertyOp40
 70
     1
102
RTVSPropertyOp41
 70
     1
102
RTVSPropertyOp42
 70
     1
102
RTVSPropertyOp43
 70
     1
102
RTVSPropertyOp44
 70
     1
102
RTVSPropertyOp45
 70
     1
102
RTVSPropertyOp46
 70
     1
102
RTVSPropertyOp47
 70
     1
102
RTVSPropertyOp48
 70
     1
102
RTVSPropertyOp49
 70
     1
102
RTVSPropertyOp50
 70
     1
102
RTVSPropertyOp51
 70
     0
102
RTVSPropertyOp52
 70
     0
102
RTVSPropertyOp53
 70
     1
102
RTVSPropertyOp54
 70
     1
102
RTVSPropertyOp55
 70
     1
102
RTVSPropertyOp56
 70
     1
102
RTVSPropertyOp57
 70
     1
102
RTVSPropertyOp58
 70
     1
102
RTVSPropertyOp59
 70
     1
102
RTVSPropertyOp60
 70
     1
102
RTVSPropertyOp61
 70
     1
102
RTVSPropertyOp62
 70
     1
  0
XRECORD
  5
285
102
{ACAD_REACTORS
330
284
102
}
330
284
100
AcDbXrecord
280
     1
102
RTVSPost2010Prop28
280
     0
102
RTVSPost2010PropOp28
 70
     1
102
RTVSPost2010Prop29
280
     1
102
RTVSPost2010PropOp29
 70
     1
102
RTVSPost2010Prop30
280
     1
102
RTVSPost2010PropOp30
 70
     1
102
RTVSPost2010Prop31
280
     0
102
RTVSPost2010PropOp31
 70
     1
102
RTVSPost2010Prop32
280
     0
102
RTVSPost2010PropOp32
 70
     1
102
RTVSPost2010Prop33
280
     0
102
RTVSPost2010PropOp33
 70
     1
102
RTVSPost2010Prop34
280
     0
102
RTVSPost2010PropOp34
 70
     1
102
RTVSPost2010Prop35
280
     0
102
RTVSPost2010PropOp35
 70
     1
102
RTVSPost2010Prop36
280
     0
102
RTVSPost2010PropOp36
 70
     1
102
RTVSPost2010Prop37
 90
       50
102
RTVSPost2010PropOp37
 70
     1
102
RTVSPost2010Prop38
140
0.0
102
RTVSPost2010PropOp38
 70
     1
102
RTVSPost2010Prop39
140
1.0
102
RTVSPost2010PropOp39
 70
     1
102
RTVSPost2010Prop40
 90
        0
102
RTVSPost2010PropOp40
 70
     1
102
RTVSPost2010Prop41ColorIndex
 90
       18
102
RTVSPost2010Prop41ColorRGB
 90
        0
102
RTVSPost2010PropOp41
 70
     1
102
RTVSPost2010Prop42
 90
       50
102
RTVSPost2010PropOp42
 70
     1
102
RTVSPost2010Prop43
 90
        3
102
RTVSPost2010PropOp43
 70
     1
102
RTVSPost2010Prop44ColorIndex
 90
        5
102
RTVSPost2010Prop44ColorRGB
 90
      255
102
RTVSPost2010PropOp44
 70
     1
102
RTVSPost2010Prop45
280
     0
102
RTVSPost2010PropOp45
 70
     1
102
RTVSPost2010Prop46
 90
       50
102
RTVSPost2010PropOp46
 70
     1
102
RTVSPost2010Prop47
 90
       50
102
RTVSPost2010PropOp47
 70
     1
102
RTVSPost2010Prop48
 90
       50
102
RTVSPost2010PropOp48
 70
     1
102
RTVSPost2010Prop49
280
     0
102
RTVSPost2010PropOp49
 70
     1
102
RTVSPost2010Prop50
 90
       50
102
RTVSPost2010PropOp50
 70
     1
102
RTVSPost2010Prop51ColorIndex
 90
      256
102
RTVSPost2010Prop51ColorRGB
 90
-16777216
102
RTVSPost2010PropOp51
 70
     0
102
RTVSPost2010Prop52
140
1.0
102
RTVSPost2010PropOp52
 70
     0
102
RTVSPost2010Prop53
 90
        2
102
RTVSPost2010PropOp53
 70
     1
102
RTVSPost2010Prop54
  1
strokes_ogs.tif
102
RTVSPost2010PropOp54
 70
     1
102
RTVSPost2010Prop55
280
     0
102
RTVSPost2010PropOp55
 70
     1
102
RTVSPost2010Prop56
140
1.0
102
RTVSPost2010PropOp56
 70
     1
102
RTVSPost2010Prop57
140
1.0
102
RTVSPost2010PropOp57
 70
     1
102
RTVSPropertyOp0
 70
     1
102
RTVSPropertyOp1
 70
     1
102
RTVSPropertyOp2
 70
     1
102
RTVSPropertyOp3
 70
     1
102
RTVSPropertyOp4
 70
     1
102
RTVSPropertyOp5
 70
     1
102
RTVSPropertyOp6
 70
     1
102
RTVSPropertyOp7
 70
     1
102
RTVSPropertyOp8
 70
     1
102
RTVSPropertyOp9
 70
     1
102
RTVSPropertyOp10
 70
     1
102
RTVSPropertyOp11
 70
     1
102
RTVSPropertyOp12
 70
     1
102
RTVSPropertyOp13
 70
     1
102
RTVSPropertyOp14
 70
     1
102
RTVSPropertyOp15
 70
     1
102
RTVSPropertyOp16
 70
     1
102
RTVSPropertyOp17
 70
     1
102
RTVSPropertyOp18
 70
     1
102
RTVSPropertyOp19
 70
     1
102
RTVSPropertyOp20
 70
     1
102
RTVSPropertyOp21
 70
     1
102
RTVSPropertyOp22
 70
     1
102
RTVSPropertyOp23
 70
     1
102
RTVSPropertyOp24
 70
     1
102
RTVSPropertyOp25
 70
     1
102
RTVSPropertyOp26
 70
     1
102
RTVSPropertyOp27
 70
     1
102
RTVSPropertyOp28
 70
     1
102
RTVSPropertyOp29
 70
     1
102
RTVSPropertyOp30
 70
     1
102
RTVSPropertyOp31
 70
     1
102
RTVSPropertyOp32
 70
     1
102
RTVSPropertyOp33
 70
     1
102
RTVSPropertyOp34
 70
     1
102
RTVSPropertyOp35
 70
     1
102
RTVSPropertyOp36
 70
     1
102
RTVSPropertyOp37
 70
     1
102
RTVSPropertyOp38
 70
     1
102
RTVSPropertyOp39
 70
     1
102
RTVSPropertyOp40
 70
     1
102
RTVSPropertyOp41
 70
     1
102
RTVSPropertyOp42
 70
     1
102
RTVSPropertyOp43
 70
     1
102
RTVSPropertyOp44
 70
     1
102
RTVSPropertyOp45
 70
     1
102
RTVSPropertyOp46
 70
     1
102
RTVSPropertyOp47
 70
     1
102
RTVSPropertyOp48
 70
     1
102
RTVSPropertyOp49
 70
     1
102
RTVSPropertyOp50
 70
     1
102
RTVSPropertyOp51
 70
     0
102
RTVSPropertyOp52
 70
     0
102
RTVSPropertyOp53
 70
     1
102
RTVSPropertyOp54
 70
     1
102
RTVSPropertyOp55
 70
     1
102
RTVSPropertyOp56
 70
     1
102
RTVSPropertyOp57
 70
     1
102
RTVSPropertyOp58
 70
     1
102
RTVSPropertyOp59
 70
     1
102
RTVSPropertyOp60
 70
     1
102
RTVSPropertyOp61
 70
     1
102
RTVSPropertyOp62
 70
     1
  0
XRECORD
  5
277
102
{ACAD_REACTORS
330
276
102
}
330
276
100
AcDbXrecord
280
     1
102
RTVSPost2010Prop28
280
     0
102
RTVSPost2010PropOp28
 70
     1
102
RTVSPost2010Prop29
280
     1
102
RTVSPost2010PropOp29
 70
     1
102
RTVSPost2010Prop30
280
     1
102
RTVSPost2010PropOp30
 70
     1
102
RTVSPost2010Prop31
280
     0
102
RTVSPost2010PropOp31
 70
     1
102
RTVSPost2010Prop32
280
     0
102
RTVSPost2010PropOp32
 70
     1
102
RTVSPost2010Prop33
280
     0
102
RTVSPost2010PropOp33
 70
     1
102
RTVSPost2010Prop34
280
     0
102
RTVSPost2010PropOp34
 70
     1
102
RTVSPost2010Prop35
280
     0
102
RTVSPost2010PropOp35
 70
     1
102
RTVSPost2010Prop36
280
     0
102
RTVSPost2010PropOp36
 70
     1
102
RTVSPost2010Prop37
 90
       50
102
RTVSPost2010PropOp37
 70
     1
102
RTVSPost2010Prop38
140
0.0
102
RTVSPost2010PropOp38
 70
     1
102
RTVSPost2010Prop39
140
1.0
102
RTVSPost2010PropOp39
 70
     1
102
RTVSPost2010Prop40
 90
        0
102
RTVSPost2010PropOp40
 70
     1
102
RTVSPost2010Prop41ColorIndex
 90
       18
102
RTVSPost2010Prop41ColorRGB
 90
        0
102
RTVSPost2010PropOp41
 70
     1
102
RTVSPost2010Prop42
 90
       50
102
RTVSPost2010PropOp42
 70
     1
102
RTVSPost2010Prop43
 90
        3
102
RTVSPost2010PropOp43
 70
     1
102
RTVSPost2010Prop44ColorIndex
 90
        5
102
RTVSPost2010Prop44ColorRGB
 90
      255
102
RTVSPost2010PropOp44
 70
     1
102
RTVSPost2010Prop45
280
     0
102
RTVSPost2010PropOp45
 70
     1
102
RTVSPost2010Prop46
 90
       50
102
RTVSPost2010PropOp46
 70
     1
102
RTVSPost2010Prop47
 90
       50
102
RTVSPost2010PropOp47
 70
     1
102
RTVSPost2010Prop48
 90
       50
102
RTVSPost2010PropOp48
 70
     1
102
RTVSPost2010Prop49
280
     0
102
RTVSPost2010PropOp49
 70
     1
102
RTVSPost2010Prop50
 90
       50
102
RTVSPost2010PropOp50
 70
     1
102
RTVSPost2010Prop51ColorIndex
 90
      256
102
RTVSPost2010Prop51ColorRGB
 90
-16777216
102
RTVSPost2010PropOp51
 70
     0
102
RTVSPost2010Prop52
140
1.0
102
RTVSPost2010PropOp52
 70
     0
102
RTVSPost2010Prop53
 90
        2
102
RTVSPost2010PropOp53
 70
     1
102
RTVSPost2010Prop54
  1
strokes_ogs.tif
102
RTVSPost2010PropOp54
 70
     1
102
RTVSPost2010Prop55
280
     0
102
RTVSPost2010PropOp55
 70
     1
102
RTVSPost2010Prop56
140
1.0
102
RTVSPost2010PropOp56
 70
     1
102
RTVSPost2010Prop57
140
1.0
102
RTVSPost2010PropOp57
 70
     1
102
RTVSPropertyOp0
 70
     1
102
RTVSPropertyOp1
 70
     1
102
RTVSPropertyOp2
 70
     1
102
RTVSPropertyOp3
 70
     1
102
RTVSPropertyOp4
 70
     1
102
RTVSPropertyOp5
 70
     1
102
RTVSPropertyOp6
 70
     1
102
RTVSPropertyOp7
 70
     1
102
RTVSPropertyOp8
 70
     1
102
RTVSPropertyOp9
 70
     1
102
RTVSPropertyOp10
 70
     1
102
RTVSPropertyOp11
 70
     1
102
RTVSPropertyOp12
 70
     1
102
RTVSPropertyOp13
 70
     1
102
RTVSPropertyOp14
 70
     1
102
RTVSPropertyOp15
 70
     1
102
RTVSPropertyOp16
 70
     1
102
RTVSPropertyOp17
 70
     1
102
RTVSPropertyOp18
 70
     1
102
RTVSPropertyOp19
 70
     1
102
RTVSPropertyOp20
 70
     1
102
RTVSPropertyOp21
 70
     1
102
RTVSPropertyOp22
 70
     1
102
RTVSPropertyOp23
 70
     1
102
RTVSPropertyOp24
 70
     1
102
RTVSPropertyOp25
 70
     1
102
RTVSPropertyOp26
 70
     1
102
RTVSPropertyOp27
 70
     1
102
RTVSPropertyOp28
 70
     1
102
RTVSPropertyOp29
 70
     1
102
RTVSPropertyOp30
 70
     1
102
RTVSPropertyOp31
 70
     1
102
RTVSPropertyOp32
 70
     1
102
RTVSPropertyOp33
 70
     1
102
RTVSPropertyOp34
 70
     1
102
RTVSPropertyOp35
 70
     1
102
RTVSPropertyOp36
 70
     1
102
RTVSPropertyOp37
 70
     1
102
RTVSPropertyOp38
 70
     1
102
RTVSPropertyOp39
 70
     1
102
RTVSPropertyOp40
 70
     1
102
RTVSPropertyOp41
 70
     1
102
RTVSPropertyOp42
 70
     1
102
RTVSPropertyOp43
 70
     1
102
RTVSPropertyOp44
 70
     1
102
RTVSPropertyOp45
 70
     1
102
RTVSPropertyOp46
 70
     1
102
RTVSPropertyOp47
 70
     1
102
RTVSPropertyOp48
 70
     1
102
RTVSPropertyOp49
 70
     1
102
RTVSPropertyOp50
 70
     1
102
RTVSPropertyOp51
 70
     0
102
RTVSPropertyOp52
 70
     0
102
RTVSPropertyOp53
 70
     1
102
RTVSPropertyOp54
 70
     1
102
RTVSPropertyOp55
 70
     1
102
RTVSPropertyOp56
 70
     1
102
RTVSPropertyOp57
 70
     1
102
RTVSPropertyOp58
 70
     1
102
RTVSPropertyOp59
 70
     1
102
RTVSPropertyOp60
 70
     1
102
RTVSPropertyOp61
 70
     1
102
RTVSPropertyOp62
 70
     1
  0
XRECORD
  5
27B
102
{ACAD_REACTORS
330
27A
102
}
330
27A
100
AcDbXrecord
280
     1
102
RTVSPost2010Prop28
280
     0
102
RTVSPost2010PropOp28
 70
     1
102
RTVSPost2010Prop29
280
     1
102
RTVSPost2010PropOp29
 70
     1
102
RTVSPost2010Prop30
280
     1
102
RTVSPost2010PropOp30
 70
     1
102
RTVSPost2010Prop31
280
     0
102
RTVSPost2010PropOp31
 70
     1
102
RTVSPost2010Prop32
280
     0
102
RTVSPost2010PropOp32
 70
     1
102
RTVSPost2010Prop33
280
     0
102
RTVSPost2010PropOp33
 70
     1
102
RTVSPost2010Prop34
280
     0
102
RTVSPost2010PropOp34
 70
     1
102
RTVSPost2010Prop35
280
     0
102
RTVSPost2010PropOp35
 70
     1
102
RTVSPost2010Prop36
280
     0
102
RTVSPost2010PropOp36
 70
     1
102
RTVSPost2010Prop37
 90
       50
102
RTVSPost2010PropOp37
 70
     1
102
RTVSPost2010Prop38
140
0.0
102
RTVSPost2010PropOp38
 70
     1
102
RTVSPost2010Prop39
140
1.0
102
RTVSPost2010PropOp39
 70
     1
102
RTVSPost2010Prop40
 90
        0
102
RTVSPost2010PropOp40
 70
     1
102
RTVSPost2010Prop41ColorIndex
 90
       18
102
RTVSPost2010Prop41ColorRGB
 90
        0
102
RTVSPost2010PropOp41
 70
     1
102
RTVSPost2010Prop42
 90
       50
102
RTVSPost2010PropOp42
 70
     1
102
RTVSPost2010Prop43
 90
        3
102
RTVSPost2010PropOp43
 70
     1
102
RTVSPost2010Prop44ColorIndex
 90
        5
102
RTVSPost2010Prop44ColorRGB
 90
      255
102
RTVSPost2010PropOp44
 70
     1
102
RTVSPost2010Prop45
280
     0
102
RTVSPost2010PropOp45
 70
     1
102
RTVSPost2010Prop46
 90
       50
102
RTVSPost2010PropOp46
 70
     1
102
RTVSPost2010Prop47
 90
       50
102
RTVSPost2010PropOp47
 70
     1
102
RTVSPost2010Prop48
 90
       50
102
RTVSPost2010PropOp48
 70
     1
102
RTVSPost2010Prop49
280
     0
102
RTVSPost2010PropOp49
 70
     1
102
RTVSPost2010Prop50
 90
       50
102
RTVSPost2010PropOp50
 70
     1
102
RTVSPost2010Prop51ColorIndex
 90
      256
102
RTVSPost2010Prop51ColorRGB
 90
-16777216
102
RTVSPost2010PropOp51
 70
     0
102
RTVSPost2010Prop52
140
1.0
102
RTVSPost2010PropOp52
 70
     0
102
RTVSPost2010Prop53
 90
        2
102
RTVSPost2010PropOp53
 70
     1
102
RTVSPost2010Prop54
  1
strokes_ogs.tif
102
RTVSPost2010PropOp54
 70
     1
102
RTVSPost2010Prop55
280
     0
102
RTVSPost2010PropOp55
 70
     1
102
RTVSPost2010Prop56
140
1.0
102
RTVSPost2010PropOp56
 70
     1
102
RTVSPost2010Prop57
140
1.0
102
RTVSPost2010PropOp57
 70
     1
102
RTVSPropertyOp0
 70
     1
102
RTVSPropertyOp1
 70
     1
102
RTVSPropertyOp2
 70
     1
102
RTVSPropertyOp3
 70
     1
102
RTVSPropertyOp4
 70
     1
102
RTVSPropertyOp5
 70
     1
102
RTVSPropertyOp6
 70
     1
102
RTVSPropertyOp7
 70
     1
102
RTVSPropertyOp8
 70
     1
102
RTVSPropertyOp9
 70
     1
102
RTVSPropertyOp10
 70
     1
102
RTVSPropertyOp11
 70
     1
102
RTVSPropertyOp12
 70
     1
102
RTVSPropertyOp13
 70
     1
102
RTVSPropertyOp14
 70
     1
102
RTVSPropertyOp15
 70
     1
102
RTVSPropertyOp16
 70
     1
102
RTVSPropertyOp17
 70
     1
102
RTVSPropertyOp18
 70
     1
102
RTVSPropertyOp19
 70
     1
102
RTVSPropertyOp20
 70
     1
102
RTVSPropertyOp21
 70
     1
102
RTVSPropertyOp22
 70
     1
102
RTVSPropertyOp23
 70
     1
102
RTVSPropertyOp24
 70
     1
102
RTVSPropertyOp25
 70
     1
102
RTVSPropertyOp26
 70
     1
102
RTVSPropertyOp27
 70
     1
102
RTVSPropertyOp28
 70
     1
102
RTVSPropertyOp29
 70
     1
102
RTVSPropertyOp30
 70
     1
102
RTVSPropertyOp31
 70
     1
102
RTVSPropertyOp32
 70
     1
102
RTVSPropertyOp33
 70
     1
102
RTVSPropertyOp34
 70
     1
102
RTVSPropertyOp35
 70
     1
102
RTVSPropertyOp36
 70
     1
102
RTVSPropertyOp37
 70
     1
102
RTVSPropertyOp38
 70
     1
102
RTVSPropertyOp39
 70
     1
102
RTVSPropertyOp40
 70
     1
102
RTVSPropertyOp41
 70
     1
102
RTVSPropertyOp42
 70
     1
102
RTVSPropertyOp43
 70
     1
102
RTVSPropertyOp44
 70
     1
102
RTVSPropertyOp45
 70
     1
102
RTVSPropertyOp46
 70
     1
102
RTVSPropertyOp47
 70
     1
102
RTVSPropertyOp48
 70
     1
102
RTVSPropertyOp49
 70
     1
102
RTVSPropertyOp50
 70
     1
102
RTVSPropertyOp51
 70
     0
102
RTVSPropertyOp52
 70
     0
102
RTVSPropertyOp53
 70
     1
102
RTVSPropertyOp54
 70
     1
102
RTVSPropertyOp55
 70
     1
102
RTVSPropertyOp56
 70
     1
102
RTVSPropertyOp57
 70
     1
102
RTVSPropertyOp58
 70
     1
102
RTVSPropertyOp59
 70
     1
102
RTVSPropertyOp60
 70
     1
102
RTVSPropertyOp61
 70
     1
102
RTVSPropertyOp62
 70
     1
  0
XRECORD
  5
28B
102
{ACAD_REACTORS
330
28A
102
}
330
28A
100
AcDbXrecord
280
     1
102
RTVSPost2010Prop28
280
     0
102
RTVSPost2010PropOp28
 70
     1
102
RTVSPost2010Prop29
280
     1
102
RTVSPost2010PropOp29
 70
     1
102
RTVSPost2010Prop30
280
     1
102
RTVSPost2010PropOp30
 70
     1
102
RTVSPost2010Prop31
280
     0
102
RTVSPost2010PropOp31
 70
     1
102
RTVSPost2010Prop32
280
     0
102
RTVSPost2010PropOp32
 70
     1
102
RTVSPost2010Prop33
280
     0
102
RTVSPost2010PropOp33
 70
     1
102
RTVSPost2010Prop34
280
     0
102
RTVSPost2010PropOp34
 70
     1
102
RTVSPost2010Prop35
280
     0
102
RTVSPost2010PropOp35
 70
     1
102
RTVSPost2010Prop36
280
     0
102
RTVSPost2010PropOp36
 70
     1
102
RTVSPost2010Prop37
 90
       50
102
RTVSPost2010PropOp37
 70
     1
102
RTVSPost2010Prop38
140
0.0
102
RTVSPost2010PropOp38
 70
     1
102
RTVSPost2010Prop39
140
1.0
102
RTVSPost2010PropOp39
 70
     1
102
RTVSPost2010Prop40
 90
        0
102
RTVSPost2010PropOp40
 70
     1
102
RTVSPost2010Prop41ColorIndex
 90
       18
102
RTVSPost2010Prop41ColorRGB
 90
        0
102
RTVSPost2010PropOp41
 70
     1
102
RTVSPost2010Prop42
 90
       50
102
RTVSPost2010PropOp42
 70
     1
102
RTVSPost2010Prop43
 90
        3
102
RTVSPost2010PropOp43
 70
     1
102
RTVSPost2010Prop44ColorIndex
 90
        5
102
RTVSPost2010Prop44ColorRGB
 90
      255
102
RTVSPost2010PropOp44
 70
     1
102
RTVSPost2010Prop45
280
     0
102
RTVSPost2010PropOp45
 70
     1
102
RTVSPost2010Prop46
 90
       50
102
RTVSPost2010PropOp46
 70
     1
102
RTVSPost2010Prop47
 90
       50
102
RTVSPost2010PropOp47
 70
     1
102
RTVSPost2010Prop48
 90
       50
102
RTVSPost2010PropOp48
 70
     1
102
RTVSPost2010Prop49
280
     0
102
RTVSPost2010PropOp49
 70
     1
102
RTVSPost2010Prop50
 90
       50
102
RTVSPost2010PropOp50
 70
     1
102
RTVSPost2010Prop51ColorIndex
 90
      256
102
RTVSPost2010Prop51ColorRGB
 90
-16777216
102
RTVSPost2010PropOp51
 70
     0
102
RTVSPost2010Prop52
140
1.0
102
RTVSPost2010PropOp52
 70
     0
102
RTVSPost2010Prop53
 90
        2
102
RTVSPost2010PropOp53
 70
     1
102
RTVSPost2010Prop54
  1
strokes_ogs.tif
102
RTVSPost2010PropOp54
 70
     1
102
RTVSPost2010Prop55
280
     0
102
RTVSPost2010PropOp55
 70
     1
102
RTVSPost2010Prop56
140
1.0
102
RTVSPost2010PropOp56
 70
     1
102
RTVSPost2010Prop57
140
1.0
102
RTVSPost2010PropOp57
 70
     1
102
RTVSPropertyOp0
 70
     0
102
RTVSPropertyOp1
 70
     0
102
RTVSPropertyOp2
 70
     0
102
RTVSPropertyOp3
 70
     0
102
RTVSPropertyOp4
 70
     0
102
RTVSPropertyOp5
 70
     0
102
RTVSPropertyOp6
 70
     0
102
RTVSPropertyOp7
 70
     0
102
RTVSPropertyOp8
 70
     0
102
RTVSPropertyOp9
 70
     0
102
RTVSPropertyOp10
 70
     0
102
RTVSPropertyOp11
 70
     0
102
RTVSPropertyOp12
 70
     0
102
RTVSPropertyOp13
 70
     0
102
RTVSPropertyOp14
 70
     2
102
RTVSPropertyOp15
 70
     0
102
RTVSPropertyOp16
 70
     0
102
RTVSPropertyOp17
 70
     0
102
RTVSPropertyOp18
 70
     0
102
RTVSPropertyOp19
 70
     0
102
RTVSPropertyOp20
 70
     0
102
RTVSPropertyOp21
 70
     0
102
RTVSPropertyOp22
 70
     0
102
RTVSPropertyOp23
 70
     0
102
RTVSPropertyOp24
 70
     0
102
RTVSPropertyOp25
 70
     0
102
RTVSPropertyOp26
 70
     0
102
RTVSPropertyOp27
 70
     0
102
RTVSPropertyOp28
 70
     1
102
RTVSPropertyOp29
 70
     1
102
RTVSPropertyOp30
 70
     1
102
RTVSPropertyOp31
 70
     1
102
RTVSPropertyOp32
 70
     1
102
RTVSPropertyOp33
 70
     1
102
RTVSPropertyOp34
 70
     1
102
RTVSPropertyOp35
 70
     1
102
RTVSPropertyOp36
 70
     1
102
RTVSPropertyOp37
 70
     1
102
RTVSPropertyOp38
 70
     1
102
RTVSPropertyOp39
 70
     1
102
RTVSPropertyOp40
 70
     1
102
RTVSPropertyOp41
 70
     1
102
RTVSPropertyOp42
 70
     1
102
RTVSPropertyOp43
 70
     1
102
RTVSPropertyOp44
 70
     1
102
RTVSPropertyOp45
 70
     1
102
RTVSPropertyOp46
 70
     1
102
RTVSPropertyOp47
 70
     1
102
RTVSPropertyOp48
 70
     1
102
RTVSPropertyOp49
 70
     1
102
RTVSPropertyOp50
 70
     1
102
RTVSPropertyOp51
 70
     0
102
RTVSPropertyOp52
 70
     0
102
RTVSPropertyOp53
 70
     1
102
RTVSPropertyOp54
 70
     1
102
RTVSPropertyOp55
 70
     1
102
RTVSPropertyOp56
 70
     1
102
RTVSPropertyOp57
 70
     1
102
RTVSPropertyOp58
 70
     1
102
RTVSPropertyOp59
 70
     1
102
RTVSPropertyOp60
 70
     1
102
RTVSPropertyOp61
 70
     1
102
RTVSPropertyOp62
 70
     1
  0
XRECORD
  5
283
102
{ACAD_REACTORS
330
282
102
}
330
282
100
AcDbXrecord
280
     1
102
RTVSPost2010Prop28
280
     0
102
RTVSPost2010PropOp28
 70
     1
102
RTVSPost2010Prop29
280
     1
102
RTVSPost2010PropOp29
 70
     1
102
RTVSPost2010Prop30
280
     1
102
RTVSPost2010PropOp30
 70
     1
102
RTVSPost2010Prop31
280
     0
102
RTVSPost2010PropOp31
 70
     1
102
RTVSPost2010Prop32
280
     0
102
RTVSPost2010PropOp32
 70
     1
102
RTVSPost2010Prop33
280
     0
102
RTVSPost2010PropOp33
 70
     1
102
RTVSPost2010Prop34
280
     0
102
RTVSPost2010PropOp34
 70
     1
102
RTVSPost2010Prop35
280
     0
102
RTVSPost2010PropOp35
 70
     1
102
RTVSPost2010Prop36
280
     0
102
RTVSPost2010PropOp36
 70
     1
102
RTVSPost2010Prop37
 90
       50
102
RTVSPost2010PropOp37
 70
     1
102
RTVSPost2010Prop38
140
0.0
102
RTVSPost2010PropOp38
 70
     1
102
RTVSPost2010Prop39
140
1.0
102
RTVSPost2010PropOp39
 70
     1
102
RTVSPost2010Prop40
 90
        0
102
RTVSPost2010PropOp40
 70
     1
102
RTVSPost2010Prop41ColorIndex
 90
       18
102
RTVSPost2010Prop41ColorRGB
 90
        0
102
RTVSPost2010PropOp41
 70
     1
102
RTVSPost2010Prop42
 90
       50
102
RTVSPost2010PropOp42
 70
     1
102
RTVSPost2010Prop43
 90
        3
102
RTVSPost2010PropOp43
 70
     1
102
RTVSPost2010Prop44ColorIndex
 90
        5
102
RTVSPost2010Prop44ColorRGB
 90
      255
102
RTVSPost2010PropOp44
 70
     1
102
RTVSPost2010Prop45
280
     0
102
RTVSPost2010PropOp45
 70
     1
102
RTVSPost2010Prop46
 90
       50
102
RTVSPost2010PropOp46
 70
     1
102
RTVSPost2010Prop47
 90
       50
102
RTVSPost2010PropOp47
 70
     1
102
RTVSPost2010Prop48
 90
       50
102
RTVSPost2010PropOp48
 70
     1
102
RTVSPost2010Prop49
280
     0
102
RTVSPost2010PropOp49
 70
     1
102
RTVSPost2010Prop50
 90
       50
102
RTVSPost2010PropOp50
 70
     1
102
RTVSPost2010Prop51ColorIndex
 90
      256
102
RTVSPost2010Prop51ColorRGB
 90
-16777216
102
RTVSPost2010PropOp51
 70
     0
102
RTVSPost2010Prop52
140
1.0
102
RTVSPost2010PropOp52
 70
     0
102
RTVSPost2010Prop53
 90
        2
102
RTVSPost2010PropOp53
 70
     1
102
RTVSPost2010Prop54
  1
strokes_ogs.tif
102
RTVSPost2010PropOp54
 70
     1
102
RTVSPost2010Prop55
280
     0
102
RTVSPost2010PropOp55
 70
     1
102
RTVSPost2010Prop56
140
1.0
102
RTVSPost2010PropOp56
 70
     1
102
RTVSPost2010Prop57
140
1.0
102
RTVSPost2010PropOp57
 70
     1
102
RTVSPropertyOp0
 70
     1
102
RTVSPropertyOp1
 70
     1
102
RTVSPropertyOp2
 70
     1
102
RTVSPropertyOp3
 70
     1
102
RTVSPropertyOp4
 70
     1
102
RTVSPropertyOp5
 70
     1
102
RTVSPropertyOp6
 70
     1
102
RTVSPropertyOp7
 70
     1
102
RTVSPropertyOp8
 70
     1
102
RTVSPropertyOp9
 70
     1
102
RTVSPropertyOp10
 70
     1
102
RTVSPropertyOp11
 70
     1
102
RTVSPropertyOp12
 70
     1
102
RTVSPropertyOp13
 70
     1
102
RTVSPropertyOp14
 70
     1
102
RTVSPropertyOp15
 70
     1
102
RTVSPropertyOp16
 70
     1
102
RTVSPropertyOp17
 70
     1
102
RTVSPropertyOp18
 70
     1
102
RTVSPropertyOp19
 70
     1
102
RTVSPropertyOp20
 70
     1
102
RTVSPropertyOp21
 70
     1
102
RTVSPropertyOp22
 70
     1
102
RTVSPropertyOp23
 70
     1
102
RTVSPropertyOp24
 70
     1
102
RTVSPropertyOp25
 70
     1
102
RTVSPropertyOp26
 70
     1
102
RTVSPropertyOp27
 70
     1
102
RTVSPropertyOp28
 70
     1
102
RTVSPropertyOp29
 70
     1
102
RTVSPropertyOp30
 70
     1
102
RTVSPropertyOp31
 70
     1
102
RTVSPropertyOp32
 70
     1
102
RTVSPropertyOp33
 70
     1
102
RTVSPropertyOp34
 70
     1
102
RTVSPropertyOp35
 70
     1
102
RTVSPropertyOp36
 70
     1
102
RTVSPropertyOp37
 70
     1
102
RTVSPropertyOp38
 70
     1
102
RTVSPropertyOp39
 70
     1
102
RTVSPropertyOp40
 70
     1
102
RTVSPropertyOp41
 70
     1
102
RTVSPropertyOp42
 70
     1
102
RTVSPropertyOp43
 70
     1
102
RTVSPropertyOp44
 70
     1
102
RTVSPropertyOp45
 70
     1
102
RTVSPropertyOp46
 70
     1
102
RTVSPropertyOp47
 70
     1
102
RTVSPropertyOp48
 70
     1
102
RTVSPropertyOp49
 70
     1
102
RTVSPropertyOp50
 70
     1
102
RTVSPropertyOp51
 70
     0
102
RTVSPropertyOp52
 70
     0
102
RTVSPropertyOp53
 70
     1
102
RTVSPropertyOp54
 70
     1
102
RTVSPropertyOp55
 70
     1
102
RTVSPropertyOp56
 70
     1
102
RTVSPropertyOp57
 70
     1
102
RTVSPropertyOp58
 70
     1
102
RTVSPropertyOp59
 70
     1
102
RTVSPropertyOp60
 70
     1
102
RTVSPropertyOp61
 70
     1
102
RTVSPropertyOp62
 70
     1
  0
XRECORD
  5
267
102
{ACAD_REACTORS
330
266
102
}
330
266
100
AcDbXrecord
280
     1
102
RTVSPost2010Prop28
280
     0
102
RTVSPost2010PropOp28
 70
     1
102
RTVSPost2010Prop29
280
     1
102
RTVSPost2010PropOp29
 70
     1
102
RTVSPost2010Prop30
280
     1
102
RTVSPost2010PropOp30
 70
     1
102
RTVSPost2010Prop31
280
     0
102
RTVSPost2010PropOp31
 70
     1
102
RTVSPost2010Prop32
280
     0
102
RTVSPost2010PropOp32
 70
     1
102
RTVSPost2010Prop33
280
     0
102
RTVSPost2010PropOp33
 70
     1
102
RTVSPost2010Prop34
280
     0
102
RTVSPost2010PropOp34
 70
     1
102
RTVSPost2010Prop35
280
     0
102
RTVSPost2010PropOp35
 70
     1
102
RTVSPost2010Prop36
280
     0
102
RTVSPost2010PropOp36
 70
     1
102
RTVSPost2010Prop37
 90
       50
102
RTVSPost2010PropOp37
 70
     1
102
RTVSPost2010Prop38
140
0.0
102
RTVSPost2010PropOp38
 70
     1
102
RTVSPost2010Prop39
140
1.0
102
RTVSPost2010PropOp39
 70
     1
102
RTVSPost2010Prop40
 90
        0
102
RTVSPost2010PropOp40
 70
     1
102
RTVSPost2010Prop41ColorIndex
 90
       18
102
RTVSPost2010Prop41ColorRGB
 90
        0
102
RTVSPost2010PropOp41
 70
     1
102
RTVSPost2010Prop42
 90
       50
102
RTVSPost2010PropOp42
 70
     1
102
RTVSPost2010Prop43
 90
        3
102
RTVSPost2010PropOp43
 70
     1
102
RTVSPost2010Prop44ColorIndex
 90
        5
102
RTVSPost2010Prop44ColorRGB
 90
      255
102
RTVSPost2010PropOp44
 70
     1
102
RTVSPost2010Prop45
280
     0
102
RTVSPost2010PropOp45
 70
     1
102
RTVSPost2010Prop46
 90
       50
102
RTVSPost2010PropOp46
 70
     1
102
RTVSPost2010Prop47
 90
       50
102
RTVSPost2010PropOp47
 70
     1
102
RTVSPost2010Prop48
 90
       50
102
RTVSPost2010PropOp48
 70
     1
102
RTVSPost2010Prop49
280
     0
102
RTVSPost2010PropOp49
 70
     1
102
RTVSPost2010Prop50
 90
       50
102
RTVSPost2010PropOp50
 70
     1
102
RTVSPost2010Prop51ColorIndex
 90
      256
102
RTVSPost2010Prop51ColorRGB
 90
-16777216
102
RTVSPost2010PropOp51
 70
     0
102
RTVSPost2010Prop52
140
1.0
102
RTVSPost2010PropOp52
 70
     0
102
RTVSPost2010Prop53
 90
        2
102
RTVSPost2010PropOp53
 70
     1
102
RTVSPost2010Prop54
  1
strokes_ogs.tif
102
RTVSPost2010PropOp54
 70
     1
102
RTVSPost2010Prop55
280
     0
102
RTVSPost2010PropOp55
 70
     1
102
RTVSPost2010Prop56
140
1.0
102
RTVSPost2010PropOp56
 70
     1
102
RTVSPost2010Prop57
140
1.0
102
RTVSPost2010PropOp57
 70
     1
102
RTVSPropertyOp0
 70
     1
102
RTVSPropertyOp1
 70
     1
102
RTVSPropertyOp2
 70
     1
102
RTVSPropertyOp3
 70
     1
102
RTVSPropertyOp4
 70
     1
102
RTVSPropertyOp5
 70
     1
102
RTVSPropertyOp6
 70
     1
102
RTVSPropertyOp7
 70
     1
102
RTVSPropertyOp8
 70
     1
102
RTVSPropertyOp9
 70
     1
102
RTVSPropertyOp10
 70
     1
102
RTVSPropertyOp11
 70
     1
102
RTVSPropertyOp12
 70
     1
102
RTVSPropertyOp13
 70
     1
102
RTVSPropertyOp14
 70
     1
102
RTVSPropertyOp15
 70
     1
102
RTVSPropertyOp16
 70
     1
102
RTVSPropertyOp17
 70
     1
102
RTVSPropertyOp18
 70
     1
102
RTVSPropertyOp19
 70
     1
102
RTVSPropertyOp20
 70
     1
102
RTVSPropertyOp21
 70
     1
102
RTVSPropertyOp22
 70
     1
102
RTVSPropertyOp23
 70
     1
102
RTVSPropertyOp24
 70
     1
102
RTVSPropertyOp25
 70
     1
102
RTVSPropertyOp26
 70
     1
102
RTVSPropertyOp27
 70
     1
102
RTVSPropertyOp28
 70
     1
102
RTVSPropertyOp29
 70
     1
102
RTVSPropertyOp30
 70
     1
102
RTVSPropertyOp31
 70
     1
102
RTVSPropertyOp32
 70
     1
102
RTVSPropertyOp33
 70
     1
102
RTVSPropertyOp34
 70
     1
102
RTVSPropertyOp35
 70
     1
102
RTVSPropertyOp36
 70
     1
102
RTVSPropertyOp37
 70
     1
102
RTVSPropertyOp38
 70
     1
102
RTVSPropertyOp39
 70
     1
102
RTVSPropertyOp40
 70
     1
102
RTVSPropertyOp41
 70
     1
102
RTVSPropertyOp42
 70
     1
102
RTVSPropertyOp43
 70
     1
102
RTVSPropertyOp44
 70
     1
102
RTVSPropertyOp45
 70
     1
102
RTVSPropertyOp46
 70
     1
102
RTVSPropertyOp47
 70
     1
102
RTVSPropertyOp48
 70
     1
102
RTVSPropertyOp49
 70
     1
102
RTVSPropertyOp50
 70
     1
102
RTVSPropertyOp51
 70
     0
102
RTVSPropertyOp52
 70
     0
102
RTVSPropertyOp53
 70
     1
102
RTVSPropertyOp54
 70
     1
102
RTVSPropertyOp55
 70
     1
102
RTVSPropertyOp56
 70
     1
102
RTVSPropertyOp57
 70
     1
102
RTVSPropertyOp58
 70
     1
102
RTVSPropertyOp59
 70
     1
102
RTVSPropertyOp60
 70
     1
102
RTVSPropertyOp61
 70
     1
102
RTVSPropertyOp62
 70
     1
  0
XRECORD
  5
269
102
{ACAD_REACTORS
330
268
102
}
330
268
100
AcDbXrecord
280
     1
102
RTVSPost2010Prop28
280
     0
102
RTVSPost2010PropOp28
 70
     1
102
RTVSPost2010Prop29
280
     1
102
RTVSPost2010PropOp29
 70
     1
102
RTVSPost2010Prop30
280
     1
102
RTVSPost2010PropOp30
 70
     1
102
RTVSPost2010Prop31
280
     0
102
RTVSPost2010PropOp31
 70
     1
102
RTVSPost2010Prop32
280
     0
102
RTVSPost2010PropOp32
 70
     1
102
RTVSPost2010Prop33
280
     0
102
RTVSPost2010PropOp33
 70
     1
102
RTVSPost2010Prop34
280
     0
102
RTVSPost2010PropOp34
 70
     1
102
RTVSPost2010Prop35
280
     0
102
RTVSPost2010PropOp35
 70
     1
102
RTVSPost2010Prop36
280
     0
102
RTVSPost2010PropOp36
 70
     1
102
RTVSPost2010Prop37
 90
       50
102
RTVSPost2010PropOp37
 70
     1
102
RTVSPost2010Prop38
140
0.0
102
RTVSPost2010PropOp38
 70
     1
102
RTVSPost2010Prop39
140
1.0
102
RTVSPost2010PropOp39
 70
     1
102
RTVSPost2010Prop40
 90
        0
102
RTVSPost2010PropOp40
 70
     1
102
RTVSPost2010Prop41ColorIndex
 90
       18
102
RTVSPost2010Prop41ColorRGB
 90
        0
102
RTVSPost2010PropOp41
 70
     1
102
RTVSPost2010Prop42
 90
       50
102
RTVSPost2010PropOp42
 70
     1
102
RTVSPost2010Prop43
 90
        3
102
RTVSPost2010PropOp43
 70
     1
102
RTVSPost2010Prop44ColorIndex
 90
        5
102
RTVSPost2010Prop44ColorRGB
 90
      255
102
RTVSPost2010PropOp44
 70
     1
102
RTVSPost2010Prop45
280
     0
102
RTVSPost2010PropOp45
 70
     1
102
RTVSPost2010Prop46
 90
       50
102
RTVSPost2010PropOp46
 70
     1
102
RTVSPost2010Prop47
 90
       50
102
RTVSPost2010PropOp47
 70
     1
102
RTVSPost2010Prop48
 90
       50
102
RTVSPost2010PropOp48
 70
     1
102
RTVSPost2010Prop49
280
     0
102
RTVSPost2010PropOp49
 70
     1
102
RTVSPost2010Prop50
 90
       50
102
RTVSPost2010PropOp50
 70
     1
102
RTVSPost2010Prop51ColorIndex
 90
      256
102
RTVSPost2010Prop51ColorRGB
 90
-16777216
102
RTVSPost2010PropOp51
 70
     0
102
RTVSPost2010Prop52
140
1.0
102
RTVSPost2010PropOp52
 70
     0
102
RTVSPost2010Prop53
 90
        2
102
RTVSPost2010PropOp53
 70
     1
102
RTVSPost2010Prop54
  1
strokes_ogs.tif
102
RTVSPost2010PropOp54
 70
     1
102
RTVSPost2010Prop55
280
     0
102
RTVSPost2010PropOp55
 70
     1
102
RTVSPost2010Prop56
140
1.0
102
RTVSPost2010PropOp56
 70
     1
102
RTVSPost2010Prop57
140
1.0
102
RTVSPost2010PropOp57
 70
     1
102
RTVSPropertyOp0
 70
     1
102
RTVSPropertyOp1
 70
     1
102
RTVSPropertyOp2
 70
     1
102
RTVSPropertyOp3
 70
     1
102
RTVSPropertyOp4
 70
     1
102
RTVSPropertyOp5
 70
     1
102
RTVSPropertyOp6
 70
     1
102
RTVSPropertyOp7
 70
     1
102
RTVSPropertyOp8
 70
     1
102
RTVSPropertyOp9
 70
     1
102
RTVSPropertyOp10
 70
     1
102
RTVSPropertyOp11
 70
     1
102
RTVSPropertyOp12
 70
     1
102
RTVSPropertyOp13
 70
     1
102
RTVSPropertyOp14
 70
     1
102
RTVSPropertyOp15
 70
     1
102
RTVSPropertyOp16
 70
     1
102
RTVSPropertyOp17
 70
     1
102
RTVSPropertyOp18
 70
     1
102
RTVSPropertyOp19
 70
     1
102
RTVSPropertyOp20
 70
     1
102
RTVSPropertyOp21
 70
     1
102
RTVSPropertyOp22
 70
     1
102
RTVSPropertyOp23
 70
     1
102
RTVSPropertyOp24
 70
     1
102
RTVSPropertyOp25
 70
     1
102
RTVSPropertyOp26
 70
     1
102
RTVSPropertyOp27
 70
     1
102
RTVSPropertyOp28
 70
     1
102
RTVSPropertyOp29
 70
     1
102
RTVSPropertyOp30
 70
     1
102
RTVSPropertyOp31
 70
     1
102
RTVSPropertyOp32
 70
     1
102
RTVSPropertyOp33
 70
     1
102
RTVSPropertyOp34
 70
     1
102
RTVSPropertyOp35
 70
     1
102
RTVSPropertyOp36
 70
     1
102
RTVSPropertyOp37
 70
     1
102
RTVSPropertyOp38
 70
     1
102
RTVSPropertyOp39
 70
     1
102
RTVSPropertyOp40
 70
     1
102
RTVSPropertyOp41
 70
     1
102
RTVSPropertyOp42
 70
     1
102
RTVSPropertyOp43
 70
     1
102
RTVSPropertyOp44
 70
     1
102
RTVSPropertyOp45
 70
     1
102
RTVSPropertyOp46
 70
     1
102
RTVSPropertyOp47
 70
     1
102
RTVSPropertyOp48
 70
     1
102
RTVSPropertyOp49
 70
     1
102
RTVSPropertyOp50
 70
     1
102
RTVSPropertyOp51
 70
     0
102
RTVSPropertyOp52
 70
     0
102
RTVSPropertyOp53
 70
     1
102
RTVSPropertyOp54
 70
     1
102
RTVSPropertyOp55
 70
     1
102
RTVSPropertyOp56
 70
     1
102
RTVSPropertyOp57
 70
     1
102
RTVSPropertyOp58
 70
     1
102
RTVSPropertyOp59
 70
     1
102
RTVSPropertyOp60
 70
     1
102
RTVSPropertyOp61
 70
     1
102
RTVSPropertyOp62
 70
     1
  0
XRECORD
  5
26B
102
{ACAD_REACTORS
330
26A
102
}
330
26A
100
AcDbXrecord
280
     1
102
RTVSPost2010Prop28
280
     0
102
RTVSPost2010PropOp28
 70
     1
102
RTVSPost2010Prop29
280
     1
102
RTVSPost2010PropOp29
 70
     1
102
RTVSPost2010Prop30
280
     1
102
RTVSPost2010PropOp30
 70
     1
102
RTVSPost2010Prop31
280
     0
102
RTVSPost2010PropOp31
 70
     1
102
RTVSPost2010Prop32
280
     0
102
RTVSPost2010PropOp32
 70
     1
102
RTVSPost2010Prop33
280
     0
102
RTVSPost2010PropOp33
 70
     1
102
RTVSPost2010Prop34
280
     0
102
RTVSPost2010PropOp34
 70
     1
102
RTVSPost2010Prop35
280
     0
102
RTVSPost2010PropOp35
 70
     1
102
RTVSPost2010Prop36
280
     0
102
RTVSPost2010PropOp36
 70
     1
102
RTVSPost2010Prop37
 90
       50
102
RTVSPost2010PropOp37
 70
     1
102
RTVSPost2010Prop38
140
0.0
102
RTVSPost2010PropOp38
 70
     1
102
RTVSPost2010Prop39
140
1.0
102
RTVSPost2010PropOp39
 70
     1
102
RTVSPost2010Prop40
 90
        0
102
RTVSPost2010PropOp40
 70
     1
102
RTVSPost2010Prop41ColorIndex
 90
       18
102
RTVSPost2010Prop41ColorRGB
 90
        0
102
RTVSPost2010PropOp41
 70
     1
102
RTVSPost2010Prop42
 90
       50
102
RTVSPost2010PropOp42
 70
     1
102
RTVSPost2010Prop43
 90
        3
102
RTVSPost2010PropOp43
 70
     1
102
RTVSPost2010Prop44ColorIndex
 90
        5
102
RTVSPost2010Prop44ColorRGB
 90
      255
102
RTVSPost2010PropOp44
 70
     1
102
RTVSPost2010Prop45
280
     0
102
RTVSPost2010PropOp45
 70
     1
102
RTVSPost2010Prop46
 90
       50
102
RTVSPost2010PropOp46
 70
     1
102
RTVSPost2010Prop47
 90
       50
102
RTVSPost2010PropOp47
 70
     1
102
RTVSPost2010Prop48
 90
       50
102
RTVSPost2010PropOp48
 70
     1
102
RTVSPost2010Prop49
280
     0
102
RTVSPost2010PropOp49
 70
     1
102
RTVSPost2010Prop50
 90
       50
102
RTVSPost2010PropOp50
 70
     1
102
RTVSPost2010Prop51ColorIndex
 90
      256
102
RTVSPost2010Prop51ColorRGB
 90
-16777216
102
RTVSPost2010PropOp51
 70
     0
102
RTVSPost2010Prop52
140
1.0
102
RTVSPost2010PropOp52
 70
     0
102
RTVSPost2010Prop53
 90
        2
102
RTVSPost2010PropOp53
 70
     1
102
RTVSPost2010Prop54
  1
strokes_ogs.tif
102
RTVSPost2010PropOp54
 70
     1
102
RTVSPost2010Prop55
280
     0
102
RTVSPost2010PropOp55
 70
     1
102
RTVSPost2010Prop56
140
1.0
102
RTVSPost2010PropOp56
 70
     1
102
RTVSPost2010Prop57
140
1.0
102
RTVSPost2010PropOp57
 70
     1
102
RTVSPropertyOp0
 70
     1
102
RTVSPropertyOp1
 70
     1
102
RTVSPropertyOp2
 70
     1
102
RTVSPropertyOp3
 70
     1
102
RTVSPropertyOp4
 70
     1
102
RTVSPropertyOp5
 70
     1
102
RTVSPropertyOp6
 70
     1
102
RTVSPropertyOp7
 70
     1
102
RTVSPropertyOp8
 70
     1
102
RTVSPropertyOp9
 70
     1
102
RTVSPropertyOp10
 70
     1
102
RTVSPropertyOp11
 70
     1
102
RTVSPropertyOp12
 70
     1
102
RTVSPropertyOp13
 70
     1
102
RTVSPropertyOp14
 70
     1
102
RTVSPropertyOp15
 70
     1
102
RTVSPropertyOp16
 70
     1
102
RTVSPropertyOp17
 70
     1
102
RTVSPropertyOp18
 70
     1
102
RTVSPropertyOp19
 70
     1
102
RTVSPropertyOp20
 70
     1
102
RTVSPropertyOp21
 70
     1
102
RTVSPropertyOp22
 70
     1
102
RTVSPropertyOp23
 70
     1
102
RTVSPropertyOp24
 70
     1
102
RTVSPropertyOp25
 70
     1
102
RTVSPropertyOp26
 70
     1
102
RTVSPropertyOp27
 70
     1
102
RTVSPropertyOp28
 70
     1
102
RTVSPropertyOp29
 70
     1
102
RTVSPropertyOp30
 70
     1
102
RTVSPropertyOp31
 70
     1
102
RTVSPropertyOp32
 70
     1
102
RTVSPropertyOp33
 70
     1
102
RTVSPropertyOp34
 70
     1
102
RTVSPropertyOp35
 70
     1
102
RTVSPropertyOp36
 70
     1
102
RTVSPropertyOp37
 70
     1
102
RTVSPropertyOp38
 70
     1
102
RTVSPropertyOp39
 70
     1
102
RTVSPropertyOp40
 70
     1
102
RTVSPropertyOp41
 70
     1
102
RTVSPropertyOp42
 70
     1
102
RTVSPropertyOp43
 70
     1
102
RTVSPropertyOp44
 70
     1
102
RTVSPropertyOp45
 70
     1
102
RTVSPropertyOp46
 70
     1
102
RTVSPropertyOp47
 70
     1
102
RTVSPropertyOp48
 70
     1
102
RTVSPropertyOp49
 70
     1
102
RTVSPropertyOp50
 70
     1
102
RTVSPropertyOp51
 70
     0
102
RTVSPropertyOp52
 70
     0
102
RTVSPropertyOp53
 70
     1
102
RTVSPropertyOp54
 70
     1
102
RTVSPropertyOp55
 70
     1
102
RTVSPropertyOp56
 70
     1
102
RTVSPropertyOp57
 70
     1
102
RTVSPropertyOp58
 70
     1
102
RTVSPropertyOp59
 70
     1
102
RTVSPropertyOp60
 70
     1
102
RTVSPropertyOp61
 70
     1
102
RTVSPropertyOp62
 70
     1
  0
XRECORD
  5
26D
102
{ACAD_REACTORS
330
26C
102
}
330
26C
100
AcDbXrecord
280
     1
102
RTVSPost2010Prop28
280
     0
102
RTVSPost2010PropOp28
 70
     1
102
RTVSPost2010Prop29
280
     1
102
RTVSPost2010PropOp29
 70
     1
102
RTVSPost2010Prop30
280
     1
102
RTVSPost2010PropOp30
 70
     1
102
RTVSPost2010Prop31
280
     0
102
RTVSPost2010PropOp31
 70
     1
102
RTVSPost2010Prop32
280
     0
102
RTVSPost2010PropOp32
 70
     1
102
RTVSPost2010Prop33
280
     0
102
RTVSPost2010PropOp33
 70
     1
102
RTVSPost2010Prop34
280
     0
102
RTVSPost2010PropOp34
 70
     1
102
RTVSPost2010Prop35
280
     0
102
RTVSPost2010PropOp35
 70
     1
102
RTVSPost2010Prop36
280
     0
102
RTVSPost2010PropOp36
 70
     1
102
RTVSPost2010Prop37
 90
       50
102
RTVSPost2010PropOp37
 70
     1
102
RTVSPost2010Prop38
140
0.0
102
RTVSPost2010PropOp38
 70
     1
102
RTVSPost2010Prop39
140
1.0
102
RTVSPost2010PropOp39
 70
     1
102
RTVSPost2010Prop40
 90
        0
102
RTVSPost2010PropOp40
 70
     1
102
RTVSPost2010Prop41ColorIndex
 90
       18
102
RTVSPost2010Prop41ColorRGB
 90
        0
102
RTVSPost2010PropOp41
 70
     1
102
RTVSPost2010Prop42
 90
       50
102
RTVSPost2010PropOp42
 70
     1
102
RTVSPost2010Prop43
 90
        3
102
RTVSPost2010PropOp43
 70
     1
102
RTVSPost2010Prop44ColorIndex
 90
        5
102
RTVSPost2010Prop44ColorRGB
 90
      255
102
RTVSPost2010PropOp44
 70
     1
102
RTVSPost2010Prop45
280
     0
102
RTVSPost2010PropOp45
 70
     1
102
RTVSPost2010Prop46
 90
       50
102
RTVSPost2010PropOp46
 70
     1
102
RTVSPost2010Prop47
 90
       50
102
RTVSPost2010PropOp47
 70
     1
102
RTVSPost2010Prop48
 90
       50
102
RTVSPost2010PropOp48
 70
     1
102
RTVSPost2010Prop49
280
     0
102
RTVSPost2010PropOp49
 70
     1
102
RTVSPost2010Prop50
 90
       50
102
RTVSPost2010PropOp50
 70
     1
102
RTVSPost2010Prop51ColorIndex
 90
      256
102
RTVSPost2010Prop51ColorRGB
 90
-16777216
102
RTVSPost2010PropOp51
 70
     0
102
RTVSPost2010Prop52
140
1.0
102
RTVSPost2010PropOp52
 70
     0
102
RTVSPost2010Prop53
 90
        2
102
RTVSPost2010PropOp53
 70
     1
102
RTVSPost2010Prop54
  1
strokes_ogs.tif
102
RTVSPost2010PropOp54
 70
     1
102
RTVSPost2010Prop55
280
     0
102
RTVSPost2010PropOp55
 70
     1
102
RTVSPost2010Prop56
140
1.0
102
RTVSPost2010PropOp56
 70
     1
102
RTVSPost2010Prop57
140
1.0
102
RTVSPost2010PropOp57
 70
     1
102
RTVSPropertyOp0
 70
     1
102
RTVSPropertyOp1
 70
     1
102
RTVSPropertyOp2
 70
     1
102
RTVSPropertyOp3
 70
     1
102
RTVSPropertyOp4
 70
     1
102
RTVSPropertyOp5
 70
     1
102
RTVSPropertyOp6
 70
     1
102
RTVSPropertyOp7
 70
     1
102
RTVSPropertyOp8
 70
     1
102
RTVSPropertyOp9
 70
     1
102
RTVSPropertyOp10
 70
     1
102
RTVSPropertyOp11
 70
     1
102
RTVSPropertyOp12
 70
     1
102
RTVSPropertyOp13
 70
     1
102
RTVSPropertyOp14
 70
     1
102
RTVSPropertyOp15
 70
     1
102
RTVSPropertyOp16
 70
     1
102
RTVSPropertyOp17
 70
     1
102
RTVSPropertyOp18
 70
     1
102
RTVSPropertyOp19
 70
     1
102
RTVSPropertyOp20
 70
     1
102
RTVSPropertyOp21
 70
     1
102
RTVSPropertyOp22
 70
     1
102
RTVSPropertyOp23
 70
     1
102
RTVSPropertyOp24
 70
     1
102
RTVSPropertyOp25
 70
     1
102
RTVSPropertyOp26
 70
     1
102
RTVSPropertyOp27
 70
     1
102
RTVSPropertyOp28
 70
     1
102
RTVSPropertyOp29
 70
     1
102
RTVSPropertyOp30
 70
     1
102
RTVSPropertyOp31
 70
     1
102
RTVSPropertyOp32
 70
     1
102
RTVSPropertyOp33
 70
     1
102
RTVSPropertyOp34
 70
     1
102
RTVSPropertyOp35
 70
     1
102
RTVSPropertyOp36
 70
     1
102
RTVSPropertyOp37
 70
     1
102
RTVSPropertyOp38
 70
     1
102
RTVSPropertyOp39
 70
     1
102
RTVSPropertyOp40
 70
     1
102
RTVSPropertyOp41
 70
     1
102
RTVSPropertyOp42
 70
     1
102
RTVSPropertyOp43
 70
     1
102
RTVSPropertyOp44
 70
     1
102
RTVSPropertyOp45
 70
     1
102
RTVSPropertyOp46
 70
     1
102
RTVSPropertyOp47
 70
     1
102
RTVSPropertyOp48
 70
     1
102
RTVSPropertyOp49
 70
     1
102
RTVSPropertyOp50
 70
     1
102
RTVSPropertyOp51
 70
     0
102
RTVSPropertyOp52
 70
     0
102
RTVSPropertyOp53
 70
     1
102
RTVSPropertyOp54
 70
     1
102
RTVSPropertyOp55
 70
     1
102
RTVSPropertyOp56
 70
     1
102
RTVSPropertyOp57
 70
     1
102
RTVSPropertyOp58
 70
     1
102
RTVSPropertyOp59
 70
     1
102
RTVSPropertyOp60
 70
     1
102
RTVSPropertyOp61
 70
     1
102
RTVSPropertyOp62
 70
     1
  0
XRECORD
  5
275
102
{ACAD_REACTORS
330
274
102
}
330
274
100
AcDbXrecord
280
     1
102
RTVSPost2010Prop28
280
     0
102
RTVSPost2010PropOp28
 70
     1
102
RTVSPost2010Prop29
280
     1
102
RTVSPost2010PropOp29
 70
     1
102
RTVSPost2010Prop30
280
     1
102
RTVSPost2010PropOp30
 70
     1
102
RTVSPost2010Prop31
280
     0
102
RTVSPost2010PropOp31
 70
     1
102
RTVSPost2010Prop32
280
     0
102
RTVSPost2010PropOp32
 70
     1
102
RTVSPost2010Prop33
280
     0
102
RTVSPost2010PropOp33
 70
     1
102
RTVSPost2010Prop34
280
     0
102
RTVSPost2010PropOp34
 70
     1
102
RTVSPost2010Prop35
280
     0
102
RTVSPost2010PropOp35
 70
     1
102
RTVSPost2010Prop36
280
     0
102
RTVSPost2010PropOp36
 70
     1
102
RTVSPost2010Prop37
 90
       50
102
RTVSPost2010PropOp37
 70
     1
102
RTVSPost2010Prop38
140
0.0
102
RTVSPost2010PropOp38
 70
     1
102
RTVSPost2010Prop39
140
1.0
102
RTVSPost2010PropOp39
 70
     1
102
RTVSPost2010Prop40
 90
        0
102
RTVSPost2010PropOp40
 70
     1
102
RTVSPost2010Prop41ColorIndex
 90
       18
102
RTVSPost2010Prop41ColorRGB
 90
        0
102
RTVSPost2010PropOp41
 70
     1
102
RTVSPost2010Prop42
 90
       50
102
RTVSPost2010PropOp42
 70
     1
102
RTVSPost2010Prop43
 90
        3
102
RTVSPost2010PropOp43
 70
     1
102
RTVSPost2010Prop44ColorIndex
 90
        5
102
RTVSPost2010Prop44ColorRGB
 90
      255
102
RTVSPost2010PropOp44
 70
     1
102
RTVSPost2010Prop45
280
     0
102
RTVSPost2010PropOp45
 70
     1
102
RTVSPost2010Prop46
 90
       50
102
RTVSPost2010PropOp46
 70
     1
102
RTVSPost2010Prop47
 90
       50
102
RTVSPost2010PropOp47
 70
     1
102
RTVSPost2010Prop48
 90
       50
102
RTVSPost2010PropOp48
 70
     1
102
RTVSPost2010Prop49
280
     0
102
RTVSPost2010PropOp49
 70
     1
102
RTVSPost2010Prop50
 90
       50
102
RTVSPost2010PropOp50
 70
     1
102
RTVSPost2010Prop51ColorIndex
 90
      256
102
RTVSPost2010Prop51ColorRGB
 90
-16777216
102
RTVSPost2010PropOp51
 70
     0
102
RTVSPost2010Prop52
140
1.0
102
RTVSPost2010PropOp52
 70
     0
102
RTVSPost2010Prop53
 90
        2
102
RTVSPost2010PropOp53
 70
     1
102
RTVSPost2010Prop54
  1
strokes_ogs.tif
102
RTVSPost2010PropOp54
 70
     1
102
RTVSPost2010Prop55
280
     0
102
RTVSPost2010PropOp55
 70
     1
102
RTVSPost2010Prop56
140
1.0
102
RTVSPost2010PropOp56
 70
     1
102
RTVSPost2010Prop57
140
1.0
102
RTVSPost2010PropOp57
 70
     1
102
RTVSPropertyOp0
 70
     1
102
RTVSPropertyOp1
 70
     1
102
RTVSPropertyOp2
 70
     1
102
RTVSPropertyOp3
 70
     1
102
RTVSPropertyOp4
 70
     1
102
RTVSPropertyOp5
 70
     1
102
RTVSPropertyOp6
 70
     1
102
RTVSPropertyOp7
 70
     1
102
RTVSPropertyOp8
 70
     1
102
RTVSPropertyOp9
 70
     1
102
RTVSPropertyOp10
 70
     1
102
RTVSPropertyOp11
 70
     1
102
RTVSPropertyOp12
 70
     1
102
RTVSPropertyOp13
 70
     1
102
RTVSPropertyOp14
 70
     1
102
RTVSPropertyOp15
 70
     1
102
RTVSPropertyOp16
 70
     1
102
RTVSPropertyOp17
 70
     1
102
RTVSPropertyOp18
 70
     1
102
RTVSPropertyOp19
 70
     1
102
RTVSPropertyOp20
 70
     1
102
RTVSPropertyOp21
 70
     1
102
RTVSPropertyOp22
 70
     1
102
RTVSPropertyOp23
 70
     1
102
RTVSPropertyOp24
 70
     1
102
RTVSPropertyOp25
 70
     1
102
RTVSPropertyOp26
 70
     1
102
RTVSPropertyOp27
 70
     1
102
RTVSPropertyOp28
 70
     1
102
RTVSPropertyOp29
 70
     1
102
RTVSPropertyOp30
 70
     1
102
RTVSPropertyOp31
 70
     1
102
RTVSPropertyOp32
 70
     1
102
RTVSPropertyOp33
 70
     1
102
RTVSPropertyOp34
 70
     1
102
RTVSPropertyOp35
 70
     1
102
RTVSPropertyOp36
 70
     1
102
RTVSPropertyOp37
 70
     1
102
RTVSPropertyOp38
 70
     1
102
RTVSPropertyOp39
 70
     1
102
RTVSPropertyOp40
 70
     1
102
RTVSPropertyOp41
 70
     1
102
RTVSPropertyOp42
 70
     1
102
RTVSPropertyOp43
 70
     1
102
RTVSPropertyOp44
 70
     1
102
RTVSPropertyOp45
 70
     1
102
RTVSPropertyOp46
 70
     1
102
RTVSPropertyOp47
 70
     1
102
RTVSPropertyOp48
 70
     1
102
RTVSPropertyOp49
 70
     1
102
RTVSPropertyOp50
 70
     1
102
RTVSPropertyOp51
 70
     0
102
RTVSPropertyOp52
 70
     0
102
RTVSPropertyOp53
 70
     1
102
RTVSPropertyOp54
 70
     1
102
RTVSPropertyOp55
 70
     1
102
RTVSPropertyOp56
 70
     1
102
RTVSPropertyOp57
 70
     1
102
RTVSPropertyOp58
 70
     1
102
RTVSPropertyOp59
 70
     1
102
RTVSPropertyOp60
 70
     1
102
RTVSPropertyOp61
 70
     1
102
RTVSPropertyOp62
 70
     1
  0
XRECORD
  5
287
102
{ACAD_REACTORS
330
286
102
}
330
286
100
AcDbXrecord
280
     1
102
RTVSPost2010Prop28
280
     0
102
RTVSPost2010PropOp28
 70
     1
102
RTVSPost2010Prop29
280
     1
102
RTVSPost2010PropOp29
 70
     1
102
RTVSPost2010Prop30
280
     1
102
RTVSPost2010PropOp30
 70
     1
102
RTVSPost2010Prop31
280
     0
102
RTVSPost2010PropOp31
 70
     1
102
RTVSPost2010Prop32
280
     0
102
RTVSPost2010PropOp32
 70
     1
102
RTVSPost2010Prop33
280
     0
102
RTVSPost2010PropOp33
 70
     1
102
RTVSPost2010Prop34
280
     0
102
RTVSPost2010PropOp34
 70
     1
102
RTVSPost2010Prop35
280
     0
102
RTVSPost2010PropOp35
 70
     1
102
RTVSPost2010Prop36
280
     0
102
RTVSPost2010PropOp36
 70
     1
102
RTVSPost2010Prop37
 90
       50
102
RTVSPost2010PropOp37
 70
     1
102
RTVSPost2010Prop38
140
0.0
102
RTVSPost2010PropOp38
 70
     1
102
RTVSPost2010Prop39
140
1.0
102
RTVSPost2010PropOp39
 70
     1
102
RTVSPost2010Prop40
 90
        0
102
RTVSPost2010PropOp40
 70
     1
102
RTVSPost2010Prop41ColorIndex
 90
       18
102
RTVSPost2010Prop41ColorRGB
 90
        0
102
RTVSPost2010PropOp41
 70
     1
102
RTVSPost2010Prop42
 90
       50
102
RTVSPost2010PropOp42
 70
     1
102
RTVSPost2010Prop43
 90
        3
102
RTVSPost2010PropOp43
 70
     1
102
RTVSPost2010Prop44ColorIndex
 90
        5
102
RTVSPost2010Prop44ColorRGB
 90
      255
102
RTVSPost2010PropOp44
 70
     1
102
RTVSPost2010Prop45
280
     0
102
RTVSPost2010PropOp45
 70
     1
102
RTVSPost2010Prop46
 90
       50
102
RTVSPost2010PropOp46
 70
     1
102
RTVSPost2010Prop47
 90
       50
102
RTVSPost2010PropOp47
 70
     1
102
RTVSPost2010Prop48
 90
       50
102
RTVSPost2010PropOp48
 70
     1
102
RTVSPost2010Prop49
280
     0
102
RTVSPost2010PropOp49
 70
     1
102
RTVSPost2010Prop50
 90
       50
102
RTVSPost2010PropOp50
 70
     1
102
RTVSPost2010Prop51ColorIndex
 90
      256
102
RTVSPost2010Prop51ColorRGB
 90
-16777216
102
RTVSPost2010PropOp51
 70
     0
102
RTVSPost2010Prop52
140
1.0
102
RTVSPost2010PropOp52
 70
     0
102
RTVSPost2010Prop53
 90
        2
102
RTVSPost2010PropOp53
 70
     1
102
RTVSPost2010Prop54
  1
strokes_ogs.tif
102
RTVSPost2010PropOp54
 70
     1
102
RTVSPost2010Prop55
280
     0
102
RTVSPost2010PropOp55
 70
     1
102
RTVSPost2010Prop56
140
1.0
102
RTVSPost2010PropOp56
 70
     1
102
RTVSPost2010Prop57
140
1.0
102
RTVSPost2010PropOp57
 70
     1
102
RTVSPropertyOp0
 70
     0
102
RTVSPropertyOp1
 70
     0
102
RTVSPropertyOp2
 70
     0
102
RTVSPropertyOp3
 70
     0
102
RTVSPropertyOp4
 70
     0
102
RTVSPropertyOp5
 70
     0
102
RTVSPropertyOp6
 70
     0
102
RTVSPropertyOp7
 70
     0
102
RTVSPropertyOp8
 70
     0
102
RTVSPropertyOp9
 70
     0
102
RTVSPropertyOp10
 70
     0
102
RTVSPropertyOp11
 70
     0
102
RTVSPropertyOp12
 70
     0
102
RTVSPropertyOp13
 70
     0
102
RTVSPropertyOp14
 70
     2
102
RTVSPropertyOp15
 70
     0
102
RTVSPropertyOp16
 70
     0
102
RTVSPropertyOp17
 70
     0
102
RTVSPropertyOp18
 70
     0
102
RTVSPropertyOp19
 70
     0
102
RTVSPropertyOp20
 70
     0
102
RTVSPropertyOp21
 70
     0
102
RTVSPropertyOp22
 70
     0
102
RTVSPropertyOp23
 70
     0
102
RTVSPropertyOp24
 70
     0
102
RTVSPropertyOp25
 70
     0
102
RTVSPropertyOp26
 70
     0
102
RTVSPropertyOp27
 70
     0
102
RTVSPropertyOp28
 70
     1
102
RTVSPropertyOp29
 70
     1
102
RTVSPropertyOp30
 70
     1
102
RTVSPropertyOp31
 70
     1
102
RTVSPropertyOp32
 70
     1
102
RTVSPropertyOp33
 70
     1
102
RTVSPropertyOp34
 70
     1
102
RTVSPropertyOp35
 70
     1
102
RTVSPropertyOp36
 70
     1
102
RTVSPropertyOp37
 70
     1
102
RTVSPropertyOp38
 70
     1
102
RTVSPropertyOp39
 70
     1
102
RTVSPropertyOp40
 70
     1
102
RTVSPropertyOp41
 70
     1
102
RTVSPropertyOp42
 70
     1
102
RTVSPropertyOp43
 70
     1
102
RTVSPropertyOp44
 70
     1
102
RTVSPropertyOp45
 70
     1
102
RTVSPropertyOp46
 70
     1
102
RTVSPropertyOp47
 70
     1
102
RTVSPropertyOp48
 70
     1
102
RTVSPropertyOp49
 70
     1
102
RTVSPropertyOp50
 70
     1
102
RTVSPropertyOp51
 70
     0
102
RTVSPropertyOp52
 70
     0
102
RTVSPropertyOp53
 70
     1
102
RTVSPropertyOp54
 70
     1
102
RTVSPropertyOp55
 70
     1
102
RTVSPropertyOp56
 70
     1
102
RTVSPropertyOp57
 70
     1
102
RTVSPropertyOp58
 70
     1
102
RTVSPropertyOp59
 70
     1
102
RTVSPropertyOp60
 70
     1
102
RTVSPropertyOp61
 70
     1
102
RTVSPropertyOp62
 70
     1
  0
XRECORD
  5
281
102
{ACAD_REACTORS
330
280
102
}
330
280
100
AcDbXrecord
280
     1
102
RTVSPost2010Prop28
280
     0
102
RTVSPost2010PropOp28
 70
     1
102
RTVSPost2010Prop29
280
     1
102
RTVSPost2010PropOp29
 70
     1
102
RTVSPost2010Prop30
280
     1
102
RTVSPost2010PropOp30
 70
     1
102
RTVSPost2010Prop31
280
     0
102
RTVSPost2010PropOp31
 70
     1
102
RTVSPost2010Prop32
280
     0
102
RTVSPost2010PropOp32
 70
     1
102
RTVSPost2010Prop33
280
     0
102
RTVSPost2010PropOp33
 70
     1
102
RTVSPost2010Prop34
280
     0
102
RTVSPost2010PropOp34
 70
     1
102
RTVSPost2010Prop35
280
     0
102
RTVSPost2010PropOp35
 70
     1
102
RTVSPost2010Prop36
280
     0
102
RTVSPost2010PropOp36
 70
     1
102
RTVSPost2010Prop37
 90
       50
102
RTVSPost2010PropOp37
 70
     1
102
RTVSPost2010Prop38
140
0.0
102
RTVSPost2010PropOp38
 70
     1
102
RTVSPost2010Prop39
140
1.0
102
RTVSPost2010PropOp39
 70
     1
102
RTVSPost2010Prop40
 90
        0
102
RTVSPost2010PropOp40
 70
     1
102
RTVSPost2010Prop41ColorIndex
 90
       18
102
RTVSPost2010Prop41ColorRGB
 90
        0
102
RTVSPost2010PropOp41
 70
     1
102
RTVSPost2010Prop42
 90
       50
102
RTVSPost2010PropOp42
 70
     1
102
RTVSPost2010Prop43
 90
        3
102
RTVSPost2010PropOp43
 70
     1
102
RTVSPost2010Prop44ColorIndex
 90
        5
102
RTVSPost2010Prop44ColorRGB
 90
      255
102
RTVSPost2010PropOp44
 70
     1
102
RTVSPost2010Prop45
280
     0
102
RTVSPost2010PropOp45
 70
     1
102
RTVSPost2010Prop46
 90
       50
102
RTVSPost2010PropOp46
 70
     1
102
RTVSPost2010Prop47
 90
       50
102
RTVSPost2010PropOp47
 70
     1
102
RTVSPost2010Prop48
 90
       50
102
RTVSPost2010PropOp48
 70
     1
102
RTVSPost2010Prop49
280
     0
102
RTVSPost2010PropOp49
 70
     1
102
RTVSPost2010Prop50
 90
       50
102
RTVSPost2010PropOp50
 70
     1
102
RTVSPost2010Prop51ColorIndex
 90
      256
102
RTVSPost2010Prop51ColorRGB
 90
-16777216
102
RTVSPost2010PropOp51
 70
     0
102
RTVSPost2010Prop52
140
1.0
102
RTVSPost2010PropOp52
 70
     0
102
RTVSPost2010Prop53
 90
        2
102
RTVSPost2010PropOp53
 70
     1
102
RTVSPost2010Prop54
  1
strokes_ogs.tif
102
RTVSPost2010PropOp54
 70
     1
102
RTVSPost2010Prop55
280
     0
102
RTVSPost2010PropOp55
 70
     1
102
RTVSPost2010Prop56
140
1.0
102
RTVSPost2010PropOp56
 70
     1
102
RTVSPost2010Prop57
140
1.0
102
RTVSPost2010PropOp57
 70
     1
102
RTVSPropertyOp0
 70
     1
102
RTVSPropertyOp1
 70
     1
102
RTVSPropertyOp2
 70
     1
102
RTVSPropertyOp3
 70
     1
102
RTVSPropertyOp4
 70
     1
102
RTVSPropertyOp5
 70
     1
102
RTVSPropertyOp6
 70
     1
102
RTVSPropertyOp7
 70
     1
102
RTVSPropertyOp8
 70
     1
102
RTVSPropertyOp9
 70
     1
102
RTVSPropertyOp10
 70
     1
102
RTVSPropertyOp11
 70
     1
102
RTVSPropertyOp12
 70
     1
102
RTVSPropertyOp13
 70
     1
102
RTVSPropertyOp14
 70
     1
102
RTVSPropertyOp15
 70
     1
102
RTVSPropertyOp16
 70
     1
102
RTVSPropertyOp17
 70
     1
102
RTVSPropertyOp18
 70
     1
102
RTVSPropertyOp19
 70
     1
102
RTVSPropertyOp20
 70
     1
102
RTVSPropertyOp21
 70
     1
102
RTVSPropertyOp22
 70
     1
102
RTVSPropertyOp23
 70
     1
102
RTVSPropertyOp24
 70
     1
102
RTVSPropertyOp25
 70
     1
102
RTVSPropertyOp26
 70
     1
102
RTVSPropertyOp27
 70
     1
102
RTVSPropertyOp28
 70
     1
102
RTVSPropertyOp29
 70
     1
102
RTVSPropertyOp30
 70
     1
102
RTVSPropertyOp31
 70
     1
102
RTVSPropertyOp32
 70
     1
102
RTVSPropertyOp33
 70
     1
102
RTVSPropertyOp34
 70
     1
102
RTVSPropertyOp35
 70
     1
102
RTVSPropertyOp36
 70
     1
102
RTVSPropertyOp37
 70
     1
102
RTVSPropertyOp38
 70
     1
102
RTVSPropertyOp39
 70
     1
102
RTVSPropertyOp40
 70
     1
102
RTVSPropertyOp41
 70
     1
102
RTVSPropertyOp42
 70
     1
102
RTVSPropertyOp43
 70
     1
102
RTVSPropertyOp44
 70
     1
102
RTVSPropertyOp45
 70
     1
102
RTVSPropertyOp46
 70
     1
102
RTVSPropertyOp47
 70
     1
102
RTVSPropertyOp48
 70
     1
102
RTVSPropertyOp49
 70
     1
102
RTVSPropertyOp50
 70
     1
102
RTVSPropertyOp51
 70
     0
102
RTVSPropertyOp52
 70
     0
102
RTVSPropertyOp53
 70
     1
102
RTVSPropertyOp54
 70
     1
102
RTVSPropertyOp55
 70
     1
102
RTVSPropertyOp56
 70
     1
102
RTVSPropertyOp57
 70
     1
102
RTVSPropertyOp58
 70
     1
102
RTVSPropertyOp59
 70
     1
102
RTVSPropertyOp60
 70
     1
102
RTVSPropertyOp61
 70
     1
102
RTVSPropertyOp62
 70
     1
  0
XRECORD
  5
289
102
{ACAD_REACTORS
330
288
102
}
330
288
100
AcDbXrecord
280
     1
102
RTVSPost2010Prop28
280
     0
102
RTVSPost2010PropOp28
 70
     1
102
RTVSPost2010Prop29
280
     1
102
RTVSPost2010PropOp29
 70
     1
102
RTVSPost2010Prop30
280
     1
102
RTVSPost2010PropOp30
 70
     1
102
RTVSPost2010Prop31
280
     0
102
RTVSPost2010PropOp31
 70
     1
102
RTVSPost2010Prop32
280
     0
102
RTVSPost2010PropOp32
 70
     1
102
RTVSPost2010Prop33
280
     0
102
RTVSPost2010PropOp33
 70
     1
102
RTVSPost2010Prop34
280
     0
102
RTVSPost2010PropOp34
 70
     1
102
RTVSPost2010Prop35
280
     0
102
RTVSPost2010PropOp35
 70
     1
102
RTVSPost2010Prop36
280
     0
102
RTVSPost2010PropOp36
 70
     1
102
RTVSPost2010Prop37
 90
       50
102
RTVSPost2010PropOp37
 70
     1
102
RTVSPost2010Prop38
140
0.0
102
RTVSPost2010PropOp38
 70
     1
102
RTVSPost2010Prop39
140
1.0
102
RTVSPost2010PropOp39
 70
     1
102
RTVSPost2010Prop40
 90
        0
102
RTVSPost2010PropOp40
 70
     1
102
RTVSPost2010Prop41ColorIndex
 90
       18
102
RTVSPost2010Prop41ColorRGB
 90
        0
102
RTVSPost2010PropOp41
 70
     1
102
RTVSPost2010Prop42
 90
       50
102
RTVSPost2010PropOp42
 70
     1
102
RTVSPost2010Prop43
 90
        3
102
RTVSPost2010PropOp43
 70
     1
102
RTVSPost2010Prop44ColorIndex
 90
        5
102
RTVSPost2010Prop44ColorRGB
 90
      255
102
RTVSPost2010PropOp44
 70
     1
102
RTVSPost2010Prop45
280
     0
102
RTVSPost2010PropOp45
 70
     1
102
RTVSPost2010Prop46
 90
       50
102
RTVSPost2010PropOp46
 70
     1
102
RTVSPost2010Prop47
 90
       50
102
RTVSPost2010PropOp47
 70
     1
102
RTVSPost2010Prop48
 90
       50
102
RTVSPost2010PropOp48
 70
     1
102
RTVSPost2010Prop49
280
     0
102
RTVSPost2010PropOp49
 70
     1
102
RTVSPost2010Prop50
 90
       50
102
RTVSPost2010PropOp50
 70
     1
102
RTVSPost2010Prop51ColorIndex
 90
      256
102
RTVSPost2010Prop51ColorRGB
 90
-16777216
102
RTVSPost2010PropOp51
 70
     0
102
RTVSPost2010Prop52
140
1.0
102
RTVSPost2010PropOp52
 70
     0
102
RTVSPost2010Prop53
 90
        2
102
RTVSPost2010PropOp53
 70
     1
102
RTVSPost2010Prop54
  1
strokes_ogs.tif
102
RTVSPost2010PropOp54
 70
     1
102
RTVSPost2010Prop55
280
     0
102
RTVSPost2010PropOp55
 70
     1
102
RTVSPost2010Prop56
140
1.0
102
RTVSPost2010PropOp56
 70
     1
102
RTVSPost2010Prop57
140
1.0
102
RTVSPost2010PropOp57
 70
     1
102
RTVSPropertyOp0
 70
     0
102
RTVSPropertyOp1
 70
     0
102
RTVSPropertyOp2
 70
     0
102
RTVSPropertyOp3
 70
     0
102
RTVSPropertyOp4
 70
     0
102
RTVSPropertyOp5
 70
     0
102
RTVSPropertyOp6
 70
     0
102
RTVSPropertyOp7
 70
     0
102
RTVSPropertyOp8
 70
     0
102
RTVSPropertyOp9
 70
     0
102
RTVSPropertyOp10
 70
     0
102
RTVSPropertyOp11
 70
     0
102
RTVSPropertyOp12
 70
     0
102
RTVSPropertyOp13
 70
     0
102
RTVSPropertyOp14
 70
     2
102
RTVSPropertyOp15
 70
     0
102
RTVSPropertyOp16
 70
     0
102
RTVSPropertyOp17
 70
     0
102
RTVSPropertyOp18
 70
     0
102
RTVSPropertyOp19
 70
     0
102
RTVSPropertyOp20
 70
     0
102
RTVSPropertyOp21
 70
     0
102
RTVSPropertyOp22
 70
     0
102
RTVSPropertyOp23
 70
     0
102
RTVSPropertyOp24
 70
     0
102
RTVSPropertyOp25
 70
     0
102
RTVSPropertyOp26
 70
     0
102
RTVSPropertyOp27
 70
     0
102
RTVSPropertyOp28
 70
     1
102
RTVSPropertyOp29
 70
     1
102
RTVSPropertyOp30
 70
     1
102
RTVSPropertyOp31
 70
     1
102
RTVSPropertyOp32
 70
     1
102
RTVSPropertyOp33
 70
     1
102
RTVSPropertyOp34
 70
     1
102
RTVSPropertyOp35
 70
     1
102
RTVSPropertyOp36
 70
     1
102
RTVSPropertyOp37
 70
     1
102
RTVSPropertyOp38
 70
     1
102
RTVSPropertyOp39
 70
     1
102
RTVSPropertyOp40
 70
     1
102
RTVSPropertyOp41
 70
     1
102
RTVSPropertyOp42
 70
     1
102
RTVSPropertyOp43
 70
     1
102
RTVSPropertyOp44
 70
     1
102
RTVSPropertyOp45
 70
     1
102
RTVSPropertyOp46
 70
     1
102
RTVSPropertyOp47
 70
     1
102
RTVSPropertyOp48
 70
     1
102
RTVSPropertyOp49
 70
     1
102
RTVSPropertyOp50
 70
     1
102
RTVSPropertyOp51
 70
     0
102
RTVSPropertyOp52
 70
     0
102
RTVSPropertyOp53
 70
     1
102
RTVSPropertyOp54
 70
     1
102
RTVSPropertyOp55
 70
     1
102
RTVSPropertyOp56
 70
     1
102
RTVSPropertyOp57
 70
     1
102
RTVSPropertyOp58
 70
     1
102
RTVSPropertyOp59
 70
     1
102
RTVSPropertyOp60
 70
     1
102
RTVSPropertyOp61
 70
     1
102
RTVSPropertyOp62
 70
     1
  0
XRECORD
  5
279
102
{ACAD_REACTORS
330
278
102
}
330
278
100
AcDbXrecord
280
     1
102
RTVSPost2010Prop28
280
     0
102
RTVSPost2010PropOp28
 70
     1
102
RTVSPost2010Prop29
280
     1
102
RTVSPost2010PropOp29
 70
     1
102
RTVSPost2010Prop30
280
     1
102
RTVSPost2010PropOp30
 70
     1
102
RTVSPost2010Prop31
280
     0
102
RTVSPost2010PropOp31
 70
     1
102
RTVSPost2010Prop32
280
     0
102
RTVSPost2010PropOp32
 70
     1
102
RTVSPost2010Prop33
280
     0
102
RTVSPost2010PropOp33
 70
     1
102
RTVSPost2010Prop34
280
     0
102
RTVSPost2010PropOp34
 70
     1
102
RTVSPost2010Prop35
280
     0
102
RTVSPost2010PropOp35
 70
     1
102
RTVSPost2010Prop36
280
     0
102
RTVSPost2010PropOp36
 70
     1
102
RTVSPost2010Prop37
 90
       50
102
RTVSPost2010PropOp37
 70
     1
102
RTVSPost2010Prop38
140
0.0
102
RTVSPost2010PropOp38
 70
     1
102
RTVSPost2010Prop39
140
1.0
102
RTVSPost2010PropOp39
 70
     1
102
RTVSPost2010Prop40
 90
        0
102
RTVSPost2010PropOp40
 70
     1
102
RTVSPost2010Prop41ColorIndex
 90
       18
102
RTVSPost2010Prop41ColorRGB
 90
        0
102
RTVSPost2010PropOp41
 70
     1
102
RTVSPost2010Prop42
 90
       50
102
RTVSPost2010PropOp42
 70
     1
102
RTVSPost2010Prop43
 90
        3
102
RTVSPost2010PropOp43
 70
     1
102
RTVSPost2010Prop44ColorIndex
 90
        5
102
RTVSPost2010Prop44ColorRGB
 90
      255
102
RTVSPost2010PropOp44
 70
     1
102
RTVSPost2010Prop45
280
     0
102
RTVSPost2010PropOp45
 70
     1
102
RTVSPost2010Prop46
 90
       50
102
RTVSPost2010PropOp46
 70
     1
102
RTVSPost2010Prop47
 90
       50
102
RTVSPost2010PropOp47
 70
     1
102
RTVSPost2010Prop48
 90
       50
102
RTVSPost2010PropOp48
 70
     1
102
RTVSPost2010Prop49
280
     0
102
RTVSPost2010PropOp49
 70
     1
102
RTVSPost2010Prop50
 90
       50
102
RTVSPost2010PropOp50
 70
     1
102
RTVSPost2010Prop51ColorIndex
 90
      256
102
RTVSPost2010Prop51ColorRGB
 90
-16777216
102
RTVSPost2010PropOp51
 70
     0
102
RTVSPost2010Prop52
140
1.0
102
RTVSPost2010PropOp52
 70
     0
102
RTVSPost2010Prop53
 90
        2
102
RTVSPost2010PropOp53
 70
     1
102
RTVSPost2010Prop54
  1
strokes_ogs.tif
102
RTVSPost2010PropOp54
 70
     1
102
RTVSPost2010Prop55
280
     0
102
RTVSPost2010PropOp55
 70
     1
102
RTVSPost2010Prop56
140
1.0
102
RTVSPost2010PropOp56
 70
     1
102
RTVSPost2010Prop57
140
1.0
102
RTVSPost2010PropOp57
 70
     1
102
RTVSPropertyOp0
 70
     1
102
RTVSPropertyOp1
 70
     1
102
RTVSPropertyOp2
 70
     1
102
RTVSPropertyOp3
 70
     1
102
RTVSPropertyOp4
 70
     1
102
RTVSPropertyOp5
 70
     1
102
RTVSPropertyOp6
 70
     1
102
RTVSPropertyOp7
 70
     1
102
RTVSPropertyOp8
 70
     1
102
RTVSPropertyOp9
 70
     1
102
RTVSPropertyOp10
 70
     1
102
RTVSPropertyOp11
 70
     1
102
RTVSPropertyOp12
 70
     1
102
RTVSPropertyOp13
 70
     1
102
RTVSPropertyOp14
 70
     1
102
RTVSPropertyOp15
 70
     1
102
RTVSPropertyOp16
 70
     1
102
RTVSPropertyOp17
 70
     1
102
RTVSPropertyOp18
 70
     1
102
RTVSPropertyOp19
 70
     1
102
RTVSPropertyOp20
 70
     1
102
RTVSPropertyOp21
 70
     1
102
RTVSPropertyOp22
 70
     1
102
RTVSPropertyOp23
 70
     1
102
RTVSPropertyOp24
 70
     1
102
RTVSPropertyOp25
 70
     1
102
RTVSPropertyOp26
 70
     1
102
RTVSPropertyOp27
 70
     1
102
RTVSPropertyOp28
 70
     1
102
RTVSPropertyOp29
 70
     1
102
RTVSPropertyOp30
 70
     1
102
RTVSPropertyOp31
 70
     1
102
RTVSPropertyOp32
 70
     1
102
RTVSPropertyOp33
 70
     1
102
RTVSPropertyOp34
 70
     1
102
RTVSPropertyOp35
 70
     1
102
RTVSPropertyOp36
 70
     1
102
RTVSPropertyOp37
 70
     1
102
RTVSPropertyOp38
 70
     1
102
RTVSPropertyOp39
 70
     1
102
RTVSPropertyOp40
 70
     1
102
RTVSPropertyOp41
 70
     1
102
RTVSPropertyOp42
 70
     1
102
RTVSPropertyOp43
 70
     1
102
RTVSPropertyOp44
 70
     1
102
RTVSPropertyOp45
 70
     1
102
RTVSPropertyOp46
 70
     1
102
RTVSPropertyOp47
 70
     1
102
RTVSPropertyOp48
 70
     1
102
RTVSPropertyOp49
 70
     1
102
RTVSPropertyOp50
 70
     1
102
RTVSPropertyOp51
 70
     0
102
RTVSPropertyOp52
 70
     0
102
RTVSPropertyOp53
 70
     1
102
RTVSPropertyOp54
 70
     1
102
RTVSPropertyOp55
 70
     1
102
RTVSPropertyOp56
 70
     1
102
RTVSPropertyOp57
 70
     1
102
RTVSPropertyOp58
 70
     1
102
RTVSPropertyOp59
 70
     1
102
RTVSPropertyOp60
 70
     1
102
RTVSPropertyOp61
 70
     1
102
RTVSPropertyOp62
 70
     1
  0
XRECORD
  5
295
102
{ACAD_REACTORS
330
294
102
}
330
294
100
AcDbXrecord
280
     1
102
RTVSPost2010Prop28
280
     0
102
RTVSPost2010PropOp28
 70
     1
102
RTVSPost2010Prop29
280
     1
102
RTVSPost2010PropOp29
 70
     1
102
RTVSPost2010Prop30
280
     1
102
RTVSPost2010PropOp30
 70
     1
102
RTVSPost2010Prop31
280
     0
102
RTVSPost2010PropOp31
 70
     1
102
RTVSPost2010Prop32
280
     0
102
RTVSPost2010PropOp32
 70
     1
102
RTVSPost2010Prop33
280
     0
102
RTVSPost2010PropOp33
 70
     1
102
RTVSPost2010Prop34
280
     0
102
RTVSPost2010PropOp34
 70
     1
102
RTVSPost2010Prop35
280
     0
102
RTVSPost2010PropOp35
 70
     1
102
RTVSPost2010Prop36
280
     0
102
RTVSPost2010PropOp36
 70
     1
102
RTVSPost2010Prop37
 90
       50
102
RTVSPost2010PropOp37
 70
     1
102
RTVSPost2010Prop38
140
0.0
102
RTVSPost2010PropOp38
 70
     1
102
RTVSPost2010Prop39
140
1.0
102
RTVSPost2010PropOp39
 70
     1
102
RTVSPost2010Prop40
 90
        0
102
RTVSPost2010PropOp40
 70
     1
102
RTVSPost2010Prop41ColorIndex
 90
       18
102
RTVSPost2010Prop41ColorRGB
 90
        0
102
RTVSPost2010PropOp41
 70
     1
102
RTVSPost2010Prop42
 90
       50
102
RTVSPost2010PropOp42
 70
     1
102
RTVSPost2010Prop43
 90
        3
102
RTVSPost2010PropOp43
 70
     1
102
RTVSPost2010Prop44ColorIndex
 90
        5
102
RTVSPost2010Prop44ColorRGB
 90
      255
102
RTVSPost2010PropOp44
 70
     1
102
RTVSPost2010Prop45
280
     0
102
RTVSPost2010PropOp45
 70
     1
102
RTVSPost2010Prop46
 90
       50
102
RTVSPost2010PropOp46
 70
     1
102
RTVSPost2010Prop47
 90
       50
102
RTVSPost2010PropOp47
 70
     1
102
RTVSPost2010Prop48
 90
       50
102
RTVSPost2010PropOp48
 70
     1
102
RTVSPost2010Prop49
280
     0
102
RTVSPost2010PropOp49
 70
     1
102
RTVSPost2010Prop50
 90
       50
102
RTVSPost2010PropOp50
 70
     1
102
RTVSPost2010Prop51ColorIndex
 90
      256
102
RTVSPost2010Prop51ColorRGB
 90
-16777216
102
RTVSPost2010PropOp51
 70
     0
102
RTVSPost2010Prop52
140
1.0
102
RTVSPost2010PropOp52
 70
     0
102
RTVSPost2010Prop53
 90
        2
102
RTVSPost2010PropOp53
 70
     1
102
RTVSPost2010Prop54
  1
strokes_ogs.tif
102
RTVSPost2010PropOp54
 70
     1
102
RTVSPost2010Prop55
280
     0
102
RTVSPost2010PropOp55
 70
     1
102
RTVSPost2010Prop56
140
1.0
102
RTVSPost2010PropOp56
 70
     1
102
RTVSPost2010Prop57
140
1.0
102
RTVSPost2010PropOp57
 70
     1
102
RTVSPropertyOp0
 70
     1
102
RTVSPropertyOp1
 70
     1
102
RTVSPropertyOp2
 70
     1
102
RTVSPropertyOp3
 70
     1
102
RTVSPropertyOp4
 70
     1
102
RTVSPropertyOp5
 70
     1
102
RTVSPropertyOp6
 70
     1
102
RTVSPropertyOp7
 70
     1
102
RTVSPropertyOp8
 70
     1
102
RTVSPropertyOp9
 70
     1
102
RTVSPropertyOp10
 70
     1
102
RTVSPropertyOp11
 70
     1
102
RTVSPropertyOp12
 70
     1
102
RTVSPropertyOp13
 70
     1
102
RTVSPropertyOp14
 70
     1
102
RTVSPropertyOp15
 70
     1
102
RTVSPropertyOp16
 70
     1
102
RTVSPropertyOp17
 70
     1
102
RTVSPropertyOp18
 70
     1
102
RTVSPropertyOp19
 70
     1
102
RTVSPropertyOp20
 70
     1
102
RTVSPropertyOp21
 70
     1
102
RTVSPropertyOp22
 70
     1
102
RTVSPropertyOp23
 70
     1
102
RTVSPropertyOp24
 70
     1
102
RTVSPropertyOp25
 70
     1
102
RTVSPropertyOp26
 70
     1
102
RTVSPropertyOp27
 70
     1
102
RTVSPropertyOp28
 70
     1
102
RTVSPropertyOp29
 70
     1
102
RTVSPropertyOp30
 70
     1
102
RTVSPropertyOp31
 70
     1
102
RTVSPropertyOp32
 70
     1
102
RTVSPropertyOp33
 70
     1
102
RTVSPropertyOp34
 70
     1
102
RTVSPropertyOp35
 70
     1
102
RTVSPropertyOp36
 70
     1
102
RTVSPropertyOp37
 70
     1
102
RTVSPropertyOp38
 70
     1
102
RTVSPropertyOp39
 70
     1
102
RTVSPropertyOp40
 70
     1
102
RTVSPropertyOp41
 70
     1
102
RTVSPropertyOp42
 70
     1
102
RTVSPropertyOp43
 70
     1
102
RTVSPropertyOp44
 70
     1
102
RTVSPropertyOp45
 70
     1
102
RTVSPropertyOp46
 70
     1
102
RTVSPropertyOp47
 70
     1
102
RTVSPropertyOp48
 70
     1
102
RTVSPropertyOp49
 70
     1
102
RTVSPropertyOp50
 70
     1
102
RTVSPropertyOp51
 70
     0
102
RTVSPropertyOp52
 70
     0
102
RTVSPropertyOp53
 70
     1
102
RTVSPropertyOp54
 70
     1
102
RTVSPropertyOp55
 70
     1
102
RTVSPropertyOp56
 70
     1
102
RTVSPropertyOp57
 70
     1
102
RTVSPropertyOp58
 70
     1
102
RTVSPropertyOp59
 70
     1
102
RTVSPropertyOp60
 70
     1
102
RTVSPropertyOp61
 70
     1
102
RTVSPropertyOp62
 70
     1
  0
XRECORD
  5
293
102
{ACAD_REACTORS
330
292
102
}
330
292
100
AcDbXrecord
280
     1
102
RTVSPost2010Prop28
280
     0
102
RTVSPost2010PropOp28
 70
     1
102
RTVSPost2010Prop29
280
     1
102
RTVSPost2010PropOp29
 70
     1
102
RTVSPost2010Prop30
280
     1
102
RTVSPost2010PropOp30
 70
     1
102
RTVSPost2010Prop31
280
     0
102
RTVSPost2010PropOp31
 70
     1
102
RTVSPost2010Prop32
280
     0
102
RTVSPost2010PropOp32
 70
     1
102
RTVSPost2010Prop33
280
     0
102
RTVSPost2010PropOp33
 70
     1
102
RTVSPost2010Prop34
280
     0
102
RTVSPost2010PropOp34
 70
     1
102
RTVSPost2010Prop35
280
     0
102
RTVSPost2010PropOp35
 70
     1
102
RTVSPost2010Prop36
280
     0
102
RTVSPost2010PropOp36
 70
     1
102
RTVSPost2010Prop37
 90
       50
102
RTVSPost2010PropOp37
 70
     1
102
RTVSPost2010Prop38
140
0.0
102
RTVSPost2010PropOp38
 70
     1
102
RTVSPost2010Prop39
140
1.0
102
RTVSPost2010PropOp39
 70
     1
102
RTVSPost2010Prop40
 90
        0
102
RTVSPost2010PropOp40
 70
     1
102
RTVSPost2010Prop41ColorIndex
 90
       18
102
RTVSPost2010Prop41ColorRGB
 90
        0
102
RTVSPost2010PropOp41
 70
     1
102
RTVSPost2010Prop42
 90
       50
102
RTVSPost2010PropOp42
 70
     1
102
RTVSPost2010Prop43
 90
        3
102
RTVSPost2010PropOp43
 70
     1
102
RTVSPost2010Prop44ColorIndex
 90
        5
102
RTVSPost2010Prop44ColorRGB
 90
      255
102
RTVSPost2010PropOp44
 70
     1
102
RTVSPost2010Prop45
280
     0
102
RTVSPost2010PropOp45
 70
     1
102
RTVSPost2010Prop46
 90
       50
102
RTVSPost2010PropOp46
 70
     1
102
RTVSPost2010Prop47
 90
       50
102
RTVSPost2010PropOp47
 70
     1
102
RTVSPost2010Prop48
 90
       50
102
RTVSPost2010PropOp48
 70
     1
102
RTVSPost2010Prop49
280
     0
102
RTVSPost2010PropOp49
 70
     1
102
RTVSPost2010Prop50
 90
       50
102
RTVSPost2010PropOp50
 70
     1
102
RTVSPost2010Prop51ColorIndex
 90
      256
102
RTVSPost2010Prop51ColorRGB
 90
-16777216
102
RTVSPost2010PropOp51
 70
     0
102
RTVSPost2010Prop52
140
1.0
102
RTVSPost2010PropOp52
 70
     0
102
RTVSPost2010Prop53
 90
        2
102
RTVSPost2010PropOp53
 70
     1
102
RTVSPost2010Prop54
  1
strokes_ogs.tif
102
RTVSPost2010PropOp54
 70
     1
102
RTVSPost2010Prop55
280
     0
102
RTVSPost2010PropOp55
 70
     1
102
RTVSPost2010Prop56
140
1.0
102
RTVSPost2010PropOp56
 70
     1
102
RTVSPost2010Prop57
140
1.0
102
RTVSPost2010PropOp57
 70
     1
102
RTVSPropertyOp0
 70
     1
102
RTVSPropertyOp1
 70
     1
102
RTVSPropertyOp2
 70
     1
102
RTVSPropertyOp3
 70
     1
102
RTVSPropertyOp4
 70
     1
102
RTVSPropertyOp5
 70
     1
102
RTVSPropertyOp6
 70
     1
102
RTVSPropertyOp7
 70
     1
102
RTVSPropertyOp8
 70
     1
102
RTVSPropertyOp9
 70
     1
102
RTVSPropertyOp10
 70
     1
102
RTVSPropertyOp11
 70
     1
102
RTVSPropertyOp12
 70
     1
102
RTVSPropertyOp13
 70
     1
102
RTVSPropertyOp14
 70
     1
102
RTVSPropertyOp15
 70
     1
102
RTVSPropertyOp16
 70
     1
102
RTVSPropertyOp17
 70
     1
102
RTVSPropertyOp18
 70
     1
102
RTVSPropertyOp19
 70
     1
102
RTVSPropertyOp20
 70
     1
102
RTVSPropertyOp21
 70
     1
102
RTVSPropertyOp22
 70
     1
102
RTVSPropertyOp23
 70
     1
102
RTVSPropertyOp24
 70
     1
102
RTVSPropertyOp25
 70
     1
102
RTVSPropertyOp26
 70
     1
102
RTVSPropertyOp27
 70
     1
102
RTVSPropertyOp28
 70
     1
102
RTVSPropertyOp29
 70
     1
102
RTVSPropertyOp30
 70
     1
102
RTVSPropertyOp31
 70
     1
102
RTVSPropertyOp32
 70
     1
102
RTVSPropertyOp33
 70
     1
102
RTVSPropertyOp34
 70
     1
102
RTVSPropertyOp35
 70
     1
102
RTVSPropertyOp36
 70
     1
102
RTVSPropertyOp37
 70
     1
102
RTVSPropertyOp38
 70
     1
102
RTVSPropertyOp39
 70
     1
102
RTVSPropertyOp40
 70
     1
102
RTVSPropertyOp41
 70
     1
102
RTVSPropertyOp42
 70
     1
102
RTVSPropertyOp43
 70
     1
102
RTVSPropertyOp44
 70
     1
102
RTVSPropertyOp45
 70
     1
102
RTVSPropertyOp46
 70
     1
102
RTVSPropertyOp47
 70
     1
102
RTVSPropertyOp48
 70
     1
102
RTVSPropertyOp49
 70
     1
102
RTVSPropertyOp50
 70
     1
102
RTVSPropertyOp51
 70
     0
102
RTVSPropertyOp52
 70
     0
102
RTVSPropertyOp53
 70
     1
102
RTVSPropertyOp54
 70
     1
102
RTVSPropertyOp55
 70
     1
102
RTVSPropertyOp56
 70
     1
102
RTVSPropertyOp57
 70
     1
102
RTVSPropertyOp58
 70
     1
102
RTVSPropertyOp59
 70
     1
102
RTVSPropertyOp60
 70
     1
102
RTVSPropertyOp61
 70
     1
102
RTVSPropertyOp62
 70
     1
  0
XRECORD
  5
28D
102
{ACAD_REACTORS
330
28C
102
}
330
28C
100
AcDbXrecord
280
     1
102
RTVSPost2010Prop28
280
     0
102
RTVSPost2010PropOp28
 70
     1
102
RTVSPost2010Prop29
280
     1
102
RTVSPost2010PropOp29
 70
     1
102
RTVSPost2010Prop30
280
     1
102
RTVSPost2010PropOp30
 70
     1
102
RTVSPost2010Prop31
280
     0
102
RTVSPost2010PropOp31
 70
     1
102
RTVSPost2010Prop32
280
     0
102
RTVSPost2010PropOp32
 70
     1
102
RTVSPost2010Prop33
280
     0
102
RTVSPost2010PropOp33
 70
     1
102
RTVSPost2010Prop34
280
     0
102
RTVSPost2010PropOp34
 70
     1
102
RTVSPost2010Prop35
280
     0
102
RTVSPost2010PropOp35
 70
     1
102
RTVSPost2010Prop36
280
     0
102
RTVSPost2010PropOp36
 70
     1
102
RTVSPost2010Prop37
 90
       50
102
RTVSPost2010PropOp37
 70
     1
102
RTVSPost2010Prop38
140
0.0
102
RTVSPost2010PropOp38
 70
     1
102
RTVSPost2010Prop39
140
1.0
102
RTVSPost2010PropOp39
 70
     1
102
RTVSPost2010Prop40
 90
        0
102
RTVSPost2010PropOp40
 70
     1
102
RTVSPost2010Prop41ColorIndex
 90
       18
102
RTVSPost2010Prop41ColorRGB
 90
        0
102
RTVSPost2010PropOp41
 70
     1
102
RTVSPost2010Prop42
 90
       50
102
RTVSPost2010PropOp42
 70
     1
102
RTVSPost2010Prop43
 90
        3
102
RTVSPost2010PropOp43
 70
     1
102
RTVSPost2010Prop44ColorIndex
 90
        5
102
RTVSPost2010Prop44ColorRGB
 90
      255
102
RTVSPost2010PropOp44
 70
     1
102
RTVSPost2010Prop45
280
     0
102
RTVSPost2010PropOp45
 70
     1
102
RTVSPost2010Prop46
 90
       50
102
RTVSPost2010PropOp46
 70
     1
102
RTVSPost2010Prop47
 90
       50
102
RTVSPost2010PropOp47
 70
     1
102
RTVSPost2010Prop48
 90
       50
102
RTVSPost2010PropOp48
 70
     1
102
RTVSPost2010Prop49
280
     0
102
RTVSPost2010PropOp49
 70
     1
102
RTVSPost2010Prop50
 90
       50
102
RTVSPost2010PropOp50
 70
     1
102
RTVSPost2010Prop51ColorIndex
 90
      256
102
RTVSPost2010Prop51ColorRGB
 90
-16777216
102
RTVSPost2010PropOp51
 70
     0
102
RTVSPost2010Prop52
140
1.0
102
RTVSPost2010PropOp52
 70
     0
102
RTVSPost2010Prop53
 90
        2
102
RTVSPost2010PropOp53
 70
     1
102
RTVSPost2010Prop54
  1
strokes_ogs.tif
102
RTVSPost2010PropOp54
 70
     1
102
RTVSPost2010Prop55
280
     0
102
RTVSPost2010PropOp55
 70
     1
102
RTVSPost2010Prop56
140
1.0
102
RTVSPost2010PropOp56
 70
     1
102
RTVSPost2010Prop57
140
1.0
102
RTVSPost2010PropOp57
 70
     1
102
RTVSPropertyOp0
 70
     1
102
RTVSPropertyOp1
 70
     1
102
RTVSPropertyOp2
 70
     1
102
RTVSPropertyOp3
 70
     1
102
RTVSPropertyOp4
 70
     1
102
RTVSPropertyOp5
 70
     1
102
RTVSPropertyOp6
 70
     1
102
RTVSPropertyOp7
 70
     1
102
RTVSPropertyOp8
 70
     1
102
RTVSPropertyOp9
 70
     1
102
RTVSPropertyOp10
 70
     1
102
RTVSPropertyOp11
 70
     1
102
RTVSPropertyOp12
 70
     1
102
RTVSPropertyOp13
 70
     1
102
RTVSPropertyOp14
 70
     1
102
RTVSPropertyOp15
 70
     1
102
RTVSPropertyOp16
 70
     1
102
RTVSPropertyOp17
 70
     1
102
RTVSPropertyOp18
 70
     1
102
RTVSPropertyOp19
 70
     1
102
RTVSPropertyOp20
 70
     1
102
RTVSPropertyOp21
 70
     1
102
RTVSPropertyOp22
 70
     1
102
RTVSPropertyOp23
 70
     1
102
RTVSPropertyOp24
 70
     1
102
RTVSPropertyOp25
 70
     1
102
RTVSPropertyOp26
 70
     1
102
RTVSPropertyOp27
 70
     1
102
RTVSPropertyOp28
 70
     1
102
RTVSPropertyOp29
 70
     1
102
RTVSPropertyOp30
 70
     1
102
RTVSPropertyOp31
 70
     1
102
RTVSPropertyOp32
 70
     1
102
RTVSPropertyOp33
 70
     1
102
RTVSPropertyOp34
 70
     1
102
RTVSPropertyOp35
 70
     1
102
RTVSPropertyOp36
 70
     1
102
RTVSPropertyOp37
 70
     1
102
RTVSPropertyOp38
 70
     1
102
RTVSPropertyOp39
 70
     1
102
RTVSPropertyOp40
 70
     1
102
RTVSPropertyOp41
 70
     1
102
RTVSPropertyOp42
 70
     1
102
RTVSPropertyOp43
 70
     1
102
RTVSPropertyOp44
 70
     1
102
RTVSPropertyOp45
 70
     1
102
RTVSPropertyOp46
 70
     1
102
RTVSPropertyOp47
 70
     1
102
RTVSPropertyOp48
 70
     1
102
RTVSPropertyOp49
 70
     1
102
RTVSPropertyOp50
 70
     1
102
RTVSPropertyOp51
 70
     0
102
RTVSPropertyOp52
 70
     0
102
RTVSPropertyOp53
 70
     1
102
RTVSPropertyOp54
 70
     1
102
RTVSPropertyOp55
 70
     1
102
RTVSPropertyOp56
 70
     1
102
RTVSPropertyOp57
 70
     1
102
RTVSPropertyOp58
 70
     1
102
RTVSPropertyOp59
 70
     1
102
RTVSPropertyOp60
 70
     1
102
RTVSPropertyOp61
 70
     1
102
RTVSPropertyOp62
 70
     1
  0
XRECORD
  5
28F
102
{ACAD_REACTORS
330
28E
102
}
330
28E
100
AcDbXrecord
280
     1
102
RTVSPost2010Prop28
280
     0
102
RTVSPost2010PropOp28
 70
     1
102
RTVSPost2010Prop29
280
     1
102
RTVSPost2010PropOp29
 70
     1
102
RTVSPost2010Prop30
280
     1
102
RTVSPost2010PropOp30
 70
     1
102
RTVSPost2010Prop31
280
     0
102
RTVSPost2010PropOp31
 70
     1
102
RTVSPost2010Prop32
280
     0
102
RTVSPost2010PropOp32
 70
     1
102
RTVSPost2010Prop33
280
     0
102
RTVSPost2010PropOp33
 70
     1
102
RTVSPost2010Prop34
280
     0
102
RTVSPost2010PropOp34
 70
     1
102
RTVSPost2010Prop35
280
     0
102
RTVSPost2010PropOp35
 70
     1
102
RTVSPost2010Prop36
280
     0
102
RTVSPost2010PropOp36
 70
     1
102
RTVSPost2010Prop37
 90
       50
102
RTVSPost2010PropOp37
 70
     1
102
RTVSPost2010Prop38
140
0.0
102
RTVSPost2010PropOp38
 70
     1
102
RTVSPost2010Prop39
140
1.0
102
RTVSPost2010PropOp39
 70
     1
102
RTVSPost2010Prop40
 90
        0
102
RTVSPost2010PropOp40
 70
     1
102
RTVSPost2010Prop41ColorIndex
 90
       18
102
RTVSPost2010Prop41ColorRGB
 90
        0
102
RTVSPost2010PropOp41
 70
     1
102
RTVSPost2010Prop42
 90
       50
102
RTVSPost2010PropOp42
 70
     1
102
RTVSPost2010Prop43
 90
        3
102
RTVSPost2010PropOp43
 70
     1
102
RTVSPost2010Prop44ColorIndex
 90
        5
102
RTVSPost2010Prop44ColorRGB
 90
      255
102
RTVSPost2010PropOp44
 70
     1
102
RTVSPost2010Prop45
280
     0
102
RTVSPost2010PropOp45
 70
     1
102
RTVSPost2010Prop46
 90
       50
102
RTVSPost2010PropOp46
 70
     1
102
RTVSPost2010Prop47
 90
       50
102
RTVSPost2010PropOp47
 70
     1
102
RTVSPost2010Prop48
 90
       50
102
RTVSPost2010PropOp48
 70
     1
102
RTVSPost2010Prop49
280
     0
102
RTVSPost2010PropOp49
 70
     1
102
RTVSPost2010Prop50
 90
       50
102
RTVSPost2010PropOp50
 70
     1
102
RTVSPost2010Prop51ColorIndex
 90
      256
102
RTVSPost2010Prop51ColorRGB
 90
-16777216
102
RTVSPost2010PropOp51
 70
     0
102
RTVSPost2010Prop52
140
1.0
102
RTVSPost2010PropOp52
 70
     0
102
RTVSPost2010Prop53
 90
        2
102
RTVSPost2010PropOp53
 70
     1
102
RTVSPost2010Prop54
  1
strokes_ogs.tif
102
RTVSPost2010PropOp54
 70
     1
102
RTVSPost2010Prop55
280
     0
102
RTVSPost2010PropOp55
 70
     1
102
RTVSPost2010Prop56
140
1.0
102
RTVSPost2010PropOp56
 70
     1
102
RTVSPost2010Prop57
140
1.0
102
RTVSPost2010PropOp57
 70
     1
102
RTVSPropertyOp0
 70
     1
102
RTVSPropertyOp1
 70
     1
102
RTVSPropertyOp2
 70
     1
102
RTVSPropertyOp3
 70
     1
102
RTVSPropertyOp4
 70
     1
102
RTVSPropertyOp5
 70
     1
102
RTVSPropertyOp6
 70
     1
102
RTVSPropertyOp7
 70
     1
102
RTVSPropertyOp8
 70
     1
102
RTVSPropertyOp9
 70
     1
102
RTVSPropertyOp10
 70
     1
102
RTVSPropertyOp11
 70
     1
102
RTVSPropertyOp12
 70
     1
102
RTVSPropertyOp13
 70
     1
102
RTVSPropertyOp14
 70
     1
102
RTVSPropertyOp15
 70
     1
102
RTVSPropertyOp16
 70
     1
102
RTVSPropertyOp17
 70
     1
102
RTVSPropertyOp18
 70
     1
102
RTVSPropertyOp19
 70
     1
102
RTVSPropertyOp20
 70
     1
102
RTVSPropertyOp21
 70
     1
102
RTVSPropertyOp22
 70
     1
102
RTVSPropertyOp23
 70
     1
102
RTVSPropertyOp24
 70
     1
102
RTVSPropertyOp25
 70
     1
102
RTVSPropertyOp26
 70
     1
102
RTVSPropertyOp27
 70
     1
102
RTVSPropertyOp28
 70
     1
102
RTVSPropertyOp29
 70
     1
102
RTVSPropertyOp30
 70
     1
102
RTVSPropertyOp31
 70
     1
102
RTVSPropertyOp32
 70
     1
102
RTVSPropertyOp33
 70
     1
102
RTVSPropertyOp34
 70
     1
102
RTVSPropertyOp35
 70
     1
102
RTVSPropertyOp36
 70
     1
102
RTVSPropertyOp37
 70
     1
102
RTVSPropertyOp38
 70
     1
102
RTVSPropertyOp39
 70
     1
102
RTVSPropertyOp40
 70
     1
102
RTVSPropertyOp41
 70
     1
102
RTVSPropertyOp42
 70
     1
102
RTVSPropertyOp43
 70
     1
102
RTVSPropertyOp44
 70
     1
102
RTVSPropertyOp45
 70
     1
102
RTVSPropertyOp46
 70
     1
102
RTVSPropertyOp47
 70
     1
102
RTVSPropertyOp48
 70
     1
102
RTVSPropertyOp49
 70
     1
102
RTVSPropertyOp50
 70
     1
102
RTVSPropertyOp51
 70
     0
102
RTVSPropertyOp52
 70
     0
102
RTVSPropertyOp53
 70
     1
102
RTVSPropertyOp54
 70
     1
102
RTVSPropertyOp55
 70
     1
102
RTVSPropertyOp56
 70
     1
102
RTVSPropertyOp57
 70
     1
102
RTVSPropertyOp58
 70
     1
102
RTVSPropertyOp59
 70
     1
102
RTVSPropertyOp60
 70
     1
102
RTVSPropertyOp61
 70
     1
102
RTVSPropertyOp62
 70
     1
  0
XRECORD
  5
27F
102
{ACAD_REACTORS
330
27E
102
}
330
27E
100
AcDbXrecord
280
     1
102
RTVSPost2010Prop28
280
     0
102
RTVSPost2010PropOp28
 70
     1
102
RTVSPost2010Prop29
280
     1
102
RTVSPost2010PropOp29
 70
     1
102
RTVSPost2010Prop30
280
     1
102
RTVSPost2010PropOp30
 70
     1
102
RTVSPost2010Prop31
280
     0
102
RTVSPost2010PropOp31
 70
     1
102
RTVSPost2010Prop32
280
     0
102
RTVSPost2010PropOp32
 70
     1
102
RTVSPost2010Prop33
280
     0
102
RTVSPost2010PropOp33
 70
     1
102
RTVSPost2010Prop34
280
     0
102
RTVSPost2010PropOp34
 70
     1
102
RTVSPost2010Prop35
280
     0
102
RTVSPost2010PropOp35
 70
     1
102
RTVSPost2010Prop36
280
     0
102
RTVSPost2010PropOp36
 70
     1
102
RTVSPost2010Prop37
 90
       50
102
RTVSPost2010PropOp37
 70
     1
102
RTVSPost2010Prop38
140
0.0
102
RTVSPost2010PropOp38
 70
     1
102
RTVSPost2010Prop39
140
1.0
102
RTVSPost2010PropOp39
 70
     1
102
RTVSPost2010Prop40
 90
        0
102
RTVSPost2010PropOp40
 70
     1
102
RTVSPost2010Prop41ColorIndex
 90
       18
102
RTVSPost2010Prop41ColorRGB
 90
        0
102
RTVSPost2010PropOp41
 70
     1
102
RTVSPost2010Prop42
 90
       50
102
RTVSPost2010PropOp42
 70
     1
102
RTVSPost2010Prop43
 90
        3
102
RTVSPost2010PropOp43
 70
     1
102
RTVSPost2010Prop44ColorIndex
 90
        5
102
RTVSPost2010Prop44ColorRGB
 90
      255
102
RTVSPost2010PropOp44
 70
     1
102
RTVSPost2010Prop45
280
     0
102
RTVSPost2010PropOp45
 70
     1
102
RTVSPost2010Prop46
 90
       50
102
RTVSPost2010PropOp46
 70
     1
102
RTVSPost2010Prop47
 90
       50
102
RTVSPost2010PropOp47
 70
     1
102
RTVSPost2010Prop48
 90
       50
102
RTVSPost2010PropOp48
 70
     1
102
RTVSPost2010Prop49
280
     0
102
RTVSPost2010PropOp49
 70
     1
102
RTVSPost2010Prop50
 90
       50
102
RTVSPost2010PropOp50
 70
     1
102
RTVSPost2010Prop51ColorIndex
 90
      256
102
RTVSPost2010Prop51ColorRGB
 90
-16777216
102
RTVSPost2010PropOp51
 70
     0
102
RTVSPost2010Prop52
140
1.0
102
RTVSPost2010PropOp52
 70
     0
102
RTVSPost2010Prop53
 90
        2
102
RTVSPost2010PropOp53
 70
     1
102
RTVSPost2010Prop54
  1
strokes_ogs.tif
102
RTVSPost2010PropOp54
 70
     1
102
RTVSPost2010Prop55
280
     0
102
RTVSPost2010PropOp55
 70
     1
102
RTVSPost2010Prop56
140
1.0
102
RTVSPost2010PropOp56
 70
     1
102
RTVSPost2010Prop57
140
1.0
102
RTVSPost2010PropOp57
 70
     1
102
RTVSPropertyOp0
 70
     1
102
RTVSPropertyOp1
 70
     1
102
RTVSPropertyOp2
 70
     1
102
RTVSPropertyOp3
 70
     1
102
RTVSPropertyOp4
 70
     1
102
RTVSPropertyOp5
 70
     1
102
RTVSPropertyOp6
 70
     1
102
RTVSPropertyOp7
 70
     1
102
RTVSPropertyOp8
 70
     1
102
RTVSPropertyOp9
 70
     1
102
RTVSPropertyOp10
 70
     1
102
RTVSPropertyOp11
 70
     1
102
RTVSPropertyOp12
 70
     1
102
RTVSPropertyOp13
 70
     1
102
RTVSPropertyOp14
 70
     1
102
RTVSPropertyOp15
 70
     1
102
RTVSPropertyOp16
 70
     1
102
RTVSPropertyOp17
 70
     1
102
RTVSPropertyOp18
 70
     1
102
RTVSPropertyOp19
 70
     1
102
RTVSPropertyOp20
 70
     1
102
RTVSPropertyOp21
 70
     1
102
RTVSPropertyOp22
 70
     1
102
RTVSPropertyOp23
 70
     1
102
RTVSPropertyOp24
 70
     1
102
RTVSPropertyOp25
 70
     1
102
RTVSPropertyOp26
 70
     1
102
RTVSPropertyOp27
 70
     1
102
RTVSPropertyOp28
 70
     1
102
RTVSPropertyOp29
 70
     1
102
RTVSPropertyOp30
 70
     1
102
RTVSPropertyOp31
 70
     1
102
RTVSPropertyOp32
 70
     1
102
RTVSPropertyOp33
 70
     1
102
RTVSPropertyOp34
 70
     1
102
RTVSPropertyOp35
 70
     1
102
RTVSPropertyOp36
 70
     1
102
RTVSPropertyOp37
 70
     1
102
RTVSPropertyOp38
 70
     1
102
RTVSPropertyOp39
 70
     1
102
RTVSPropertyOp40
 70
     1
102
RTVSPropertyOp41
 70
     1
102
RTVSPropertyOp42
 70
     1
102
RTVSPropertyOp43
 70
     1
102
RTVSPropertyOp44
 70
     1
102
RTVSPropertyOp45
 70
     1
102
RTVSPropertyOp46
 70
     1
102
RTVSPropertyOp47
 70
     1
102
RTVSPropertyOp48
 70
     1
102
RTVSPropertyOp49
 70
     1
102
RTVSPropertyOp50
 70
     1
102
RTVSPropertyOp51
 70
     0
102
RTVSPropertyOp52
 70
     0
102
RTVSPropertyOp53
 70
     1
102
RTVSPropertyOp54
 70
     1
102
RTVSPropertyOp55
 70
     1
102
RTVSPropertyOp56
 70
     1
102
RTVSPropertyOp57
 70
     1
102
RTVSPropertyOp58
 70
     1
102
RTVSPropertyOp59
 70
     1
102
RTVSPropertyOp60
 70
     1
102
RTVSPropertyOp61
 70
     1
102
RTVSPropertyOp62
 70
     1
  0
XRECORD
  5
273
102
{ACAD_REACTORS
330
272
102
}
330
272
100
AcDbXrecord
280
     1
102
RTVSPost2010Prop28
280
     0
102
RTVSPost2010PropOp28
 70
     1
102
RTVSPost2010Prop29
280
     1
102
RTVSPost2010PropOp29
 70
     1
102
RTVSPost2010Prop30
280
     1
102
RTVSPost2010PropOp30
 70
     1
102
RTVSPost2010Prop31
280
     0
102
RTVSPost2010PropOp31
 70
     1
102
RTVSPost2010Prop32
280
     0
102
RTVSPost2010PropOp32
 70
     1
102
RTVSPost2010Prop33
280
     0
102
RTVSPost2010PropOp33
 70
     1
102
RTVSPost2010Prop34
280
     0
102
RTVSPost2010PropOp34
 70
     1
102
RTVSPost2010Prop35
280
     0
102
RTVSPost2010PropOp35
 70
     1
102
RTVSPost2010Prop36
280
     0
102
RTVSPost2010PropOp36
 70
     1
102
RTVSPost2010Prop37
 90
       50
102
RTVSPost2010PropOp37
 70
     1
102
RTVSPost2010Prop38
140
0.0
102
RTVSPost2010PropOp38
 70
     1
102
RTVSPost2010Prop39
140
1.0
102
RTVSPost2010PropOp39
 70
     1
102
RTVSPost2010Prop40
 90
        0
102
RTVSPost2010PropOp40
 70
     1
102
RTVSPost2010Prop41ColorIndex
 90
       18
102
RTVSPost2010Prop41ColorRGB
 90
        0
102
RTVSPost2010PropOp41
 70
     1
102
RTVSPost2010Prop42
 90
       50
102
RTVSPost2010PropOp42
 70
     1
102
RTVSPost2010Prop43
 90
        3
102
RTVSPost2010PropOp43
 70
     1
102
RTVSPost2010Prop44ColorIndex
 90
        5
102
RTVSPost2010Prop44ColorRGB
 90
      255
102
RTVSPost2010PropOp44
 70
     1
102
RTVSPost2010Prop45
280
     0
102
RTVSPost2010PropOp45
 70
     1
102
RTVSPost2010Prop46
 90
       50
102
RTVSPost2010PropOp46
 70
     1
102
RTVSPost2010Prop47
 90
       50
102
RTVSPost2010PropOp47
 70
     1
102
RTVSPost2010Prop48
 90
       50
102
RTVSPost2010PropOp48
 70
     1
102
RTVSPost2010Prop49
280
     0
102
RTVSPost2010PropOp49
 70
     1
102
RTVSPost2010Prop50
 90
       50
102
RTVSPost2010PropOp50
 70
     1
102
RTVSPost2010Prop51ColorIndex
 90
      256
102
RTVSPost2010Prop51ColorRGB
 90
-16777216
102
RTVSPost2010PropOp51
 70
     0
102
RTVSPost2010Prop52
140
1.0
102
RTVSPost2010PropOp52
 70
     0
102
RTVSPost2010Prop53
 90
        2
102
RTVSPost2010PropOp53
 70
     1
102
RTVSPost2010Prop54
  1
strokes_ogs.tif
102
RTVSPost2010PropOp54
 70
     1
102
RTVSPost2010Prop55
280
     0
102
RTVSPost2010PropOp55
 70
     1
102
RTVSPost2010Prop56
140
1.0
102
RTVSPost2010PropOp56
 70
     1
102
RTVSPost2010Prop57
140
1.0
102
RTVSPost2010PropOp57
 70
     1
102
RTVSPropertyOp0
 70
     1
102
RTVSPropertyOp1
 70
     1
102
RTVSPropertyOp2
 70
     1
102
RTVSPropertyOp3
 70
     1
102
RTVSPropertyOp4
 70
     1
102
RTVSPropertyOp5
 70
     1
102
RTVSPropertyOp6
 70
     1
102
RTVSPropertyOp7
 70
     1
102
RTVSPropertyOp8
 70
     1
102
RTVSPropertyOp9
 70
     1
102
RTVSPropertyOp10
 70
     1
102
RTVSPropertyOp11
 70
     1
102
RTVSPropertyOp12
 70
     1
102
RTVSPropertyOp13
 70
     1
102
RTVSPropertyOp14
 70
     1
102
RTVSPropertyOp15
 70
     1
102
RTVSPropertyOp16
 70
     1
102
RTVSPropertyOp17
 70
     1
102
RTVSPropertyOp18
 70
     1
102
RTVSPropertyOp19
 70
     1
102
RTVSPropertyOp20
 70
     1
102
RTVSPropertyOp21
 70
     1
102
RTVSPropertyOp22
 70
     1
102
RTVSPropertyOp23
 70
     1
102
RTVSPropertyOp24
 70
     1
102
RTVSPropertyOp25
 70
     1
102
RTVSPropertyOp26
 70
     1
102
RTVSPropertyOp27
 70
     1
102
RTVSPropertyOp28
 70
     1
102
RTVSPropertyOp29
 70
     1
102
RTVSPropertyOp30
 70
     1
102
RTVSPropertyOp31
 70
     1
102
RTVSPropertyOp32
 70
     1
102
RTVSPropertyOp33
 70
     1
102
RTVSPropertyOp34
 70
     1
102
RTVSPropertyOp35
 70
     1
102
RTVSPropertyOp36
 70
     1
102
RTVSPropertyOp37
 70
     1
102
RTVSPropertyOp38
 70
     1
102
RTVSPropertyOp39
 70
     1
102
RTVSPropertyOp40
 70
     1
102
RTVSPropertyOp41
 70
     1
102
RTVSPropertyOp42
 70
     1
102
RTVSPropertyOp43
 70
     1
102
RTVSPropertyOp44
 70
     1
102
RTVSPropertyOp45
 70
     1
102
RTVSPropertyOp46
 70
     1
102
RTVSPropertyOp47
 70
     1
102
RTVSPropertyOp48
 70
     1
102
RTVSPropertyOp49
 70
     1
102
RTVSPropertyOp50
 70
     1
102
RTVSPropertyOp51
 70
     0
102
RTVSPropertyOp52
 70
     0
102
RTVSPropertyOp53
 70
     1
102
RTVSPropertyOp54
 70
     1
102
RTVSPropertyOp55
 70
     1
102
RTVSPropertyOp56
 70
     1
102
RTVSPropertyOp57
 70
     1
102
RTVSPropertyOp58
 70
     1
102
RTVSPropertyOp59
 70
     1
102
RTVSPropertyOp60
 70
     1
102
RTVSPropertyOp61
 70
     1
102
RTVSPropertyOp62
 70
     1
  0
XRECORD
  5
291
102
{ACAD_REACTORS
330
290
102
}
330
290
100
AcDbXrecord
280
     1
102
RTVSPost2010Prop28
280
     0
102
RTVSPost2010PropOp28
 70
     1
102
RTVSPost2010Prop29
280
     1
102
RTVSPost2010PropOp29
 70
     1
102
RTVSPost2010Prop30
280
     1
102
RTVSPost2010PropOp30
 70
     1
102
RTVSPost2010Prop31
280
     0
102
RTVSPost2010PropOp31
 70
     1
102
RTVSPost2010Prop32
280
     0
102
RTVSPost2010PropOp32
 70
     1
102
RTVSPost2010Prop33
280
     0
102
RTVSPost2010PropOp33
 70
     1
102
RTVSPost2010Prop34
280
     0
102
RTVSPost2010PropOp34
 70
     1
102
RTVSPost2010Prop35
280
     0
102
RTVSPost2010PropOp35
 70
     1
102
RTVSPost2010Prop36
280
     0
102
RTVSPost2010PropOp36
 70
     1
102
RTVSPost2010Prop37
 90
       50
102
RTVSPost2010PropOp37
 70
     1
102
RTVSPost2010Prop38
140
0.0
102
RTVSPost2010PropOp38
 70
     1
102
RTVSPost2010Prop39
140
1.0
102
RTVSPost2010PropOp39
 70
     1
102
RTVSPost2010Prop40
 90
        0
102
RTVSPost2010PropOp40
 70
     1
102
RTVSPost2010Prop41ColorIndex
 90
       18
102
RTVSPost2010Prop41ColorRGB
 90
        0
102
RTVSPost2010PropOp41
 70
     1
102
RTVSPost2010Prop42
 90
       50
102
RTVSPost2010PropOp42
 70
     1
102
RTVSPost2010Prop43
 90
        3
102
RTVSPost2010PropOp43
 70
     1
102
RTVSPost2010Prop44ColorIndex
 90
        5
102
RTVSPost2010Prop44ColorRGB
 90
      255
102
RTVSPost2010PropOp44
 70
     1
102
RTVSPost2010Prop45
280
     0
102
RTVSPost2010PropOp45
 70
     1
102
RTVSPost2010Prop46
 90
       50
102
RTVSPost2010PropOp46
 70
     1
102
RTVSPost2010Prop47
 90
       50
102
RTVSPost2010PropOp47
 70
     1
102
RTVSPost2010Prop48
 90
       50
102
RTVSPost2010PropOp48
 70
     1
102
RTVSPost2010Prop49
280
     0
102
RTVSPost2010PropOp49
 70
     1
102
RTVSPost2010Prop50
 90
       50
102
RTVSPost2010PropOp50
 70
     1
102
RTVSPost2010Prop51ColorIndex
 90
      256
102
RTVSPost2010Prop51ColorRGB
 90
-16777216
102
RTVSPost2010PropOp51
 70
     0
102
RTVSPost2010Prop52
140
1.0
102
RTVSPost2010PropOp52
 70
     0
102
RTVSPost2010Prop53
 90
        2
102
RTVSPost2010PropOp53
 70
     1
102
RTVSPost2010Prop54
  1
strokes_ogs.tif
102
RTVSPost2010PropOp54
 70
     1
102
RTVSPost2010Prop55
280
     0
102
RTVSPost2010PropOp55
 70
     1
102
RTVSPost2010Prop56
140
1.0
102
RTVSPost2010PropOp56
 70
     1
102
RTVSPost2010Prop57
140
1.0
102
RTVSPost2010PropOp57
 70
     1
102
RTVSPropertyOp0
 70
     1
102
RTVSPropertyOp1
 70
     1
102
RTVSPropertyOp2
 70
     1
102
RTVSPropertyOp3
 70
     1
102
RTVSPropertyOp4
 70
     1
102
RTVSPropertyOp5
 70
     1
102
RTVSPropertyOp6
 70
     1
102
RTVSPropertyOp7
 70
     1
102
RTVSPropertyOp8
 70
     1
102
RTVSPropertyOp9
 70
     1
102
RTVSPropertyOp10
 70
     1
102
RTVSPropertyOp11
 70
     1
102
RTVSPropertyOp12
 70
     1
102
RTVSPropertyOp13
 70
     1
102
RTVSPropertyOp14
 70
     1
102
RTVSPropertyOp15
 70
     1
102
RTVSPropertyOp16
 70
     1
102
RTVSPropertyOp17
 70
     1
102
RTVSPropertyOp18
 70
     1
102
RTVSPropertyOp19
 70
     1
102
RTVSPropertyOp20
 70
     1
102
RTVSPropertyOp21
 70
     1
102
RTVSPropertyOp22
 70
     1
102
RTVSPropertyOp23
 70
     1
102
RTVSPropertyOp24
 70
     1
102
RTVSPropertyOp25
 70
     1
102
RTVSPropertyOp26
 70
     1
102
RTVSPropertyOp27
 70
     1
102
RTVSPropertyOp28
 70
     1
102
RTVSPropertyOp29
 70
     1
102
RTVSPropertyOp30
 70
     1
102
RTVSPropertyOp31
 70
     1
102
RTVSPropertyOp32
 70
     1
102
RTVSPropertyOp33
 70
     1
102
RTVSPropertyOp34
 70
     1
102
RTVSPropertyOp35
 70
     1
102
RTVSPropertyOp36
 70
     1
102
RTVSPropertyOp37
 70
     1
102
RTVSPropertyOp38
 70
     1
102
RTVSPropertyOp39
 70
     1
102
RTVSPropertyOp40
 70
     1
102
RTVSPropertyOp41
 70
     1
102
RTVSPropertyOp42
 70
     1
102
RTVSPropertyOp43
 70
     1
102
RTVSPropertyOp44
 70
     1
102
RTVSPropertyOp45
 70
     1
102
RTVSPropertyOp46
 70
     1
102
RTVSPropertyOp47
 70
     1
102
RTVSPropertyOp48
 70
     1
102
RTVSPropertyOp49
 70
     1
102
RTVSPropertyOp50
 70
     1
102
RTVSPropertyOp51
 70
     0
102
RTVSPropertyOp52
 70
     0
102
RTVSPropertyOp53
 70
     1
102
RTVSPropertyOp54
 70
     1
102
RTVSPropertyOp55
 70
     1
102
RTVSPropertyOp56
 70
     1
102
RTVSPropertyOp57
 70
     1
102
RTVSPropertyOp58
 70
     1
102
RTVSPropertyOp59
 70
     1
102
RTVSPropertyOp60
 70
     1
102
RTVSPropertyOp61
 70
     1
102
RTVSPropertyOp62
 70
     1
  0
ENDSEC
  0
EOF
