  0
SECTION
  2
HEADER
  9
$ACADVER
  1
AC1021
  9
$ACADMAINTVER
 70
    50
  9
$DWGCODEPAGE
  3
ANSI_1252
  9
$LASTSAVEDBY
  1
Autodesk
  9
$INSBASE
 10
0.0
 20
0.0
 30
0.0
  9
$EXTMIN
 10
1.000000000000000E+20
 20
1.000000000000000E+20
 30
1.000000000000000E+20
  9
$EXTMAX
 10
-1.000000000000000E+20
 20
-1.000000000000000E+20
 30
-1.000000000000000E+20
  9
$LIMMIN
 10
0.0
 20
0.0
  9
$LIMMAX
 10
420.0
 20
297.0
  9
$ORTHOMODE
 70
     0
  9
$REGENMODE
 70
     1
  9
$FILLMODE
 70
     1
  9
$QTEXTMODE
 70
     0
  9
$MIRRTEXT
 70
     0
  9
$LTSCALE
 40
1.0
  9
$ATTMODE
 70
     1
  9
$TEXTSIZE
 40
2.5
  9
$TRACEWID
 40
1.0
  9
$TEXTSTYLE
  7
Standard
  9
$CLAYER
  8
0
  9
$CELTYPE
  6
ByLayer
  9
$CECOLOR
 62
   256
  9
$CELTSCALE
 40
1.0
  9
$DISPSILH
 70
     0
  9
$DIMSCALE
 40
1.0
  9
$DIMASZ
 40
2.5
  9
$DIMEXO
 40
0.625
  9
$DIMDLI
 40
3.75
  9
$DIMRND
 40
0.0
  9
$DIMDLE
 40
0.0
  9
$DIMEXE
 40
1.25
  9
$DIMTP
 40
0.0
  9
$DIMTM
 40
0.0
  9
$DIMTXT
 40
2.5
  9
$DIMCEN
 40
2.5
  9
$DIMTSZ
 40
0.0
  9
$DIMTOL
 70
     0
  9
$DIMLIM
 70
     0
  9
$DIMTIH
 70
     0
  9
$DIMTOH
 70
     0
  9
$DIMSE1
 70
     0
  9
$DIMSE2
 70
     0
  9
$DIMTAD
 70
     1
  9
$DIMZIN
 70
     8
  9
$DIMBLK
  1

  9
$DIMASO
 70
     1
  9
$DIMSHO
 70
     1
  9
$DIMPOST
  1

  9
$DIMAPOST
  1

  9
$DIMALT
 70
     0
  9
$DIMALTD
 70
     3
  9
$DIMALTF
 40
0.03937007874016
  9
$DIMLFAC
 40
1.0
  9
$DIMTOFL
 70
     1
  9
$DIMTVP
 40
0.0
  9
$DIMTIX
 70
     0
  9
$DIMSOXD
 70
     0
  9
$DIMSAH
 70
     0
  9
$DIMBLK1
  1

  9
$DIMBLK2
  1

  9
$DIMSTYLE
  2
ISO-25
  9
$DIMCLRD
 70
     0
  9
$DIMCLRE
 70
     0
  9
$DIMCLRT
 70
     0
  9
$DIMTFAC
 40
1.0
  9
$DIMGAP
 40
0.625
  9
$DIMJUST
 70
     0
  9
$DIMSD1
 70
     0
  9
$DIMSD2
 70
     0
  9
$DIMTOLJ
 70
     0
  9
$DIMTZIN
 70
     8
  9
$DIMALTZ
 70
     0
  9
$DIMALTTZ
 70
     0
  9
$DIMUPT
 70
     0
  9
$DIMDEC
 70
     2
  9
$DIMTDEC
 70
     2
  9
$DIMALTU
 70
     2
  9
$DIMALTTD
 70
     3
  9
$DIMTXSTY
  7
Standard
  9
$DIMAUNIT
 70
     0
  9
$DIMADEC
 70
     0
  9
$DIMALTRND
 40
0.0
  9
$DIMAZIN
 70
     0
  9
$DIMDSEP
 70
    44
  9
$DIMATFIT
 70
     3
  9
$DIMFRAC
 70
     0
  9
$DIMLDRBLK
  1

  9
$DIMLUNIT
 70
     2
  9
$DIMLWD
 70
    -2
  9
$DIMLWE
 70
    -2
  9
$DIMTMOVE
 70
     0
  9
$DIMFXL
 40
1.0
  9
$DIMFXLON
 70
     0
  9
$DIMJOGANG
 40
0.7853981633974483
  9
$DIMTFILL
 70
     0
  9
$DIMTFILLCLR
 70
     0
  9
$DIMARCSYM
 70
     0
  9
$DIMLTYPE
  6

  9
$DIMLTEX1
  6

  9
$DIMLTEX2
  6

  9
$LUNITS
 70
     2
  9
$LUPREC
 70
     4
  9
$SKETCHINC
 40
1.0
  9
$FILLETRAD
 40
0.0
  9
$AUNITS
 70
     0
  9
$AUPREC
 70
     0
  9
$MENU
  1
.
  9
$ELEVATION
 40
0.0
  9
$PELEVATION
 40
0.0
  9
$THICKNESS
 40
0.0
  9
$LIMCHECK
 70
     0
  9
$CHAMFERA
 40
0.0
  9
$CHAMFERB
 40
0.0
  9
$CHAMFERC
 40
0.0
  9
$CHAMFERD
 40
0.0
  9
$SKPOLY
 70
     0
  9
$TDCREATE
 40
2456309.149747176
  9
$TDUCREATE
 40
2456309.483080509
  9
$TDUPDATE
 40
2456667.078514884
  9
$TDUUPDATE
 40
2456667.411848218
  9
$TDINDWG
 40
0.0000189699
  9
$TDUSRTIMER
 40
0.0000187847
  9
$USRTIMER
 70
     1
  9
$ANGBASE
 50
0.0
  9
$ANGDIR
 70
     0
  9
$PDMODE
 70
     0
  9
$PDSIZE
 40
0.0
  9
$PLINEWID
 40
0.0
  9
$SPLFRAME
 70
     0
  9
$SPLINETYPE
 70
     6
  9
$SPLINESEGS
 70
     8
  9
$HANDSEED
  5
467
  9
$SURFTAB1
 70
     6
  9
$SURFTAB2
 70
     6
  9
$SURFTYPE
 70
     6
  9
$SURFU
 70
     6
  9
$SURFV
 70
     6
  9
$UCSBASE
  2

  9
$UCSNAME
  2

  9
$UCSORG
 10
0.0
 20
0.0
 30
0.0
  9
$UCSXDIR
 10
1.0
 20
0.0
 30
0.0
  9
$UCSYDIR
 10
0.0
 20
1.0
 30
0.0
  9
$UCSORTHOREF
  2

  9
$UCSORTHOVIEW
 70
     0
  9
$UCSORGTOP
 10
0.0
 20
0.0
 30
0.0
  9
$UCSORGBOTTOM
 10
0.0
 20
0.0
 30
0.0
  9
$UCSORGLEFT
 10
0.0
 20
0.0
 30
0.0
  9
$UCSORGRIGHT
 10
0.0
 20
0.0
 30
0.0
  9
$UCSORGFRONT
 10
0.0
 20
0.0
 30
0.0
  9
$UCSORGBACK
 10
0.0
 20
0.0
 30
0.0
  9
$PUCSBASE
  2

  9
$PUCSNAME
  2

  9
$PUCSORG
 10
0.0
 20
0.0
 30
0.0
  9
$PUCSXDIR
 10
1.0
 20
0.0
 30
0.0
  9
$PUCSYDIR
 10
0.0
 20
1.0
 30
0.0
  9
$PUCSORTHOREF
  2

  9
$PUCSORTHOVIEW
 70
     0
  9
$PUCSORGTOP
 10
0.0
 20
0.0
 30
0.0
  9
$PUCSORGBOTTOM
 10
0.0
 20
0.0
 30
0.0
  9
$PUCSORGLEFT
 10
0.0
 20
0.0
 30
0.0
  9
$PUCSORGRIGHT
 10
0.0
 20
0.0
 30
0.0
  9
$PUCSORGFRONT
 10
0.0
 20
0.0
 30
0.0
  9
$PUCSORGBACK
 10
0.0
 20
0.0
 30
0.0
  9
$USERI1
 70
     0
  9
$USERI2
 70
     0
  9
$USERI3
 70
     0
  9
$USERI4
 70
     0
  9
$USERI5
 70
     0
  9
$USERR1
 40
0.0
  9
$USERR2
 40
0.0
  9
$USERR3
 40
0.0
  9
$USERR4
 40
0.0
  9
$USERR5
 40
0.0
  9
$WORLDVIEW
 70
     1
  9
$SHADEDGE
 70
     3
  9
$SHADEDIF
 70
    70
  9
$TILEMODE
 70
     1
  9
$MAXACTVP
 70
    64
  9
$PINSBASE
 10
0.0
 20
0.0
 30
0.0
  9
$PLIMCHECK
 70
     0
  9
$PEXTMIN
 10
0.0
 20
0.0
 30
0.0
  9
$PEXTMAX
 10
0.0
 20
0.0
 30
0.0
  9
$PLIMMIN
 10
0.0
 20
0.0
  9
$PLIMMAX
 10
12.0
 20
9.0
  9
$UNITMODE
 70
     0
  9
$VISRETAIN
 70
     1
  9
$PLINEGEN
 70
     0
  9
$PSLTSCALE
 70
     1
  9
$TREEDEPTH
 70
  3020
  9
$CMLSTYLE
  2
Standard
  9
$CMLJUST
 70
     0
  9
$CMLSCALE
 40
20.0
  9
$PROXYGRAPHICS
 70
     1
  9
$MEASUREMENT
 70
     1
  9
$CELWEIGHT
370
    -1
  9
$ENDCAPS
280
     0
  9
$JOINSTYLE
280
     0
  9
$LWDISPLAY
290
     0
  9
$INSUNITS
 70
     4
  9
$HYPERLINKBASE
  1

  9
$STYLESHEET
  1

  9
$XEDIT
290
     1
  9
$CEPSNTYPE
380
     0
  9
$PSTYLEMODE
290
     1
  9
$FINGERPRINTGUID
  2
{D36A17C0-B4E2-4527-8874-81943F1C34AC}
  9
$VERSIONGUID
  2
{265A5473-D45D-4B1C-ABB7-7FF2E3BD06BB}
  9
$EXTNAMES
290
     1
  9
$PSVPSCALE
 40
0.0
  9
$OLESTARTUP
290
     0
  9
$SORTENTS
280
   127
  9
$INDEXCTL
280
     0
  9
$HIDETEXT
280
     1
  9
$XCLIPFRAME
290
     0
  9
$HALOGAP
280
     0
  9
$OBSCOLOR
 70
   257
  9
$OBSLTYPE
280
     0
  9
$INTERSECTIONDISPLAY
280
     0
  9
$INTERSECTIONCOLOR
 70
   257
  9
$DIMASSOC
280
     2
  9
$PROJECTNAME
  1

  9
$CAMERADISPLAY
290
     0
  9
$LENSLENGTH
 40
50.0
  9
$CAMERAHEIGHT
 40
0.0
  9
$STEPSPERSEC
 40
2.0
  9
$STEPSIZE
 40
6.0
  9
$3DDWFPREC
 40
2.0
  9
$PSOLWIDTH
 40
5.0
  9
$PSOLHEIGHT
 40
80.0
  9
$LOFTANG1
 40
1.570796326794896
  9
$LOFTANG2
 40
1.570796326794896
  9
$LOFTMAG1
 40
0.0
  9
$LOFTMAG2
 40
0.0
  9
$LOFTPARAM
 70
     7
  9
$LOFTNORMALS
280
     1
  9
$LATITUDE
 40
37.795
  9
$LONGITUDE
 40
-122.394
  9
$NORTHDIRECTION
 40
0.0
  9
$TIMEZONE
 70
 -8000
  9
$LIGHTGLYPHDISPLAY
280
     1
  9
$TILEMODELIGHTSYNCH
280
     1
  9
$CMATERIAL
347
EC
  9
$SOLIDHIST
280
     0
  9
$SHOWHIST
280
     1
  9
$DWFFRAME
280
     2
  9
$DGNFRAME
280
     0
  9
$REALWORLDSCALE
290
     1
  9
$INTERFERECOLOR
 62
     1
  9
$INTERFEREOBJVS
345
F9
  9
$INTERFEREVPVS
346
F6
  9
$CSHADOW
280
     0
  9
$SHADOWPLANELOCATION
 40
0.0
  0
ENDSEC
  0
SECTION
  2
CLASSES
  0
CLASS
  1
ACDBDICTIONARYWDFLT
  2
AcDbDictionaryWithDefault
  3
ObjectDBX Classes
 90
        0
 91
        1
280
     0
281
     0
  0
CLASS
  1
ACDBPLACEHOLDER
  2
AcDbPlaceHolder
  3
ObjectDBX Classes
 90
        0
 91
        1
280
     0
281
     0
  0
CLASS
  1
LAYOUT
  2
AcDbLayout
  3
ObjectDBX Classes
 90
        0
 91
        3
280
     0
281
     0
  0
CLASS
  1
DICTIONARYVAR
  2
AcDbDictionaryVar
  3
ObjectDBX Classes
 90
        0
 91
       10
280
     0
281
     0
  0
CLASS
  1
TABLESTYLE
  2
AcDbTableStyle
  3
ObjectDBX Classes
 90
     4095
 91
        1
280
     0
281
     0
  0
CLASS
  1
MATERIAL
  2
AcDbMaterial
  3
ObjectDBX Classes
 90
     1153
 91
        3
280
     0
281
     0
  0
CLASS
  1
VISUALSTYLE
  2
AcDbVisualStyle
  3
ObjectDBX Classes
 90
     4095
 91
       24
280
     0
281
     0
  0
CLASS
  1
SCALE
  2
AcDbScale
  3
ObjectDBX Classes
 90
     1153
 91
       17
280
     0
281
     0
  0
CLASS
  1
MLEADERSTYLE
  2
AcDbMLeaderStyle
  3
ACDB_MLEADERSTYLE_CLASS
 90
     4095
 91
        2
280
     0
281
     0
  0
CLASS
  1
CELLSTYLEMAP
  2
AcDbCellStyleMap
  3
ObjectDBX Classes
 90
     1152
 91
        1
280
     0
281
     0
  0
CLASS
  1
EXACXREFPANELOBJECT
  2
ExAcXREFPanelObject
  3
EXAC_ESW
 90
     1025
 91
        0
280
     0
281
     0
  0
CLASS
  1
NPOCOLLECTION
  2
AcDbImpNonPersistentObjectsCollection
  3
ObjectDBX Classes
 90
     1153
 91
        0
280
     0
281
     0
  0
CLASS
  1
LAYER_INDEX
  2
AcDbLayerIndex
  3
ObjectDBX Classes
 90
        0
 91
        0
280
     0
281
     0
  0
CLASS
  1
SPATIAL_INDEX
  2
AcDbSpatialIndex
  3
ObjectDBX Classes
 90
        0
 91
        0
280
     0
281
     0
  0
CLASS
  1
IDBUFFER
  2
AcDbIdBuffer
  3
ObjectDBX Classes
 90
        0
 91
        0
280
     0
281
     0
  0
CLASS
  1
ACDBSECTIONVIEWSTYLE
  2
AcDbSectionViewStyle
  3
ObjectDBX Classes
 90
     1025
 91
        1
280
     0
281
     0
  0
CLASS
  1
ACDBDETAILVIEWSTYLE
  2
AcDbDetailViewStyle
  3
ObjectDBX Classes
 90
     1025
 91
        1
280
     0
281
     0
  0
ENDSEC
  0
SECTION
  2
TABLES
  0
TABLE
  2
VPORT
  5
8
330
0
100
AcDbSymbolTable
 70
     1
  0
VPORT
  5
EA
330
8
100
AcDbSymbolTableRecord
100
AcDbViewportTableRecord
  2
*Active
 70
     0
 10
0.0
 20
0.0
 11
1.0
 21
1.0
 12
2630.048781668382
 22
1440.684066268786
 13
0.0
 23
0.0
 14
10.0
 24
10.0
 15
10.0
 25
10.0
 16
0.0
 26
0.0
 36
1.0
 17
0.0
 27
0.0
 37
0.0
 40
2653.730076586097
 41
1.765478424015009
 42
50.0
 43
0.0
 44
0.0
 50
0.0
 51
0.0
 71
     0
 72
  1000
 73
     1
 74
     3
 75
     0
 76
     1
 77
     0
 78
     0
281
     0
 65
     1
110
0.0
120
0.0
130
0.0
111
1.0
121
0.0
131
0.0
112
0.0
122
1.0
132
0.0
 79
     0
146
0.0
348
F5
 60
     3
 61
     5
292
     1
282
     1
141
0.0
142
0.0
 63
   250
421
  3355443
1001
ACAD_NAV_VCDISPLAY
1070
     3
  0
ENDTAB
  0
TABLE
  2
LTYPE
  5
5
330
0
100
AcDbSymbolTable
 70
     1
  0
LTYPE
  5
14
330
5
100
AcDbSymbolTableRecord
100
AcDbLinetypeTableRecord
  2
ByBlock
 70
     0
  3

 72
    65
 73
     0
 40
0.0
  0
LTYPE
  5
15
330
5
100
AcDbSymbolTableRecord
100
AcDbLinetypeTableRecord
  2
ByLayer
 70
     0
  3

 72
    65
 73
     0
 40
0.0
  0
LTYPE
  5
16
330
5
100
AcDbSymbolTableRecord
100
AcDbLinetypeTableRecord
  2
Continuous
 70
     0
  3
Solid line
 72
    65
 73
     0
 40
0.0
  0
ENDTAB
  0
TABLE
  2
LAYER
  5
2
102
{ACAD_XDICTIONARY
360
1FF
102
}
330
0
100
AcDbSymbolTable
 70
     2
  0
LAYER
  5
10
102
{ACAD_XDICTIONARY
360
13C
102
}
330
2
100
AcDbSymbolTableRecord
100
AcDbLayerTableRecord
  2
0
 70
     0
 62
     7
  6
Continuous
370
    -3
390
F
347
EE
  0
LAYER
  5
249
330
2
100
AcDbSymbolTableRecord
100
AcDbLayerTableRecord
  2
Vector Layer 2
 70
     0
 62
     7
  6
Continuous
370
    30
390
F
347
EE
  0
ENDTAB
  0
TABLE
  2
STYLE
  5
3
330
0
100
AcDbSymbolTable
 70
     2
  0
STYLE
  5
11
330
3
100
AcDbSymbolTableRecord
100
AcDbTextStyleTableRecord
  2
Standard
 70
     0
 40
0.0
 41
1.0
 50
0.0
 71
     0
 42
2.5
  3
arial.ttf
  4

1001
ACAD
1000
Arial
1071
       34
  0
STYLE
  5
132
330
3
100
AcDbSymbolTableRecord
100
AcDbTextStyleTableRecord
  2
Annotative
 70
     0
 40
0.0
 41
1.0
 50
0.0
 71
     0
 42
2.5
  3
arial.ttf
  4

1001
AcadAnnotative
1000
AnnotativeData
1002
{
1070
     1
1070
     1
1002
}
1001
ACAD
1000
Arial
1071
       34
  0
ENDTAB
  0
TABLE
  2
VIEW
  5
6
330
0
100
AcDbSymbolTable
 70
     0
  0
ENDTAB
  0
TABLE
  2
UCS
  5
7
330
0
100
AcDbSymbolTable
 70
     0
  0
ENDTAB
  0
TABLE
  2
APPID
  5
9
330
0
100
AcDbSymbolTable
 70
     8
  0
APPID
  5
12
330
9
100
AcDbSymbolTableRecord
100
AcDbRegAppTableRecord
  2
ACAD
 70
     0
  0
APPID
  5
9E
330
9
100
AcDbSymbolTableRecord
100
AcDbRegAppTableRecord
  2
ACAD_PSEXT
 70
     0
  0
APPID
  5
133
330
9
100
AcDbSymbolTableRecord
100
AcDbRegAppTableRecord
  2
AcadAnnoPO
 70
     0
  0
APPID
  5
134
330
9
100
AcDbSymbolTableRecord
100
AcDbRegAppTableRecord
  2
AcadAnnotative
 70
     0
  0
APPID
  5
135
330
9
100
AcDbSymbolTableRecord
100
AcDbRegAppTableRecord
  2
ACAD_DSTYLE_DIMJAG
 70
     0
  0
APPID
  5
136
330
9
100
AcDbSymbolTableRecord
100
AcDbRegAppTableRecord
  2
ACAD_DSTYLE_DIMTALN
 70
     0
  0
APPID
  5
165
330
9
100
AcDbSymbolTableRecord
100
AcDbRegAppTableRecord
  2
ACAD_MLEADERVER
 70
     0
  0
APPID
  5
217
330
9
100
AcDbSymbolTableRecord
100
AcDbRegAppTableRecord
  2
ACAD_NAV_VCDISPLAY
 70
     0
  0
ENDTAB
  0
TABLE
  2
DIMSTYLE
  5
A
330
0
100
AcDbSymbolTable
 70
     3
100
AcDbDimStyleTable
 71
     2
340
27
340
137
  0
DIMSTYLE
105
1B0
330
A
100
AcDbSymbolTableRecord
100
AcDbDimStyleTableRecord
  2
Standard
 70
     0
340
11
  0
DIMSTYLE
105
137
330
A
100
AcDbSymbolTableRecord
100
AcDbDimStyleTableRecord
  2
Annotative
 70
     0
 40
0.0
 41
2.5
 42
0.625
 43
3.75
 44
1.25
 73
     0
 74
     0
 77
     1
 78
     8
140
2.5
141
2.5
143
0.03937007874016
147
0.625
171
     3
172
     1
271
     2
272
     2
274
     3
278
    44
283
     0
284
     8
340
11
1001
AcadAnnotative
1000
AnnotativeData
1002
{
1070
     1
1070
     1
1002
}
1001
ACAD_DSTYLE_DIMJAG
1070
   388
1040
1.5
1001
ACAD_DSTYLE_DIMTALN
1070
   392
1070
     0
  0
DIMSTYLE
105
27
330
A
100
AcDbSymbolTableRecord
100
AcDbDimStyleTableRecord
  2
ISO-25
 70
     0
 41
2.5
 42
0.625
 43
3.75
 44
1.25
 73
     0
 74
     0
 77
     1
 78
     8
140
2.5
141
2.5
143
0.03937007874016
147
0.625
171
     3
172
     1
271
     2
272
     2
274
     3
278
    44
283
     0
284
     8
340
11
  0
ENDTAB
  0
TABLE
  2
BLOCK_RECORD
  5
1
330
0
100
AcDbSymbolTable
 70
     1
  0
BLOCK_RECORD
  5
1F
102
{ACAD_XDICTIONARY
360
1CE
102
}
330
1
100
AcDbSymbolTableRecord
100
AcDbBlockTableRecord
  2
*Model_Space
340
22
 70
     0
280
     1
281
     0
  0
BLOCK_RECORD
  5
D2
330
1
100
AcDbSymbolTableRecord
100
AcDbBlockTableRecord
  2
*Paper_Space
340
D3
 70
     0
280
     1
281
     0
  0
BLOCK_RECORD
  5
D6
330
1
100
AcDbSymbolTableRecord
100
AcDbBlockTableRecord
  2
*Paper_Space0
340
D7
 70
     0
280
     1
281
     0
  0
ENDTAB
  0
ENDSEC
  0
SECTION
  2
BLOCKS
  0
BLOCK
  5
20
330
1F
100
AcDbEntity
  8
0
100
AcDbBlockBegin
  2
*Model_Space
 70
     0
 10
0.0
 20
0.0
 30
0.0
  3
*Model_Space
  1

  0
ENDBLK
  5
21
330
1F
100
AcDbEntity
  8
0
100
AcDbBlockEnd
  0
BLOCK
  5
D4
330
D2
100
AcDbEntity
 67
     1
  8
0
100
AcDbBlockBegin
  2
*Paper_Space
 70
     0
 10
0.0
 20
0.0
 30
0.0
  3
*Paper_Space
  1

  0
ENDBLK
  5
D5
330
D2
100
AcDbEntity
 67
     1
  8
0
100
AcDbBlockEnd
  0
BLOCK
  5
D8
330
D6
100
AcDbEntity
 67
     1
  8
0
100
AcDbBlockBegin
  2
*Paper_Space0
 70
     0
 10
0.0
 20
0.0
 30
0.0
  3
*Paper_Space0
  1

  0
ENDBLK
  5
D9
330
D6
100
AcDbEntity
 67
     1
  8
0
100
AcDbBlockEnd
  0
ENDSEC
  0
SECTION
  2
ENTITIES
  0
POLYLINE
  5
24A
330
1F
100
AcDbEntity
  8
Vector Layer 2
 62
    18
420
        0
370
    30
100
AcDb3dPolyline
 66
     1
 10
0.0
 20
0.0
 30
0.0
 70
     8
  0
VERTEX
  5
24B
330
24A
100
AcDbEntity
  8
0
 62
    18
420
        0
100
AcDbVertex
100
AcDb3dPolylineVertex
 10
2692.685697637942
 20
676.822538126512
 30
0.0
 70
    32
  0
VERTEX
  5
24C
330
24A
100
AcDbEntity
  8
0
 62
    18
420
        0
100
AcDbVertex
100
AcDb3dPolylineVertex
 10
2713.854777359101
 20
657.2882958858291
 30
0.0
 70
    32
  0
VERTEX
  5
24D
330
24A
100
AcDbEntity
  8
0
 62
    18
420
        0
100
AcDbVertex
100
AcDb3dPolylineVertex
 10
2794.495097307561
 20
582.8756352983719
 30
0.0
 70
    32
  0
VERTEX
  5
24E
330
24A
100
AcDbEntity
  8
0
 62
    18
420
        0
100
AcDbVertex
100
AcDb3dPolylineVertex
 10
2815.651661639585
 20
563.352941913204
 30
0.0
 70
    32
  0
SEQEND
  5
24F
330
24A
100
AcDbEntity
  8
Vector Layer 2
 62
    18
420
        0
370
    30
  0
POLYLINE
  5
250
330
1F
100
AcDbEntity
  8
Vector Layer 2
 62
    18
420
        0
370
    30
100
AcDb3dPolyline
 66
     1
 10
0.0
 20
0.0
 30
0.0
 70
     8
  0
VERTEX
  5
251
330
250
100
AcDbEntity
  8
0
 62
    18
420
        0
100
AcDbVertex
100
AcDb3dPolylineVertex
 10
2814.837693167993
 20
789.2408889549733
 30
0.0
 70
    32
  0
VERTEX
  5
252
330
250
100
AcDbEntity
  8
0
 62
    18
420
        0
100
AcDbVertex
100
AcDb3dPolylineVertex
 10
2835.86773472223
 20
769.7967650657115
 30
0.0
 70
    32
  0
VERTEX
  5
253
330
250
100
AcDbEntity
  8
0
 62
    18
420
        0
100
AcDbVertex
100
AcDb3dPolylineVertex
 10
2916.546900288308
 20
695.2017773904218
 30
0.0
 70
    32
  0
VERTEX
  5
254
330
250
100
AcDbEntity
  8
0
 62
    18
420
        0
100
AcDbVertex
100
AcDb3dPolylineVertex
 10
2937.564535729996
 20
675.7691240438476
 30
0.0
 70
    32
  0
SEQEND
  5
255
330
250
100
AcDbEntity
  8
Vector Layer 2
 62
    18
420
        0
370
    30
  0
POLYLINE
  5
256
330
1F
100
AcDbEntity
  8
Vector Layer 2
 62
    18
420
        0
370
    30
100
AcDb3dPolyline
 66
     1
 10
0.0
 20
0.0
 30
0.0
 70
     8
  0
VERTEX
  5
257
330
256
100
AcDbEntity
  8
0
 62
    18
420
        0
100
AcDbVertex
100
AcDb3dPolylineVertex
 10
2896.266696002811
 20
864.1812464053307
 30
0.0
 70
    32
  0
VERTEX
  5
258
330
256
100
AcDbEntity
  8
0
 62
    18
420
        0
100
AcDbVertex
100
AcDb3dPolylineVertex
 10
2917.238544892543
 20
844.8290033299011
 30
0.0
 70
    32
  0
VERTEX
  5
259
330
256
100
AcDbEntity
  8
0
 62
    18
420
        0
100
AcDbVertex
100
AcDb3dPolylineVertex
 10
2998.07609567243
 20
770.2343435771905
 30
0.0
 70
    32
  0
VERTEX
  5
25A
330
256
100
AcDbEntity
  8
0
 62
    18
420
        0
100
AcDbVertex
100
AcDb3dPolylineVertex
 10
3019.035429173027
 20
750.8936493572764
 30
0.0
 70
    32
  0
SEQEND
  5
25B
330
256
100
AcDbEntity
  8
Vector Layer 2
 62
    18
420
        0
370
    30
  0
POLYLINE
  5
25C
330
1F
100
AcDbEntity
  8
Vector Layer 2
 62
    18
420
        0
370
    30
100
AcDb3dPolyline
 66
     1
 10
0.0
 20
0.0
 30
0.0
 70
     8
  0
VERTEX
  5
25D
330
25C
100
AcDbEntity
  8
0
 62
    18
420
        0
100
AcDbVertex
100
AcDb3dPolylineVertex
 10
3018.379184206612
 20
976.5632380368463
 30
0.0
 70
    32
  0
VERTEX
  5
25E
330
25C
100
AcDbEntity
  8
0
 62
    18
420
        0
100
AcDbVertex
100
AcDb3dPolylineVertex
 10
3039.212227077509
 20
957.3012567646104
 30
0.0
 70
    32
  0
VERTEX
  5
25F
330
25C
100
AcDbEntity
  8
0
 62
    18
420
        0
100
AcDbVertex
100
AcDb3dPolylineVertex
 10
3120.088391326927
 20
882.5241264722945
 30
0.0
 70
    32
  0
VERTEX
  5
260
330
25C
100
AcDbEntity
  8
0
 62
    18
420
        0
100
AcDbVertex
100
AcDb3dPolylineVertex
 10
3140.909028085276
 20
863.2736157427466
 30
0.0
 70
    32
  0
SEQEND
  5
261
330
25C
100
AcDbEntity
  8
Vector Layer 2
 62
    18
420
        0
370
    30
  0
POLYLINE
  5
262
330
1F
100
AcDbEntity
  8
Vector Layer 2
 62
    18
420
        0
370
    30
100
AcDb3dPolyline
 66
     1
 10
0.0
 20
0.0
 30
0.0
 70
     8
  0
VERTEX
  5
263
330
262
100
AcDbEntity
  8
0
 62
    18
420
        0
100
AcDbVertex
100
AcDb3dPolylineVertex
 10
3099.376100767403
 20
1051.105939876823
 30
0.0
 70
    32
  0
VERTEX
  5
264
330
262
100
AcDbEntity
  8
0
 62
    18
420
        0
100
AcDbVertex
100
AcDb3dPolylineVertex
 10
3120.1511757092
 20
1031.935274367175
 30
0.0
 70
    32
  0
VERTEX
  5
265
330
262
100
AcDbEntity
  8
0
 62
    18
420
        0
100
AcDbVertex
100
AcDb3dPolylineVertex
 10
3201.185500437021
 20
957.1590370486829
 30
0.0
 70
    32
  0
VERTEX
  5
266
330
262
100
AcDbEntity
  8
0
 62
    18
420
        0
100
AcDbVertex
100
AcDb3dPolylineVertex
 10
3221.948059989684
 20
937.9999203945503
 30
0.0
 70
    32
  0
SEQEND
  5
267
330
262
100
AcDbEntity
  8
Vector Layer 2
 62
    18
420
        0
370
    30
  0
POLYLINE
  5
268
330
1F
100
AcDbEntity
  8
Vector Layer 2
 62
    18
420
        0
370
    30
100
AcDb3dPolyline
 66
     1
 10
0.0
 20
0.0
 30
0.0
 70
     8
  0
VERTEX
  5
269
330
268
100
AcDbEntity
  8
0
 62
    18
420
        0
100
AcDbVertex
100
AcDb3dPolylineVertex
 10
2489.369739845639
 20
677.3872831292213
 30
0.0
 70
    32
  0
VERTEX
  5
26A
330
268
100
AcDbEntity
  8
0
 62
    18
420
        0
100
AcDbVertex
100
AcDb3dPolylineVertex
 10
2510.696232500208
 20
657.7077845801128
 30
0.0
 70
    32
  0
VERTEX
  5
26B
330
268
100
AcDbEntity
  8
0
 62
    18
420
        0
100
AcDbVertex
100
AcDb3dPolylineVertex
 10
2591.198607396029
 20
583.4224158782568
 30
0.0
 70
    32
  0
VERTEX
  5
26C
330
268
100
AcDbEntity
  8
0
 62
    18
420
        0
100
AcDbVertex
100
AcDb3dPolylineVertex
 10
2612.466008587996
 20
563.7974452991904
 30
0.0
 70
    32
  0
SEQEND
  5
26D
330
268
100
AcDbEntity
  8
Vector Layer 2
 62
    18
420
        0
370
    30
  0
POLYLINE
  5
26E
330
1F
100
AcDbEntity
  8
Vector Layer 2
 62
    18
420
        0
370
    30
100
AcDb3dPolyline
 66
     1
 10
0.0
 20
0.0
 30
0.0
 70
     8
  0
VERTEX
  5
26F
330
26E
100
AcDbEntity
  8
0
 62
    18
420
        0
100
AcDbVertex
100
AcDb3dPolylineVertex
 10
2610.817169620663
 20
789.157211311073
 30
0.0
 70
    32
  0
VERTEX
  5
270
330
26E
100
AcDbEntity
  8
0
 62
    18
420
        0
100
AcDbVertex
100
AcDb3dPolylineVertex
 10
2632.005151262813
 20
769.5670579130933
 30
0.0
 70
    32
  0
VERTEX
  5
271
330
26E
100
AcDbEntity
  8
0
 62
    18
420
        0
100
AcDbVertex
100
AcDb3dPolylineVertex
 10
2712.545825463041
 20
695.1001176916441
 30
0.0
 70
    32
  0
VERTEX
  5
272
330
26E
100
AcDbEntity
  8
0
 62
    18
420
        0
100
AcDbVertex
100
AcDb3dPolylineVertex
 10
2733.674870729746
 20
675.5644561586849
 30
0.0
 70
    32
  0
SEQEND
  5
273
330
26E
100
AcDbEntity
  8
Vector Layer 2
 62
    18
420
        0
370
    30
  0
POLYLINE
  5
274
330
1F
100
AcDbEntity
  8
Vector Layer 2
 62
    18
420
        0
370
    30
100
AcDb3dPolyline
 66
     1
 10
0.0
 20
0.0
 30
0.0
 70
     8
  0
VERTEX
  5
275
330
274
100
AcDbEntity
  8
0
 62
    18
420
        0
100
AcDbVertex
100
AcDb3dPolylineVertex
 10
2814.358660659281
 20
976.4795603929458
 30
0.0
 70
    32
  0
VERTEX
  5
276
330
274
100
AcDbEntity
  8
0
 62
    18
420
        0
100
AcDbVertex
100
AcDb3dPolylineVertex
 10
2835.349643618093
 20
957.0715496119923
 30
0.0
 70
    32
  0
VERTEX
  5
277
330
274
100
AcDbEntity
  8
0
 62
    18
420
        0
100
AcDbVertex
100
AcDb3dPolylineVertex
 10
2916.087316501661
 20
882.4224667735171
 30
0.0
 70
    32
  0
VERTEX
  5
278
330
274
100
AcDbEntity
  8
0
 62
    18
420
        0
100
AcDbVertex
100
AcDb3dPolylineVertex
 10
2937.019363085027
 20
863.068947857584
 30
0.0
 70
    32
  0
SEQEND
  5
279
330
274
100
AcDbEntity
  8
Vector Layer 2
 62
    18
420
        0
370
    30
  0
POLYLINE
  5
27A
330
1F
100
AcDbEntity
  8
Vector Layer 2
 62
    18
420
        0
370
    30
100
AcDb3dPolyline
 66
     1
 10
0.0
 20
0.0
 30
0.0
 70
     8
  0
VERTEX
  5
27B
330
27A
100
AcDbEntity
  8
0
 62
    18
420
        0
100
AcDbVertex
100
AcDb3dPolylineVertex
 10
2896.781427595645
 20
1052.334494153935
 30
0.0
 70
    32
  0
VERTEX
  5
27C
330
27A
100
AcDbEntity
  8
0
 62
    18
420
        0
100
AcDbVertex
100
AcDb3dPolylineVertex
 10
2917.713216684784
 20
1033.01921715635
 30
0.0
 70
    32
  0
VERTEX
  5
27D
330
27A
100
AcDbEntity
  8
0
 62
    18
420
        0
100
AcDbVertex
100
AcDb3dPolylineVertex
 10
2998.610295146036
 20
958.3696269029699
 30
0.0
 70
    32
  0
VERTEX
  5
27E
330
27A
100
AcDbEntity
  8
0
 62
    18
420
        0
100
AcDbVertex
100
AcDb3dPolylineVertex
 10
3019.482992772572
 20
939.1088778754275
 30
0.0
 70
    32
  0
SEQEND
  5
27F
330
27A
100
AcDbEntity
  8
Vector Layer 2
 62
    18
420
        0
370
    30
  0
POLYLINE
  5
280
330
1F
100
AcDbEntity
  8
Vector Layer 2
 62
    18
420
        0
370
    30
100
AcDb3dPolyline
 66
     1
 10
0.0
 20
0.0
 30
0.0
 70
     8
  0
VERTEX
  5
281
330
280
100
AcDbEntity
  8
0
 62
    18
420
        0
100
AcDbVertex
100
AcDb3dPolylineVertex
 10
2408.162427457897
 20
976.5293524072678
 30
0.0
 70
    32
  0
VERTEX
  5
282
330
280
100
AcDbEntity
  8
0
 62
    18
420
        0
100
AcDbVertex
100
AcDb3dPolylineVertex
 10
2428.525194075652
 20
957.702182911543
 30
0.0
 70
    32
  0
VERTEX
  5
283
330
280
100
AcDbEntity
  8
0
 62
    18
420
        0
100
AcDbVertex
100
AcDb3dPolylineVertex
 10
2509.107962500348
 20
883.1963228756247
 30
0.0
 70
    32
  0
VERTEX
  5
284
330
280
100
AcDbEntity
  8
0
 62
    18
420
        0
100
AcDbVertex
100
AcDb3dPolylineVertex
 10
2530.308350255046
 20
863.5946989349571
 30
0.0
 70
    32
  0
SEQEND
  5
285
330
280
100
AcDbEntity
  8
Vector Layer 2
 62
    18
420
        0
370
    30
  0
POLYLINE
  5
286
330
1F
100
AcDbEntity
  8
Vector Layer 2
 62
    18
420
        0
370
    30
100
AcDb3dPolyline
 66
     1
 10
0.0
 20
0.0
 30
0.0
 70
     8
  0
VERTEX
  5
287
330
286
100
AcDbEntity
  8
0
 62
    18
420
        0
100
AcDbVertex
100
AcDb3dPolylineVertex
 10
2490.771903891825
 20
1051.771239550078
 30
0.0
 70
    32
  0
VERTEX
  5
288
330
286
100
AcDbEntity
  8
0
 62
    18
420
        0
100
AcDbVertex
100
AcDb3dPolylineVertex
 10
2510.450102367554
 20
1033.612741356086
 30
0.0
 70
    32
  0
VERTEX
  5
289
330
286
100
AcDbEntity
  8
0
 62
    18
420
        0
100
AcDbVertex
100
AcDb3dPolylineVertex
 10
2591.391029561155
 20
958.9226887032559
 30
0.0
 70
    32
  0
VERTEX
  5
28A
330
286
100
AcDbEntity
  8
0
 62
    18
420
        0
100
AcDbVertex
100
AcDb3dPolylineVertex
 10
2612.532564870858
 20
939.4138636849023
 30
0.0
 70
    32
  0
SEQEND
  5
28B
330
286
100
AcDbEntity
  8
Vector Layer 2
 62
    18
420
        0
370
    30
  0
POLYLINE
  5
28C
330
1F
100
AcDbEntity
  8
Vector Layer 2
 62
    18
420
        0
370
    30
100
AcDb3dPolyline
 66
     1
 10
0.0
 20
0.0
 30
0.0
 70
     8
  0
VERTEX
  5
28D
330
28C
100
AcDbEntity
  8
0
 62
    18
420
        0
100
AcDbVertex
100
AcDb3dPolylineVertex
 10
3017.796523621975
 20
788.3833552089652
 30
0.0
 70
    32
  0
VERTEX
  5
28E
330
28C
100
AcDbEntity
  8
0
 62
    18
420
        0
100
AcDbVertex
100
AcDb3dPolylineVertex
 10
3038.716164092793
 20
769.0413068357201
 30
0.0
 70
    32
  0
VERTEX
  5
28F
330
28C
100
AcDbEntity
  8
0
 62
    18
420
        0
100
AcDbVertex
100
AcDb3dPolylineVertex
 10
3119.466307497697
 20
694.3806939029648
 30
0.0
 70
    32
  0
VERTEX
  5
290
330
28C
100
AcDbEntity
  8
0
 62
    18
420
        0
100
AcDbVertex
100
AcDb3dPolylineVertex
 10
3140.82639580853
 20
674.6314127458025
 30
0.0
 70
    32
  0
SEQEND
  5
291
330
28C
100
AcDbEntity
  8
Vector Layer 2
 62
    18
420
        0
370
    30
  0
POLYLINE
  5
292
330
1F
100
AcDbEntity
  8
Vector Layer 2
 62
    18
420
        0
370
    30
100
AcDb3dPolyline
 66
     1
 10
0.0
 20
0.0
 30
0.0
 70
     8
  0
VERTEX
  5
293
330
292
100
AcDbEntity
  8
0
 62
    18
420
        0
100
AcDbVertex
100
AcDb3dPolylineVertex
 10
3100.419694815655
 20
864.4227240748303
 30
0.0
 70
    32
  0
VERTEX
  5
294
330
292
100
AcDbEntity
  8
0
 62
    18
420
        0
100
AcDbVertex
100
AcDb3dPolylineVertex
 10
3121.279877053056
 20
845.1735239028025
 30
0.0
 70
    32
  0
VERTEX
  5
295
330
292
100
AcDbEntity
  8
0
 62
    18
420
        0
100
AcDbVertex
100
AcDb3dPolylineVertex
 10
3202.274663739156
 20
770.4337711974776
 30
0.0
 70
    32
  0
VERTEX
  5
296
330
292
100
AcDbEntity
  8
0
 62
    18
420
        0
100
AcDbVertex
100
AcDb3dPolylineVertex
 10
3223.666078880752
 20
750.6943639699969
 30
0.0
 70
    32
  0
SEQEND
  5
297
330
292
100
AcDbEntity
  8
Vector Layer 2
 62
    18
420
        0
370
    30
  0
POLYLINE
  5
298
330
1F
100
AcDbEntity
  8
Vector Layer 2
 62
    18
420
        0
370
    30
100
AcDb3dPolyline
 66
     1
 10
0.0
 20
0.0
 30
0.0
 70
     8
  0
VERTEX
  5
299
330
298
100
AcDbEntity
  8
0
 62
    18
420
        0
100
AcDbVertex
100
AcDb3dPolylineVertex
 10
3220.899054797348
 20
975.3017228111096
 30
0.0
 70
    32
  0
VERTEX
  5
29A
330
298
100
AcDbEntity
  8
0
 62
    18
420
        0
100
AcDbVertex
100
AcDb3dPolylineVertex
 10
3241.622121434397
 20
956.1414242440791
 30
0.0
 70
    32
  0
VERTEX
  5
29B
330
298
100
AcDbEntity
  8
0
 62
    18
420
        0
100
AcDbVertex
100
AcDb3dPolylineVertex
 10
3322.777402169406
 20
881.1062262008547
 30
0.0
 70
    32
  0
VERTEX
  5
29C
330
298
100
AcDbEntity
  8
0
 62
    18
420
        0
100
AcDbVertex
100
AcDb3dPolylineVertex
 10
3344.162658515498
 20
861.3336749805132
 30
0.0
 70
    32
  0
SEQEND
  5
29D
330
298
100
AcDbEntity
  8
Vector Layer 2
 62
    18
420
        0
370
    30
  0
POLYLINE
  5
29E
330
1F
100
AcDbEntity
  8
Vector Layer 2
 62
    18
420
        0
370
    30
100
AcDb3dPolyline
 66
     1
 10
0.0
 20
0.0
 30
0.0
 70
     8
  0
VERTEX
  5
29F
330
29E
100
AcDbEntity
  8
0
 62
    18
420
        0
100
AcDbVertex
100
AcDb3dPolylineVertex
 10
3303.529099580245
 20
1051.347417546323
 30
0.0
 70
    32
  0
VERTEX
  5
2A0
330
29E
100
AcDbEntity
  8
0
 62
    18
420
        0
100
AcDbVertex
100
AcDb3dPolylineVertex
 10
3324.192507869712
 20
1032.279794940076
 30
0.0
 70
    32
  0
VERTEX
  5
2A1
330
29E
100
AcDbEntity
  8
0
 62
    18
420
        0
100
AcDbVertex
100
AcDb3dPolylineVertex
 10
3405.59284473009
 20
957.1658117320781
 30
0.0
 70
    32
  0
VERTEX
  5
2A2
330
29E
100
AcDbEntity
  8
0
 62
    18
420
        0
100
AcDbVertex
100
AcDb3dPolylineVertex
 10
3427.009453606328
 20
937.4031564219256
 30
0.0
 70
    32
  0
SEQEND
  5
2A3
330
29E
100
AcDbEntity
  8
Vector Layer 2
 62
    18
420
        0
370
    30
  0
POLYLINE
  5
2A4
330
1F
100
AcDbEntity
  8
Vector Layer 2
 62
    18
420
        0
370
    30
100
AcDb3dPolyline
 66
     1
 10
0.0
 20
0.0
 30
0.0
 70
     8
  0
VERTEX
  5
2A5
330
2A4
100
AcDbEntity
  8
0
 62
    18
420
        0
100
AcDbVertex
100
AcDb3dPolylineVertex
 10
3099.825865575508
 20
676.3424654511022
 30
0.0
 70
    32
  0
VERTEX
  5
2A6
330
2A4
100
AcDbEntity
  8
0
 62
    18
420
        0
100
AcDbVertex
100
AcDb3dPolylineVertex
 10
3121.204585994858
 20
656.6147725627805
 30
0.0
 70
    32
  0
VERTEX
  5
2A7
330
2A4
100
AcDbEntity
  8
0
 62
    18
420
        0
100
AcDbVertex
100
AcDb3dPolylineVertex
 10
3200.757826124889
 20
583.2052392150459
 30
0.0
 70
    32
  0
VERTEX
  5
2A8
330
2A4
100
AcDbEntity
  8
0
 62
    18
420
        0
100
AcDbVertex
100
AcDb3dPolylineVertex
 10
3222.149053310818
 20
563.4660054278648
 30
0.0
 70
    32
  0
SEQEND
  5
2A9
330
2A4
100
AcDbEntity
  8
Vector Layer 2
 62
    18
420
        0
370
    30
  0
POLYLINE
  5
2AA
330
1F
100
AcDbEntity
  8
Vector Layer 2
 62
    18
420
        0
370
    30
100
AcDb3dPolyline
 66
     1
 10
0.0
 20
0.0
 30
0.0
 70
     8
  0
VERTEX
  5
2AB
330
2AA
100
AcDbEntity
  8
0
 62
    18
420
        0
100
AcDbVertex
100
AcDb3dPolylineVertex
 10
3221.863217466041
 20
788.4243443509237
 30
0.0
 70
    32
  0
VERTEX
  5
2AC
330
2AA
100
AcDbEntity
  8
0
 62
    18
420
        0
100
AcDbVertex
100
AcDb3dPolylineVertex
 10
3243.23598156835
 20
768.6633433091766
 30
0.0
 70
    32
  0
VERTEX
  5
2AD
330
2AA
100
AcDbEntity
  8
0
 62
    18
420
        0
100
AcDbVertex
100
AcDb3dPolylineVertex
 10
3322.695746970718
 20
695.1957983825182
 30
0.0
 70
    32
  0
VERTEX
  5
2AE
330
2AA
100
AcDbEntity
  8
0
 62
    18
420
        0
100
AcDbVertex
100
AcDb3dPolylineVertex
 10
3344.08099320865
 20
675.4232565080593
 30
0.0
 70
    32
  0
SEQEND
  5
2AF
330
2AA
100
AcDbEntity
  8
Vector Layer 2
 62
    18
420
        0
370
    30
  0
POLYLINE
  5
2B0
330
1F
100
AcDbEntity
  8
Vector Layer 2
 62
    18
420
        0
370
    30
100
AcDb3dPolyline
 66
     1
 10
0.0
 20
0.0
 30
0.0
 70
     8
  0
VERTEX
  5
2B1
330
2B0
100
AcDbEntity
  8
0
 62
    18
420
        0
100
AcDbVertex
100
AcDb3dPolylineVertex
 10
3303.144046566447
 20
863.074505985703
 30
0.0
 70
    32
  0
VERTEX
  5
2B2
330
2B0
100
AcDbEntity
  8
0
 62
    18
420
        0
100
AcDbVertex
100
AcDb3dPolylineVertex
 10
3324.547960720437
 20
843.3235650147093
 30
0.0
 70
    32
  0
VERTEX
  5
2B3
330
2B0
100
AcDbEntity
  8
0
 62
    18
420
        0
100
AcDbVertex
100
AcDb3dPolylineVertex
 10
3404.076007115824
 20
769.937279749647
 30
0.0
 70
    32
  0
VERTEX
  5
2B4
330
2B0
100
AcDbEntity
  8
0
 62
    18
420
        0
100
AcDbVertex
100
AcDb3dPolylineVertex
 10
3425.492428036394
 20
750.174797879794
 30
0.0
 70
    32
  0
SEQEND
  5
2B5
330
2B0
100
AcDbEntity
  8
Vector Layer 2
 62
    18
420
        0
370
    30
  0
POLYLINE
  5
2B6
330
1F
100
AcDbEntity
  8
Vector Layer 2
 62
    18
420
        0
370
    30
100
AcDb3dPolyline
 66
     1
 10
0.0
 20
0.0
 30
0.0
 70
     8
  0
VERTEX
  5
2B7
330
2B6
100
AcDbEntity
  8
0
 62
    18
420
        0
100
AcDbVertex
100
AcDb3dPolylineVertex
 10
3303.206624288536
 20
677.2965449614215
 30
0.0
 70
    32
  0
VERTEX
  5
2B8
330
2B6
100
AcDbEntity
  8
0
 62
    18
420
        0
100
AcDbVertex
100
AcDb3dPolylineVertex
 10
3324.610546196711
 20
657.5455968350812
 30
0.0
 70
    32
  0
VERTEX
  5
2B9
330
2B6
100
AcDbEntity
  8
0
 62
    18
420
        0
100
AcDbVertex
100
AcDb3dPolylineVertex
 10
3405.313073358968
 20
583.0755331484109
 30
0.0
 70
    32
  0
VERTEX
  5
2BA
330
2B6
100
AcDbEntity
  8
0
 62
    18
420
        0
100
AcDbVertex
100
AcDb3dPolylineVertex
 10
3426.729647567939
 20
563.3129098282551
 30
0.0
 70
    32
  0
SEQEND
  5
2BB
330
2B6
100
AcDbEntity
  8
Vector Layer 2
 62
    18
420
        0
370
    30
  0
POLYLINE
  5
2BC
330
1F
100
AcDbEntity
  8
Vector Layer 2
 62
    18
420
        0
370
    30
100
AcDb3dPolyline
 66
     1
 10
0.0
 20
0.0
 30
0.0
 70
     8
  0
VERTEX
  5
2BD
330
2BC
100
AcDbEntity
  8
0
 62
    18
420
        0
100
AcDbVertex
100
AcDb3dPolylineVertex
 10
2407.599062608212
 20
789.7761288725076
 30
0.0
 70
    32
  0
VERTEX
  5
2BE
330
2BC
100
AcDbEntity
  8
0
 62
    18
420
        0
100
AcDbVertex
100
AcDb3dPolylineVertex
 10
2428.897696275937
 20
770.0836679404069
 30
0.0
 70
    32
  0
VERTEX
  5
2BF
330
2BC
100
AcDbEntity
  8
0
 62
    18
420
        0
100
AcDbVertex
100
AcDb3dPolylineVertex
 10
2509.308269728528
 20
695.737017307956
 30
0.0
 70
    32
  0
VERTEX
  5
2C0
330
2BC
100
AcDbEntity
  8
0
 62
    18
420
        0
100
AcDbVertex
100
AcDb3dPolylineVertex
 10
2530.594497283705
 20
676.056026918543
 30
0.0
 70
    32
  0
SEQEND
  5
2C1
330
2BC
100
AcDbEntity
  8
Vector Layer 2
 62
    18
420
        0
370
    30
  0
POLYLINE
  5
2C2
330
1F
100
AcDbEntity
  8
Vector Layer 2
 62
    18
420
        0
370
    30
100
AcDb3dPolyline
 66
     1
 10
0.0
 20
0.0
 30
0.0
 70
     8
  0
VERTEX
  5
2C3
330
2C2
100
AcDbEntity
  8
0
 62
    18
420
        0
100
AcDbVertex
100
AcDb3dPolylineVertex
 10
2489.047430417932
 20
864.7343082056169
 30
0.0
 70
    32
  0
VERTEX
  5
2C4
330
2C2
100
AcDbEntity
  8
0
 62
    18
420
        0
100
AcDbVertex
100
AcDb3dPolylineVertex
 10
2510.288116990829
 20
845.1339891393764
 30
0.0
 70
    32
  0
VERTEX
  5
2C5
330
2C2
100
AcDbEntity
  8
0
 62
    18
420
        0
100
AcDbVertex
100
AcDb3dPolylineVertex
 10
2590.856830087551
 20
770.7874053774767
 30
0.0
 70
    32
  0
VERTEX
  5
2C6
330
2C2
100
AcDbEntity
  8
0
 62
    18
420
        0
100
AcDbVertex
100
AcDb3dPolylineVertex
 10
2612.085001271313
 20
751.1986351667516
 30
0.0
 70
    32
  0
SEQEND
  5
2C7
330
2C2
100
AcDbEntity
  8
Vector Layer 2
 62
    18
420
        0
370
    30
  0
POLYLINE
  5
2C8
330
1F
100
AcDbEntity
  8
Vector Layer 2
 62
    18
420
        0
370
    30
100
AcDb3dPolyline
 66
     1
 10
0.0
 20
0.0
 30
0.0
 70
     8
  0
VERTEX
  5
2C9
330
2C8
100
AcDbEntity
  8
0
 62
    18
420
        0
100
AcDbVertex
100
AcDb3dPolylineVertex
 10
2611.399830205299
 20
977.3370941389536
 30
0.0
 70
    32
  0
VERTEX
  5
2CA
330
2C8
100
AcDbEntity
  8
0
 62
    18
420
        0
100
AcDbVertex
100
AcDb3dPolylineVertex
 10
2632.501214247529
 20
957.8270078419832
 30
0.0
 70
    32
  0
VERTEX
  5
2CB
330
2C8
100
AcDbEntity
  8
0
 62
    18
420
        0
100
AcDbVertex
100
AcDb3dPolylineVertex
 10
2713.109037325613
 20
883.2979825744022
 30
0.0
 70
    32
  0
VERTEX
  5
2CC
330
2C8
100
AcDbEntity
  8
0
 62
    18
420
        0
100
AcDbVertex
100
AcDb3dPolylineVertex
 10
2734.198015255296
 20
863.7993668201193
 30
0.0
 70
    32
  0
SEQEND
  5
2CD
330
2C8
100
AcDbEntity
  8
Vector Layer 2
 62
    18
420
        0
370
    30
  0
POLYLINE
  5
2CE
330
1F
100
AcDbEntity
  8
Vector Layer 2
 62
    18
420
        0
370
    30
100
AcDb3dPolyline
 66
     1
 10
0.0
 20
0.0
 30
0.0
 70
     8
  0
VERTEX
  5
2CF
330
2CE
100
AcDbEntity
  8
0
 62
    18
420
        0
100
AcDbVertex
100
AcDb3dPolylineVertex
 10
2692.628428782801
 20
1052.093016484435
 30
0.0
 70
    32
  0
VERTEX
  5
2D0
330
2CE
100
AcDbEntity
  8
0
 62
    18
420
        0
100
AcDbVertex
100
AcDb3dPolylineVertex
 10
2713.67188452427
 20
1032.674696583448
 30
0.0
 70
    32
  0
VERTEX
  5
2D1
330
2CE
100
AcDbEntity
  8
0
 62
    18
420
        0
100
AcDbVertex
100
AcDb3dPolylineVertex
 10
2794.43782845242
 20
958.1461136562952
 30
0.0
 70
    32
  0
VERTEX
  5
2D2
330
2CE
100
AcDbEntity
  8
0
 62
    18
420
        0
100
AcDbVertex
100
AcDb3dPolylineVertex
 10
2815.468768804755
 20
938.7393426108239
 30
0.0
 70
    32
  0
SEQEND
  5
2D3
330
2CE
100
AcDbEntity
  8
Vector Layer 2
 62
    18
420
        0
370
    30
  0
POLYLINE
  5
2D4
330
1F
100
AcDbEntity
  8
Vector Layer 2
 62
    18
420
        0
370
    30
100
AcDb3dPolyline
 66
     1
 10
0.0
 20
0.0
 30
0.0
 70
     8
  0
VERTEX
  5
2D5
330
2D4
100
AcDbEntity
  8
0
 62
    18
420
        0
100
AcDbVertex
100
AcDb3dPolylineVertex
 10
2509.107962500347
 20
883.1963228756247
 30
0.0
 70
    32
  0
VERTEX
  5
2D6
330
2D4
100
AcDbEntity
  8
0
 62
    18
420
        0
100
AcDbVertex
100
AcDb3dPolylineVertex
 10
2489.047430417933
 20
864.7343082056169
 30
0.0
 70
    32
  0
VERTEX
  5
2D7
330
2D4
100
AcDbEntity
  8
0
 62
    18
420
        0
100
AcDbVertex
100
AcDb3dPolylineVertex
 10
2407.599062608212
 20
789.7761288725079
 30
0.0
 70
    32
  0
VERTEX
  5
2D8
330
2D4
100
AcDbEntity
  8
0
 62
    18
420
        0
100
AcDbVertex
100
AcDb3dPolylineVertex
 10
2387.560340176019
 20
771.3341859573612
 30
0.0
 70
    32
  0
SEQEND
  5
2D9
330
2D4
100
AcDbEntity
  8
Vector Layer 2
 62
    18
420
        0
370
    30
  0
POLYLINE
  5
2DA
330
1F
100
AcDbEntity
  8
Vector Layer 2
 62
    18
420
        0
370
    30
100
AcDb3dPolyline
 66
     1
 10
0.0
 20
0.0
 30
0.0
 70
     8
  0
VERTEX
  5
2DB
330
2DA
100
AcDbEntity
  8
0
 62
    18
420
        0
100
AcDbVertex
100
AcDb3dPolylineVertex
 10
2632.005151262813
 20
769.5670579130933
 30
0.0
 70
    32
  0
VERTEX
  5
2DC
330
2DA
100
AcDbEntity
  8
0
 62
    18
420
        0
100
AcDbVertex
100
AcDb3dPolylineVertex
 10
2612.085001271313
 20
751.1986351667516
 30
0.0
 70
    32
  0
VERTEX
  5
2DD
330
2DA
100
AcDbEntity
  8
0
 62
    18
420
        0
100
AcDbVertex
100
AcDb3dPolylineVertex
 10
2530.594497283705
 20
676.0560269185432
 30
0.0
 70
    32
  0
VERTEX
  5
2DE
330
2DA
100
AcDbEntity
  8
0
 62
    18
420
        0
100
AcDbVertex
100
AcDb3dPolylineVertex
 10
2510.696232500208
 20
657.7077845801128
 30
0.0
 70
    32
  0
SEQEND
  5
2DF
330
2DA
100
AcDbEntity
  8
Vector Layer 2
 62
    18
420
        0
370
    30
  0
POLYLINE
  5
2E0
330
1F
100
AcDbEntity
  8
Vector Layer 2
 62
    18
420
        0
370
    30
100
AcDb3dPolyline
 66
     1
 10
0.0
 20
0.0
 30
0.0
 70
     8
  0
VERTEX
  5
2E1
330
2E0
100
AcDbEntity
  8
0
 62
    18
420
        0
100
AcDbVertex
100
AcDb3dPolylineVertex
 10
2712.545825463042
 20
695.1001176916443
 30
0.0
 70
    32
  0
VERTEX
  5
2E2
330
2E0
100
AcDbEntity
  8
0
 62
    18
420
        0
100
AcDbVertex
100
AcDb3dPolylineVertex
 10
2692.685697637941
 20
676.8225381265118
 30
0.0
 70
    32
  0
VERTEX
  5
2E3
330
2E0
100
AcDbEntity
  8
0
 62
    18
420
        0
100
AcDbVertex
100
AcDb3dPolylineVertex
 10
2611.036925570907
 20
601.6799236885272
 30
0.0
 70
    32
  0
VERTEX
  5
2E4
330
2E0
100
AcDbEntity
  8
0
 62
    18
420
        0
100
AcDbVertex
100
AcDb3dPolylineVertex
 10
2591.198607396029
 20
583.4224158782568
 30
0.0
 70
    32
  0
SEQEND
  5
2E5
330
2E0
100
AcDbEntity
  8
Vector Layer 2
 62
    18
420
        0
370
    30
  0
POLYLINE
  5
2E6
330
1F
100
AcDbEntity
  8
Vector Layer 2
 62
    18
420
        0
370
    30
100
AcDb3dPolyline
 66
     1
 10
0.0
 20
0.0
 30
0.0
 70
     8
  0
VERTEX
  5
2E7
330
2E6
100
AcDbEntity
  8
0
 62
    18
420
        0
100
AcDbVertex
100
AcDb3dPolylineVertex
 10
2693.200429230775
 20
864.9757858751161
 30
0.0
 70
    32
  0
VERTEX
  5
2E8
330
2E6
100
AcDbEntity
  8
0
 62
    18
420
        0
100
AcDbVertex
100
AcDb3dPolylineVertex
 10
2714.329449151343
 20
845.4785097122774
 30
0.0
 70
    32
  0
VERTEX
  5
2E9
330
2E6
100
AcDbEntity
  8
0
 62
    18
420
        0
100
AcDbVertex
100
AcDb3dPolylineVertex
 10
2795.029296781166
 20
771.0109186241517
 30
0.0
 70
    32
  0
VERTEX
  5
2EA
330
2E6
100
AcDbEntity
  8
0
 62
    18
420
        0
100
AcDbVertex
100
AcDb3dPolylineVertex
 10
2816.09922523913
 20
751.568170431355
 30
0.0
 70
    32
  0
SEQEND
  5
2EB
330
2E6
100
AcDbEntity
  8
Vector Layer 2
 62
    18
420
        0
370
    30
  0
POLYLINE
  5
2EC
330
1F
100
AcDbEntity
  8
Vector Layer 2
 62
    18
420
        0
370
    30
100
AcDb3dPolyline
 66
     1
 10
0.0
 20
0.0
 30
0.0
 70
     8
  0
VERTEX
  5
2ED
330
2EC
100
AcDbEntity
  8
0
 62
    18
420
        0
100
AcDbVertex
100
AcDb3dPolylineVertex
 10
2896.838696450785
 20
677.0640157960117
 30
0.0
 70
    32
  0
VERTEX
  5
2EE
330
2EC
100
AcDbEntity
  8
0
 62
    18
420
        0
100
AcDbVertex
100
AcDb3dPolylineVertex
 10
2917.896109519615
 20
657.6328164587302
 30
0.0
 70
    32
  0
VERTEX
  5
2EF
330
2EC
100
AcDbEntity
  8
0
 62
    18
420
        0
100
AcDbVertex
100
AcDb3dPolylineVertex
 10
2998.484404396716
 20
583.2681631705936
 30
0.0
 70
    32
  0
VERTEX
  5
2F0
330
2EC
100
AcDbEntity
  8
0
 62
    18
420
        0
100
AcDbVertex
100
AcDb3dPolylineVertex
 10
3019.850567307097
 20
563.5520580048067
 30
0.0
 70
    32
  0
SEQEND
  5
2F1
330
2EC
100
AcDbEntity
  8
Vector Layer 2
 62
    18
420
        0
370
    30
  0
POLYLINE
  5
2F2
330
1F
100
AcDbEntity
  8
Vector Layer 2
 62
    18
420
        0
370
    30
100
AcDb3dPolyline
 66
     1
 10
0.0
 20
0.0
 30
0.0
 70
     8
  0
VERTEX
  5
2F3
330
2F2
100
AcDbEntity
  8
0
 62
    18
420
        0
100
AcDbVertex
100
AcDb3dPolylineVertex
 10
3038.716164092793
 20
769.0413068357201
 30
0.0
 70
    32
  0
VERTEX
  5
2F4
330
2F2
100
AcDbEntity
  8
0
 62
    18
420
        0
100
AcDbVertex
100
AcDb3dPolylineVertex
 10
3019.035429173027
 20
750.8936493572764
 30
0.0
 70
    32
  0
VERTEX
  5
2F5
330
2F2
100
AcDbEntity
  8
0
 62
    18
420
        0
100
AcDbVertex
100
AcDb3dPolylineVertex
 10
2937.564535729996
 20
675.7691240438476
 30
0.0
 70
    32
  0
VERTEX
  5
2F6
330
2F2
100
AcDbEntity
  8
0
 62
    18
420
        0
100
AcDbVertex
100
AcDb3dPolylineVertex
 10
2917.896109519615
 20
657.6328164587302
 30
0.0
 70
    32
  0
SEQEND
  5
2F7
330
2F2
100
AcDbEntity
  8
Vector Layer 2
 62
    18
420
        0
370
    30
  0
POLYLINE
  5
2F8
330
1F
100
AcDbEntity
  8
Vector Layer 2
 62
    18
420
        0
370
    30
100
AcDb3dPolyline
 66
     1
 10
0.0
 20
0.0
 30
0.0
 70
     8
  0
VERTEX
  5
2F9
330
2F8
100
AcDbEntity
  8
0
 62
    18
420
        0
100
AcDbVertex
100
AcDb3dPolylineVertex
 10
2998.484404396716
 20
583.268163170594
 30
0.0
 70
    32
  0
VERTEX
  5
2FA
330
2F8
100
AcDbEntity
  8
0
 62
    18
420
        0
100
AcDbVertex
100
AcDb3dPolylineVertex
 10
3018.112712168589
 20
601.2952473428957
 30
0.0
 70
    32
  0
VERTEX
  5
2FB
330
2F8
100
AcDbEntity
  8
0
 62
    18
420
        0
100
AcDbVertex
100
AcDb3dPolylineVertex
 10
3099.825865575508
 20
676.3424654511025
 30
0.0
 70
    32
  0
VERTEX
  5
2FC
330
2F8
100
AcDbEntity
  8
0
 62
    18
420
        0
100
AcDbVertex
100
AcDb3dPolylineVertex
 10
3119.466307497697
 20
694.3806939029648
 30
0.0
 70
    32
  0
SEQEND
  5
2FD
330
2F8
100
AcDbEntity
  8
Vector Layer 2
 62
    18
420
        0
370
    30
  0
POLYLINE
  5
2FE
330
1F
100
AcDbEntity
  8
Vector Layer 2
 62
    18
420
        0
370
    30
100
AcDb3dPolyline
 66
     1
 10
0.0
 20
0.0
 30
0.0
 70
     8
  0
VERTEX
  5
2FF
330
2FE
100
AcDbEntity
  8
0
 62
    18
420
        0
100
AcDbVertex
100
AcDb3dPolylineVertex
 10
2387.897992491211
 20
958.0722165604417
 30
0.0
 70
    32
  0
VERTEX
  5
300
330
2FE
100
AcDbEntity
  8
0
 62
    18
420
        0
100
AcDbVertex
100
AcDb3dPolylineVertex
 10
2408.162427457897
 20
976.5293524072678
 30
0.0
 70
    32
  0
VERTEX
  5
301
330
2FE
100
AcDbEntity
  8
0
 62
    18
420
        0
100
AcDbVertex
100
AcDb3dPolylineVertex
 10
2490.771903891825
 20
1051.771239550078
 30
0.0
 70
    32
  0
VERTEX
  5
302
330
2FE
100
AcDbEntity
  8
0
 62
    18
420
        0
100
AcDbVertex
100
AcDb3dPolylineVertex
 10
2510.983815037517
 20
1070.180535953028
 30
0.0
 70
    32
  0
SEQEND
  5
303
330
2FE
100
AcDbEntity
  8
Vector Layer 2
 62
    18
420
        0
370
    30
  0
POLYLINE
  5
304
330
1F
100
AcDbEntity
  8
Vector Layer 2
 62
    18
420
        0
370
    30
100
AcDb3dPolyline
 66
     1
 10
0.0
 20
0.0
 30
0.0
 70
     8
  0
VERTEX
  5
305
330
304
100
AcDbEntity
  8
0
 62
    18
420
        0
100
AcDbVertex
100
AcDb3dPolylineVertex
 10
2632.501214247529
 20
957.8270078419832
 30
0.0
 70
    32
  0
VERTEX
  5
306
330
304
100
AcDbEntity
  8
0
 62
    18
420
        0
100
AcDbVertex
100
AcDb3dPolylineVertex
 10
2612.532564870858
 20
939.4138636849017
 30
0.0
 70
    32
  0
VERTEX
  5
307
330
304
100
AcDbEntity
  8
0
 62
    18
420
        0
100
AcDbVertex
100
AcDb3dPolylineVertex
 10
2530.308350255046
 20
863.5946989349571
 30
0.0
 70
    32
  0
VERTEX
  5
308
330
304
100
AcDbEntity
  8
0
 62
    18
420
        0
100
AcDbVertex
100
AcDb3dPolylineVertex
 10
2510.288116990829
 20
845.1339891393761
 30
0.0
 70
    32
  0
SEQEND
  5
309
330
304
100
AcDbEntity
  8
Vector Layer 2
 62
    18
420
        0
370
    30
  0
LWPOLYLINE
  5
30A
330
1F
100
AcDbEntity
  8
Vector Layer 2
 62
    18
420
        0
370
    30
100
AcDbPolyline
 90
        6
 70
     0
 43
0.0
 10
-2713.109037325613
 20
883.2979825744022
 10
-2693.200429230775
 20
864.9757858751161
 10
-2693.200429230775
 20
864.9757858751161
 10
-2610.817169620663
 20
789.1572113110733
 10
-2610.817169620663
 20
789.1572113110733
 10
-2590.856830087551
 20
770.7874053774766
210
0.0
220
0.0
230
-1.0
  0
POLYLINE
  5
30B
330
1F
100
AcDbEntity
  8
Vector Layer 2
 62
    18
420
        0
370
    30
100
AcDb3dPolyline
 66
     1
 10
0.0
 20
0.0
 30
0.0
 70
     8
  0
VERTEX
  5
30C
330
30B
100
AcDbEntity
  8
0
 62
    18
420
        0
100
AcDbVertex
100
AcDb3dPolylineVertex
 10
2712.649453538965
 20
1070.518671957497
 30
0.0
 70
    32
  0
VERTEX
  5
30D
330
30B
100
AcDbEntity
  8
0
 62
    18
420
        0
100
AcDbVertex
100
AcDb3dPolylineVertex
 10
2692.628428782801
 20
1052.093016484435
 30
0.0
 70
    32
  0
VERTEX
  5
30E
330
30B
100
AcDbEntity
  8
0
 62
    18
420
        0
100
AcDbVertex
100
AcDb3dPolylineVertex
 10
2611.399830205297
 20
977.3370941389536
 30
0.0
 70
    32
  0
VERTEX
  5
30F
330
30B
100
AcDbEntity
  8
0
 62
    18
420
        0
100
AcDbVertex
100
AcDb3dPolylineVertex
 10
2591.391029561155
 20
958.9226887032559
 30
0.0
 70
    32
  0
SEQEND
  5
310
330
30B
100
AcDbEntity
  8
Vector Layer 2
 62
    18
420
        0
370
    30
  0
POLYLINE
  5
311
330
1F
100
AcDbEntity
  8
Vector Layer 2
 62
    18
420
        0
370
    30
100
AcDb3dPolyline
 66
     1
 10
0.0
 20
0.0
 30
0.0
 70
     8
  0
VERTEX
  5
312
330
311
100
AcDbEntity
  8
0
 62
    18
420
        0
100
AcDbVertex
100
AcDb3dPolylineVertex
 10
2835.349643618093
 20
957.0715496119923
 30
0.0
 70
    32
  0
VERTEX
  5
313
330
311
100
AcDbEntity
  8
0
 62
    18
420
        0
100
AcDbVertex
100
AcDb3dPolylineVertex
 10
2815.468768804755
 20
938.7393426108236
 30
0.0
 70
    32
  0
VERTEX
  5
314
330
311
100
AcDbEntity
  8
0
 62
    18
420
        0
100
AcDbVertex
100
AcDb3dPolylineVertex
 10
2734.198015255296
 20
863.7993668201193
 30
0.0
 70
    32
  0
VERTEX
  5
315
330
311
100
AcDbEntity
  8
0
 62
    18
420
        0
100
AcDbVertex
100
AcDb3dPolylineVertex
 10
2714.329449151343
 20
845.4785097122774
 30
0.0
 70
    32
  0
SEQEND
  5
316
330
311
100
AcDbEntity
  8
Vector Layer 2
 62
    18
420
        0
370
    30
  0
POLYLINE
  5
317
330
1F
100
AcDbEntity
  8
Vector Layer 2
 62
    18
420
        0
370
    30
100
AcDb3dPolyline
 66
     1
 10
0.0
 20
0.0
 30
0.0
 70
     8
  0
VERTEX
  5
318
330
317
100
AcDbEntity
  8
0
 62
    18
420
        0
100
AcDbVertex
100
AcDb3dPolylineVertex
 10
2916.087316501659
 20
882.4224667735171
 30
0.0
 70
    32
  0
VERTEX
  5
319
330
317
100
AcDbEntity
  8
0
 62
    18
420
        0
100
AcDbVertex
100
AcDb3dPolylineVertex
 10
2896.266696002811
 20
864.1812464053307
 30
0.0
 70
    32
  0
VERTEX
  5
31A
330
317
100
AcDbEntity
  8
0
 62
    18
420
        0
100
AcDbVertex
100
AcDb3dPolylineVertex
 10
2814.837693167993
 20
789.2408889549736
 30
0.0
 70
    32
  0
VERTEX
  5
31B
330
317
100
AcDbEntity
  8
0
 62
    18
420
        0
100
AcDbVertex
100
AcDb3dPolylineVertex
 10
2795.029296781166
 20
771.0109186241516
 30
0.0
 70
    32
  0
SEQEND
  5
31C
330
317
100
AcDbEntity
  8
Vector Layer 2
 62
    18
420
        0
370
    30
  0
POLYLINE
  5
31D
330
1F
100
AcDbEntity
  8
Vector Layer 2
 62
    18
420
        0
370
    30
100
AcDb3dPolyline
 66
     1
 10
0.0
 20
0.0
 30
0.0
 70
     8
  0
VERTEX
  5
31E
330
31D
100
AcDbEntity
  8
0
 62
    18
420
        0
100
AcDbVertex
100
AcDb3dPolylineVertex
 10
2835.86773472223
 20
769.7967650657115
 30
0.0
 70
    32
  0
VERTEX
  5
31F
330
31D
100
AcDbEntity
  8
0
 62
    18
420
        0
100
AcDbVertex
100
AcDb3dPolylineVertex
 10
2816.09922523913
 20
751.568170431355
 30
0.0
 70
    32
  0
VERTEX
  5
320
330
31D
100
AcDbEntity
  8
0
 62
    18
420
        0
100
AcDbVertex
100
AcDb3dPolylineVertex
 10
2733.674870729747
 20
675.5644561586851
 30
0.0
 70
    32
  0
VERTEX
  5
321
330
31D
100
AcDbEntity
  8
0
 62
    18
420
        0
100
AcDbVertex
100
AcDb3dPolylineVertex
 10
2713.854777359101
 20
657.288295885829
 30
0.0
 70
    32
  0
SEQEND
  5
322
330
31D
100
AcDbEntity
  8
Vector Layer 2
 62
    18
420
        0
370
    30
  0
POLYLINE
  5
323
330
1F
100
AcDbEntity
  8
Vector Layer 2
 62
    18
420
        0
370
    30
100
AcDb3dPolyline
 66
     1
 10
0.0
 20
0.0
 30
0.0
 70
     8
  0
VERTEX
  5
324
330
323
100
AcDbEntity
  8
0
 62
    18
420
        0
100
AcDbVertex
100
AcDb3dPolylineVertex
 10
2916.546900288308
 20
695.2017773904218
 30
0.0
 70
    32
  0
VERTEX
  5
325
330
323
100
AcDbEntity
  8
0
 62
    18
420
        0
100
AcDbVertex
100
AcDb3dPolylineVertex
 10
2896.838696450785
 20
677.0640157960117
 30
0.0
 70
    32
  0
VERTEX
  5
326
330
323
100
AcDbEntity
  8
0
 62
    18
420
        0
100
AcDbVertex
100
AcDb3dPolylineVertex
 10
2814.255032583357
 20
601.0610061270925
 30
0.0
 70
    32
  0
VERTEX
  5
327
330
323
100
AcDbEntity
  8
0
 62
    18
420
        0
100
AcDbVertex
100
AcDb3dPolylineVertex
 10
2794.495097307561
 20
582.8756352983719
 30
0.0
 70
    32
  0
SEQEND
  5
328
330
323
100
AcDbEntity
  8
Vector Layer 2
 62
    18
420
        0
370
    30
  0
POLYLINE
  5
329
330
1F
100
AcDbEntity
  8
Vector Layer 2
 62
    18
420
        0
370
    30
100
AcDb3dPolyline
 66
     1
 10
0.0
 20
0.0
 30
0.0
 70
     8
  0
VERTEX
  5
32A
330
329
100
AcDbEntity
  8
0
 62
    18
420
        0
100
AcDbVertex
100
AcDb3dPolylineVertex
 10
2916.650528364232
 20
1070.620331656275
 30
0.0
 70
    32
  0
VERTEX
  5
32B
330
329
100
AcDbEntity
  8
0
 62
    18
420
        0
100
AcDbVertex
100
AcDb3dPolylineVertex
 10
2896.781427595644
 20
1052.334494153935
 30
0.0
 70
    32
  0
VERTEX
  5
32C
330
329
100
AcDbEntity
  8
0
 62
    18
420
        0
100
AcDbVertex
100
AcDb3dPolylineVertex
 10
2814.358660659281
 20
976.4795603929458
 30
0.0
 70
    32
  0
VERTEX
  5
32D
330
329
100
AcDbEntity
  8
0
 62
    18
420
        0
100
AcDbVertex
100
AcDb3dPolylineVertex
 10
2794.43782845242
 20
958.1461136562948
 30
0.0
 70
    32
  0
SEQEND
  5
32E
330
329
100
AcDbEntity
  8
Vector Layer 2
 62
    18
420
        0
370
    30
  0
POLYLINE
  5
32F
330
1F
100
AcDbEntity
  8
Vector Layer 2
 62
    18
420
        0
370
    30
100
AcDb3dPolyline
 66
     1
 10
0.0
 20
0.0
 30
0.0
 70
     8
  0
VERTEX
  5
330
330
32F
100
AcDbEntity
  8
0
 62
    18
420
        0
100
AcDbVertex
100
AcDb3dPolylineVertex
 10
3039.212227077509
 20
957.3012567646104
 30
0.0
 70
    32
  0
VERTEX
  5
331
330
32F
100
AcDbEntity
  8
0
 62
    18
420
        0
100
AcDbVertex
100
AcDb3dPolylineVertex
 10
3019.482992772572
 20
939.1088778754275
 30
0.0
 70
    32
  0
VERTEX
  5
332
330
32F
100
AcDbEntity
  8
0
 62
    18
420
        0
100
AcDbVertex
100
AcDb3dPolylineVertex
 10
2937.019363085027
 20
863.068947857584
 30
0.0
 70
    32
  0
VERTEX
  5
333
330
32F
100
AcDbEntity
  8
0
 62
    18
420
        0
100
AcDbVertex
100
AcDb3dPolylineVertex
 10
2917.238544892543
 20
844.8290033299011
 30
0.0
 70
    32
  0
SEQEND
  5
334
330
32F
100
AcDbEntity
  8
Vector Layer 2
 62
    18
420
        0
370
    30
  0
POLYLINE
  5
335
330
1F
100
AcDbEntity
  8
Vector Layer 2
 62
    18
420
        0
370
    30
100
AcDb3dPolyline
 66
     1
 10
0.0
 20
0.0
 30
0.0
 70
     8
  0
VERTEX
  5
336
330
335
100
AcDbEntity
  8
0
 62
    18
420
        0
100
AcDbVertex
100
AcDb3dPolylineVertex
 10
3120.088391326927
 20
882.5241264722945
 30
0.0
 70
    32
  0
VERTEX
  5
337
330
335
100
AcDbEntity
  8
0
 62
    18
420
        0
100
AcDbVertex
100
AcDb3dPolylineVertex
 10
3100.419694815655
 20
864.4227240748303
 30
0.0
 70
    32
  0
VERTEX
  5
338
330
335
100
AcDbEntity
  8
0
 62
    18
420
        0
100
AcDbVertex
100
AcDb3dPolylineVertex
 10
3017.796523621975
 20
788.3833552089654
 30
0.0
 70
    32
  0
VERTEX
  5
339
330
335
100
AcDbEntity
  8
0
 62
    18
420
        0
100
AcDbVertex
100
AcDb3dPolylineVertex
 10
2998.07609567243
 20
770.2343435771906
 30
0.0
 70
    32
  0
SEQEND
  5
33A
330
335
100
AcDbEntity
  8
Vector Layer 2
 62
    18
420
        0
370
    30
  0
POLYLINE
  5
33B
330
1F
100
AcDbEntity
  8
Vector Layer 2
 62
    18
420
        0
370
    30
100
AcDb3dPolyline
 66
     1
 10
0.0
 20
0.0
 30
0.0
 70
     8
  0
VERTEX
  5
33C
330
33B
100
AcDbEntity
  8
0
 62
    18
420
        0
100
AcDbVertex
100
AcDb3dPolylineVertex
 10
3243.235981568349
 20
768.6633433091767
 30
0.0
 70
    32
  0
VERTEX
  5
33D
330
33B
100
AcDbEntity
  8
0
 62
    18
420
        0
100
AcDbVertex
100
AcDb3dPolylineVertex
 10
3223.666078880752
 20
750.6943639699969
 30
0.0
 70
    32
  0
VERTEX
  5
33E
330
33B
100
AcDbEntity
  8
0
 62
    18
420
        0
100
AcDbVertex
100
AcDb3dPolylineVertex
 10
3140.82639580853
 20
674.6314127458028
 30
0.0
 70
    32
  0
VERTEX
  5
33F
330
33B
100
AcDbEntity
  8
0
 62
    18
420
        0
100
AcDbVertex
100
AcDb3dPolylineVertex
 10
3121.204585994858
 20
656.6147725627805
 30
0.0
 70
    32
  0
SEQEND
  5
340
330
33B
100
AcDbEntity
  8
Vector Layer 2
 62
    18
420
        0
370
    30
  0
POLYLINE
  5
341
330
1F
100
AcDbEntity
  8
Vector Layer 2
 62
    18
420
        0
370
    30
100
AcDb3dPolyline
 66
     1
 10
0.0
 20
0.0
 30
0.0
 70
     8
  0
VERTEX
  5
342
330
341
100
AcDbEntity
  8
0
 62
    18
420
        0
100
AcDbVertex
100
AcDb3dPolylineVertex
 10
3200.757826124889
 20
583.2052392150459
 30
0.0
 70
    32
  0
VERTEX
  5
343
330
341
100
AcDbEntity
  8
0
 62
    18
420
        0
100
AcDbVertex
100
AcDb3dPolylineVertex
 10
3220.298837002375
 20
601.1521479345591
 30
0.0
 70
    32
  0
VERTEX
  5
344
330
341
100
AcDbEntity
  8
0
 62
    18
420
        0
100
AcDbVertex
100
AcDb3dPolylineVertex
 10
3303.206624288536
 20
677.2965449614215
 30
0.0
 70
    32
  0
VERTEX
  5
345
330
341
100
AcDbEntity
  8
0
 62
    18
420
        0
100
AcDbVertex
100
AcDb3dPolylineVertex
 10
3322.695746970718
 20
695.1957983825184
 30
0.0
 70
    32
  0
SEQEND
  5
346
330
341
100
AcDbEntity
  8
Vector Layer 2
 62
    18
420
        0
370
    30
  0
POLYLINE
  5
347
330
1F
100
AcDbEntity
  8
Vector Layer 2
 62
    18
420
        0
370
    30
100
AcDb3dPolyline
 66
     1
 10
0.0
 20
0.0
 30
0.0
 70
     8
  0
VERTEX
  5
348
330
347
100
AcDbEntity
  8
0
 62
    18
420
        0
100
AcDbVertex
100
AcDb3dPolylineVertex
 10
3119.189847677033
 20
1069.340834375661
 30
0.0
 70
    32
  0
VERTEX
  5
349
330
347
100
AcDbEntity
  8
0
 62
    18
420
        0
100
AcDbVertex
100
AcDb3dPolylineVertex
 10
3099.376100767403
 20
1051.105939876823
 30
0.0
 70
    32
  0
VERTEX
  5
34A
330
347
100
AcDbEntity
  8
0
 62
    18
420
        0
100
AcDbVertex
100
AcDb3dPolylineVertex
 10
3018.379184206612
 20
976.5632380368463
 30
0.0
 70
    32
  0
VERTEX
  5
34B
330
347
100
AcDbEntity
  8
0
 62
    18
420
        0
100
AcDbVertex
100
AcDb3dPolylineVertex
 10
2998.610295146035
 20
958.3696269029699
 30
0.0
 70
    32
  0
SEQEND
  5
34C
330
347
100
AcDbEntity
  8
Vector Layer 2
 62
    18
420
        0
370
    30
  0
POLYLINE
  5
34D
330
1F
100
AcDbEntity
  8
Vector Layer 2
 62
    18
420
        0
370
    30
100
AcDb3dPolyline
 66
     1
 10
0.0
 20
0.0
 30
0.0
 70
     8
  0
VERTEX
  5
34E
330
34D
100
AcDbEntity
  8
0
 62
    18
420
        0
100
AcDbVertex
100
AcDb3dPolylineVertex
 10
3241.622121434397
 20
956.1414242440791
 30
0.0
 70
    32
  0
VERTEX
  5
34F
330
34D
100
AcDbEntity
  8
0
 62
    18
420
        0
100
AcDbVertex
100
AcDb3dPolylineVertex
 10
3221.948059989685
 20
937.99992039455
 30
0.0
 70
    32
  0
VERTEX
  5
350
330
34D
100
AcDbEntity
  8
0
 62
    18
420
        0
100
AcDbVertex
100
AcDb3dPolylineVertex
 10
3140.909028085276
 20
863.2736157427466
 30
0.0
 70
    32
  0
VERTEX
  5
351
330
34D
100
AcDbEntity
  8
0
 62
    18
420
        0
100
AcDbVertex
100
AcDb3dPolylineVertex
 10
3121.279877053056
 20
845.1735239028025
 30
0.0
 70
    32
  0
SEQEND
  5
352
330
34D
100
AcDbEntity
  8
Vector Layer 2
 62
    18
420
        0
370
    30
  0
POLYLINE
  5
353
330
1F
100
AcDbEntity
  8
Vector Layer 2
 62
    18
420
        0
370
    30
100
AcDb3dPolyline
 66
     1
 10
0.0
 20
0.0
 30
0.0
 70
     8
  0
VERTEX
  5
354
330
353
100
AcDbEntity
  8
0
 62
    18
420
        0
100
AcDbVertex
100
AcDb3dPolylineVertex
 10
3202.274663739156
 20
770.4337711974776
 30
0.0
 70
    32
  0
VERTEX
  5
355
330
353
100
AcDbEntity
  8
0
 62
    18
420
        0
100
AcDbVertex
100
AcDb3dPolylineVertex
 10
3221.863217466041
 20
788.4243443509237
 30
0.0
 70
    32
  0
VERTEX
  5
356
330
353
100
AcDbEntity
  8
0
 62
    18
420
        0
100
AcDbVertex
100
AcDb3dPolylineVertex
 10
3303.144046566447
 20
863.074505985703
 30
0.0
 70
    32
  0
VERTEX
  5
357
330
353
100
AcDbEntity
  8
0
 62
    18
420
        0
100
AcDbVertex
100
AcDb3dPolylineVertex
 10
3322.777402169406
 20
881.1062262008547
 30
0.0
 70
    32
  0
SEQEND
  5
358
330
353
100
AcDbEntity
  8
Vector Layer 2
 62
    18
420
        0
370
    30
  0
LWPOLYLINE
  5
359
330
1F
100
AcDbEntity
  8
Vector Layer 2
 62
    18
420
        0
370
    30
100
AcDbPolyline
 90
        6
 70
     0
 43
0.0
 10
3445.007670155799
 20
768.0935881793956
 10
3425.492428036394
 20
750.174797879794
 10
3425.492428036394
 20
750.174797879794
 10
3344.08099320865
 20
675.4232565080593
 10
3344.08099320865
 20
675.4232565080593
 10
3324.610546196711
 20
657.5455968350812
  0
POLYLINE
  5
35A
330
1F
100
AcDbEntity
  8
Vector Layer 2
 62
    18
420
        0
370
    30
100
AcDb3dPolyline
 66
     1
 10
0.0
 20
0.0
 30
0.0
 70
     8
  0
VERTEX
  5
35B
330
35A
100
AcDbEntity
  8
0
 62
    18
420
        0
100
AcDbVertex
100
AcDb3dPolylineVertex
 10
2428.897696275937
 20
770.0836679404069
 30
0.0
 70
    32
  0
VERTEX
  5
35C
330
35A
100
AcDbEntity
  8
0
 62
    18
420
        0
100
AcDbVertex
100
AcDb3dPolylineVertex
 10
2408.899348219723
 20
751.6431385527376
 30
0.0
 70
    32
  0
VERTEX
  5
35D
330
35A
100
AcDbEntity
  8
0
 62
    18
420
        0
100
AcDbVertex
100
AcDb3dPolylineVertex
 10
2326.704832283457
 20
675.8513590333807
 30
0.0
 70
    32
  0
VERTEX
  5
35E
330
35A
100
AcDbEntity
  8
0
 62
    18
420
        0
100
AcDbVertex
100
AcDb3dPolylineVertex
 10
2306.654900339695
 20
657.3632640072117
 30
0.0
 70
    32
  0
SEQEND
  5
35F
330
35A
100
AcDbEntity
  8
Vector Layer 2
 62
    18
420
        0
370
    30
  0
LINE
  5
360
330
1F
100
AcDbEntity
  8
Vector Layer 2
 62
    18
420
        0
370
    30
100
AcDbLine
 10
2305.307194903263
 20
695.6353576091787
 30
0.0
 11
2326.704832283457
 21
675.8513590333806
 31
0.0
  0
POLYLINE
  5
361
330
1F
100
AcDbEntity
  8
Vector Layer 2
 62
    18
420
        0
370
    30
100
AcDb3dPolyline
 66
     1
 10
0.0
 20
0.0
 30
0.0
 70
     8
  0
VERTEX
  5
362
330
361
100
AcDbEntity
  8
0
 62
    18
420
        0
100
AcDbVertex
100
AcDb3dPolylineVertex
 10
2307.310664661363
 20
845.3863706478783
 30
0.0
 70
    32
  0
VERTEX
  5
363
330
361
100
AcDbEntity
  8
0
 62
    18
420
        0
100
AcDbVertex
100
AcDb3dPolylineVertex
 10
2327.360204012782
 20
863.964014010007
 30
0.0
 70
    32
  0
VERTEX
  5
364
330
361
100
AcDbEntity
  8
0
 62
    18
420
        0
100
AcDbVertex
100
AcDb3dPolylineVertex
 10
2408.453581404512
 20
939.104086697386
 30
0.0
 70
    32
  0
VERTEX
  5
365
330
361
100
AcDbEntity
  8
0
 62
    18
420
        0
100
AcDbVertex
100
AcDb3dPolylineVertex
 10
2428.525194075652
 20
957.702182911543
 30
0.0
 70
    32
  0
SEQEND
  5
366
330
361
100
AcDbEntity
  8
Vector Layer 2
 62
    18
420
        0
370
    30
  0
LINE
  5
367
330
1F
100
AcDbEntity
  8
Vector Layer 2
 62
    18
420
        0
370
    30
100
AcDbLine
 10
2306.128060770066
 20
883.5949986935704
 30
0.0
 11
2327.360204012782
 21
863.964014010007
 31
0.0
  0
LINE
  5
368
330
1F
100
AcDbEntity
  8
Vector Layer 2
 62
    18
420
        0
370
    30
100
AcDbLine
 10
2305.888928477426
 20
1071.090201449623
 30
0.0
 11
2327.123109229975
 21
1051.457332908933
 31
0.0
  0
POLYLINE
  5
369
330
1F
100
AcDbEntity
  8
Vector Layer 2
 62
    18
420
        0
370
    30
100
AcDb3dPolyline
 66
     1
 10
0.0
 20
0.0
 30
0.0
 70
     8
  0
VERTEX
  5
36A
330
369
100
AcDbEntity
  8
0
 62
    18
420
        0
100
AcDbVertex
100
AcDb3dPolylineVertex
 10
2306.951945309394
 20
1032.766993797024
 30
0.0
 70
    32
  0
VERTEX
  5
36B
330
369
100
AcDbEntity
  8
0
 62
    18
420
        0
100
AcDbVertex
100
AcDb3dPolylineVertex
 10
2327.123109229975
 20
1051.457332908933
 30
0.0
 70
    32
  0
VERTEX
  5
36C
330
369
100
AcDbEntity
  8
0
 62
    18
420
        0
100
AcDbVertex
100
AcDb3dPolylineVertex
 10
2392.544201361214
 20
1112.075669154606
 30
0.0
 70
    32
  0
SEQEND
  5
36D
330
369
100
AcDbEntity
  8
Vector Layer 2
 62
    18
420
        0
370
    30
  0
POLYLINE
  5
36E
330
1F
100
AcDbEntity
  8
Vector Layer 2
 62
    18
420
        0
370
    30
100
AcDb3dPolyline
 66
     1
 10
0.0
 20
0.0
 30
0.0
 70
     8
  0
VERTEX
  5
36F
330
36E
100
AcDbEntity
  8
0
 62
    18
420
        0
100
AcDbVertex
100
AcDb3dPolylineVertex
 10
2465.671596437839
 20
1112.075669154606
 30
0.0
 70
    32
  0
VERTEX
  5
370
330
36E
100
AcDbEntity
  8
0
 62
    18
420
        0
100
AcDbVertex
100
AcDb3dPolylineVertex
 10
2510.983815037517
 20
1070.180535953028
 30
0.0
 70
    32
  0
VERTEX
  5
371
330
36E
100
AcDbEntity
  8
0
 62
    18
420
        0
100
AcDbVertex
100
AcDb3dPolylineVertex
 10
2530.47049927431
 20
1052.163381706617
 30
0.0
 70
    32
  0
SEQEND
  5
372
330
36E
100
AcDbEntity
  8
Vector Layer 2
 62
    18
420
        0
370
    30
  0
POLYLINE
  5
373
330
1F
100
AcDbEntity
  8
Vector Layer 2
 62
    18
420
        0
370
    30
100
AcDb3dPolyline
 66
     1
 10
0.0
 20
0.0
 30
0.0
 70
     8
  0
VERTEX
  5
374
330
373
100
AcDbEntity
  8
0
 62
    18
420
        0
100
AcDbVertex
100
AcDb3dPolylineVertex
 10
2510.450102367554
 20
1033.612741356086
 30
0.0
 70
    32
  0
VERTEX
  5
375
330
373
100
AcDbEntity
  8
0
 62
    18
420
        0
100
AcDbVertex
100
AcDb3dPolylineVertex
 10
2530.47049927431
 20
1052.163381706617
 30
0.0
 70
    32
  0
VERTEX
  5
376
330
373
100
AcDbEntity
  8
0
 62
    18
420
        0
100
AcDbVertex
100
AcDb3dPolylineVertex
 10
2595.129602768067
 20
1112.075669154606
 30
0.0
 70
    32
  0
SEQEND
  5
377
330
373
100
AcDbEntity
  8
Vector Layer 2
 62
    18
420
        0
370
    30
  0
POLYLINE
  5
378
330
1F
100
AcDbEntity
  8
Vector Layer 2
 62
    18
420
        0
370
    30
100
AcDb3dPolyline
 66
     1
 10
0.0
 20
0.0
 30
0.0
 70
     8
  0
VERTEX
  5
379
330
378
100
AcDbEntity
  8
0
 62
    18
420
        0
100
AcDbVertex
100
AcDb3dPolylineVertex
 10
2667.702950271358
 20
1112.075669154606
 30
0.0
 70
    32
  0
VERTEX
  5
37A
330
378
100
AcDbEntity
  8
0
 62
    18
420
        0
100
AcDbVertex
100
AcDb3dPolylineVertex
 10
2712.649453538966
 20
1070.518671957497
 30
0.0
 70
    32
  0
VERTEX
  5
37B
330
378
100
AcDbEntity
  8
0
 62
    18
420
        0
100
AcDbVertex
100
AcDb3dPolylineVertex
 10
2733.652842610327
 20
1051.099190633856
 30
0.0
 70
    32
  0
SEQEND
  5
37C
330
378
100
AcDbEntity
  8
Vector Layer 2
 62
    18
420
        0
370
    30
  0
POLYLINE
  5
37D
330
1F
100
AcDbEntity
  8
Vector Layer 2
 62
    18
420
        0
370
    30
100
AcDb3dPolyline
 66
     1
 10
0.0
 20
0.0
 30
0.0
 70
     8
  0
VERTEX
  5
37E
330
37D
100
AcDbEntity
  8
0
 62
    18
420
        0
100
AcDbVertex
100
AcDb3dPolylineVertex
 10
2799.780490849952
 20
1112.075669154606
 30
0.0
 70
    32
  0
VERTEX
  5
37F
330
37D
100
AcDbEntity
  8
0
 62
    18
420
        0
100
AcDbVertex
100
AcDb3dPolylineVertex
 10
2733.652842610327
 20
1051.099190633856
 30
0.0
 70
    32
  0
VERTEX
  5
380
330
37D
100
AcDbEntity
  8
0
 62
    18
420
        0
100
AcDbVertex
100
AcDb3dPolylineVertex
 10
2713.67188452427
 20
1032.674696583448
 30
0.0
 70
    32
  0
SEQEND
  5
381
330
37D
100
AcDbEntity
  8
Vector Layer 2
 62
    18
420
        0
370
    30
  0
POLYLINE
  5
382
330
1F
100
AcDbEntity
  8
Vector Layer 2
 62
    18
420
        0
370
    30
100
AcDb3dPolyline
 66
     1
 10
0.0
 20
0.0
 30
0.0
 70
     8
  0
VERTEX
  5
383
330
382
100
AcDbEntity
  8
0
 62
    18
420
        0
100
AcDbVertex
100
AcDb3dPolylineVertex
 10
2871.813976447575
 20
1112.075669154606
 30
0.0
 70
    32
  0
VERTEX
  5
384
330
382
100
AcDbEntity
  8
0
 62
    18
420
        0
100
AcDbVertex
100
AcDb3dPolylineVertex
 10
2916.650528364232
 20
1070.620331656275
 30
0.0
 70
    32
  0
VERTEX
  5
385
330
382
100
AcDbEntity
  8
0
 62
    18
420
        0
100
AcDbVertex
100
AcDb3dPolylineVertex
 10
2937.542507610576
 20
1051.303858519018
 30
0.0
 70
    32
  0
SEQEND
  5
386
330
382
100
AcDbEntity
  8
Vector Layer 2
 62
    18
420
        0
370
    30
  0
POLYLINE
  5
387
330
1F
100
AcDbEntity
  8
Vector Layer 2
 62
    18
420
        0
370
    30
100
AcDb3dPolyline
 66
     1
 10
0.0
 20
0.0
 30
0.0
 70
     8
  0
VERTEX
  5
388
330
387
100
AcDbEntity
  8
0
 62
    18
420
        0
100
AcDbVertex
100
AcDb3dPolylineVertex
 10
3003.448198035576
 20
1112.075669154606
 30
0.0
 70
    32
  0
VERTEX
  5
389
330
387
100
AcDbEntity
  8
0
 62
    18
420
        0
100
AcDbVertex
100
AcDb3dPolylineVertex
 10
2937.542507610576
 20
1051.303858519018
 30
0.0
 70
    32
  0
VERTEX
  5
38A
330
387
100
AcDbEntity
  8
0
 62
    18
420
        0
100
AcDbVertex
100
AcDb3dPolylineVertex
 10
2917.713216684784
 20
1033.01921715635
 30
0.0
 70
    32
  0
SEQEND
  5
38B
330
387
100
AcDbEntity
  8
Vector Layer 2
 62
    18
420
        0
370
    30
  0
POLYLINE
  5
38C
330
1F
100
AcDbEntity
  8
Vector Layer 2
 62
    18
420
        0
370
    30
100
AcDb3dPolyline
 66
     1
 10
0.0
 20
0.0
 30
0.0
 70
     8
  0
VERTEX
  5
38D
330
38C
100
AcDbEntity
  8
0
 62
    18
420
        0
100
AcDbVertex
100
AcDb3dPolylineVertex
 10
3072.969439067572
 20
1112.075669154606
 30
0.0
 70
    32
  0
VERTEX
  5
38E
330
38C
100
AcDbEntity
  8
0
 62
    18
420
        0
100
AcDbVertex
100
AcDb3dPolylineVertex
 10
3119.189847677033
 20
1069.340834375661
 30
0.0
 70
    32
  0
VERTEX
  5
38F
330
38C
100
AcDbEntity
  8
0
 62
    18
420
        0
100
AcDbVertex
100
AcDb3dPolylineVertex
 10
3139.92532042663
 20
1050.169065265943
 30
0.0
 70
    32
  0
SEQEND
  5
390
330
38C
100
AcDbEntity
  8
Vector Layer 2
 62
    18
420
        0
370
    30
  0
POLYLINE
  5
391
330
1F
100
AcDbEntity
  8
Vector Layer 2
 62
    18
420
        0
370
    30
100
AcDb3dPolyline
 66
     1
 10
0.0
 20
0.0
 30
0.0
 70
     8
  0
VERTEX
  5
392
330
391
100
AcDbEntity
  8
0
 62
    18
420
        0
100
AcDbVertex
100
AcDb3dPolylineVertex
 10
3207.061669146183
 20
1112.075669154606
 30
0.0
 70
    32
  0
VERTEX
  5
393
330
391
100
AcDbEntity
  8
0
 62
    18
420
        0
100
AcDbVertex
100
AcDb3dPolylineVertex
 10
3139.925320426631
 20
1050.169065265943
 30
0.0
 70
    32
  0
VERTEX
  5
394
330
391
100
AcDbEntity
  8
0
 62
    18
420
        0
100
AcDbVertex
100
AcDb3dPolylineVertex
 10
3120.1511757092
 20
1031.935274367175
 30
0.0
 70
    32
  0
SEQEND
  5
395
330
391
100
AcDbEntity
  8
Vector Layer 2
 62
    18
420
        0
370
    30
  0
POLYLINE
  5
396
330
1F
100
AcDbEntity
  8
Vector Layer 2
 62
    18
420
        0
370
    30
100
AcDb3dPolyline
 66
     1
 10
0.0
 20
0.0
 30
0.0
 70
     8
  0
VERTEX
  5
397
330
396
100
AcDbEntity
  8
0
 62
    18
420
        0
100
AcDbVertex
100
AcDb3dPolylineVertex
 10
3277.080465243788
 20
1112.075669154606
 30
0.0
 70
    32
  0
VERTEX
  5
398
330
396
100
AcDbEntity
  8
0
 62
    18
420
        0
100
AcDbVertex
100
AcDb3dPolylineVertex
 10
3323.190922502296
 20
1069.442494074439
 30
0.0
 70
    32
  0
VERTEX
  5
399
330
396
100
AcDbEntity
  8
0
 62
    18
420
        0
100
AcDbVertex
100
AcDb3dPolylineVertex
 10
3343.814985426878
 20
1050.373733151105
 30
0.0
 70
    32
  0
SEQEND
  5
39A
330
396
100
AcDbEntity
  8
Vector Layer 2
 62
    18
420
        0
370
    30
  0
LWPOLYLINE
  5
39B
330
1F
100
AcDbEntity
  8
Vector Layer 2
 62
    18
420
        0
370
    30
100
AcDbPolyline
 90
        8
 70
     0
 43
0.0
 10
-3369.515453803869
 20
1112.075669154606
 10
-3323.190922502296
 20
1069.442494074439
 10
-3323.190922502296
 20
1069.442494074439
 10
-3303.529099580245
 20
1051.347417546323
 10
-3303.529099580245
 20
1051.347417546323
 10
-3220.899054797348
 20
975.3017228111096
 10
-3220.899054797348
 20
975.3017228111096
 10
-3201.185500437021
 20
957.1590370486829
210
0.0
220
0.0
230
-1.0
  0
POLYLINE
  5
39C
330
1F
100
AcDbEntity
  8
Vector Layer 2
 62
    18
420
        0
370
    30
100
AcDb3dPolyline
 66
     1
 10
0.0
 20
0.0
 30
0.0
 70
     8
  0
VERTEX
  5
39D
330
39C
100
AcDbEntity
  8
0
 62
    18
420
        0
100
AcDbVertex
100
AcDb3dPolylineVertex
 10
3410.729376331803
 20
1112.075669154606
 30
0.0
 70
    32
  0
VERTEX
  5
39E
330
39C
100
AcDbEntity
  8
0
 62
    18
420
        0
100
AcDbVertex
100
AcDb3dPolylineVertex
 10
3343.814985426878
 20
1050.373733151105
 30
0.0
 70
    32
  0
VERTEX
  5
39F
330
39C
100
AcDbEntity
  8
0
 62
    18
420
        0
100
AcDbVertex
100
AcDb3dPolylineVertex
 10
3324.192507869712
 20
1032.279794940076
 30
0.0
 70
    32
  0
SEQEND
  5
3A0
330
39C
100
AcDbEntity
  8
Vector Layer 2
 62
    18
420
        0
370
    30
  0
LINE
  5
3A1
330
1F
100
AcDbEntity
  8
Vector Layer 2
 62
    18
420
        0
370
    30
100
AcDbLine
 10
3507.778826503513
 20
1051.015740929672
 30
0.0
 11
3516.229419024084
 21
1043.217767491596
 31
0.0
  0
POLYLINE
  5
3A2
330
1F
100
AcDbEntity
  8
Vector Layer 2
 62
    18
420
        0
370
    30
100
AcDb3dPolyline
 66
     1
 10
0.0
 20
0.0
 30
0.0
 70
     8
  0
VERTEX
  5
3A3
330
3A2
100
AcDbEntity
  8
0
 62
    18
420
        0
100
AcDbVertex
100
AcDb3dPolylineVertex
 10
3405.59284473009
 20
957.1658117320781
 30
0.0
 70
    32
  0
VERTEX
  5
3A4
330
3A2
100
AcDbEntity
  8
0
 62
    18
420
        0
100
AcDbVertex
100
AcDb3dPolylineVertex
 10
3425.174312137747
 20
975.1498766488136
 30
0.0
 70
    32
  0
VERTEX
  5
3A5
330
3A2
100
AcDbEntity
  8
0
 62
    18
420
        0
100
AcDbVertex
100
AcDb3dPolylineVertex
 10
3507.778826503513
 20
1051.015740929672
 30
0.0
 70
    32
  0
VERTEX
  5
3A6
330
3A2
100
AcDbEntity
  8
0
 62
    18
420
        0
100
AcDbVertex
100
AcDb3dPolylineVertex
 10
3516.229419024084
 20
1058.776957252786
 30
0.0
 70
    32
  0
SEQEND
  5
3A7
330
3A2
100
AcDbEntity
  8
Vector Layer 2
 62
    18
420
        0
370
    30
  0
LINE
  5
3A8
330
1F
100
AcDbEntity
  8
Vector Layer 2
 62
    18
420
        0
370
    30
100
AcDbLine
 10
3480.724206885303
 20
1112.075669154606
 30
0.0
 11
3516.229419024084
 21
1079.247976362818
 31
0.0
  0
LWPOLYLINE
  5
3A9
330
1F
100
AcDbEntity
  8
Vector Layer 2
 62
    18
420
        0
370
    30
100
AcDbPolyline
 90
        8
 70
     0
 43
0.0
 10
3516.229419024084
 20
1019.324448562538
 10
3446.572244275314
 20
955.3656055438874
 10
3446.572244275314
 20
955.3656055438874
 10
3427.009453606328
 20
937.4031564219256
 10
3427.009453606328
 20
937.4031564219256
 10
3344.162658515498
 20
861.3336749805132
 10
3344.162658515498
 20
861.3336749805132
 10
3324.547960720437
 20
843.3235650147093
  0
POLYLINE
  5
3AA
330
1F
100
AcDbEntity
  8
Vector Layer 2
 62
    18
420
        0
370
    30
100
AcDb3dPolyline
 66
     1
 10
0.0
 20
0.0
 30
0.0
 70
     8
  0
VERTEX
  5
3AB
330
3AA
100
AcDbEntity
  8
0
 62
    18
420
        0
100
AcDbVertex
100
AcDb3dPolylineVertex
 10
3404.076007115824
 20
769.9372797496471
 30
0.0
 70
    32
  0
VERTEX
  5
3AC
330
3AA
100
AcDbEntity
  8
0
 62
    18
420
        0
100
AcDbVertex
100
AcDb3dPolylineVertex
 10
3423.609931674081
 20
787.8776802324493
 30
0.0
 70
    32
  0
VERTEX
  5
3AD
330
3AA
100
AcDbEntity
  8
0
 62
    18
420
        0
100
AcDbVertex
100
AcDb3dPolylineVertex
 10
3506.524805279468
 20
864.0285854960225
 30
0.0
 70
    32
  0
VERTEX
  5
3AE
330
3AA
100
AcDbEntity
  8
0
 62
    18
420
        0
100
AcDbVertex
100
AcDb3dPolylineVertex
 10
3516.229419024084
 20
872.9415234256268
 30
0.0
 70
    32
  0
SEQEND
  5
3AF
330
3AA
100
AcDbEntity
  8
Vector Layer 2
 62
    18
420
        0
370
    30
  0
POLYLINE
  5
3B0
330
1F
100
AcDbEntity
  8
Vector Layer 2
 62
    18
420
        0
370
    30
100
AcDb3dPolyline
 66
     1
 10
0.0
 20
0.0
 30
0.0
 70
     8
  0
VERTEX
  5
3B1
330
3B0
100
AcDbEntity
  8
0
 62
    18
420
        0
100
AcDbVertex
100
AcDb3dPolylineVertex
 10
3425.174312137747
 20
975.1498766488136
 30
0.0
 70
    32
  0
VERTEX
  5
3B2
330
3B0
100
AcDbEntity
  8
0
 62
    18
420
        0
100
AcDbVertex
100
AcDb3dPolylineVertex
 10
3446.572244275314
 20
955.3656055438874
 30
0.0
 70
    32
  0
VERTEX
  5
3B3
330
3B0
100
AcDbEntity
  8
0
 62
    18
420
        0
100
AcDbVertex
100
AcDb3dPolylineVertex
 10
3516.229419024084
 20
890.9614182246171
 30
0.0
 70
    32
  0
SEQEND
  5
3B4
330
3B0
100
AcDbEntity
  8
Vector Layer 2
 62
    18
420
        0
370
    30
  0
LINE
  5
3B5
330
1F
100
AcDbEntity
  8
Vector Layer 2
 62
    18
420
        0
370
    30
100
AcDbLine
 10
3506.524805279468
 20
864.0285854960222
 30
0.0
 11
3516.229419024084
 21
855.0734358987485
 31
0.0
  0
POLYLINE
  5
3B6
330
1F
100
AcDbEntity
  8
Vector Layer 2
 62
    18
420
        0
370
    30
100
AcDb3dPolyline
 66
     1
 10
0.0
 20
0.0
 30
0.0
 70
     8
  0
VERTEX
  5
3B7
330
3B6
100
AcDbEntity
  8
0
 62
    18
420
        0
100
AcDbVertex
100
AcDb3dPolylineVertex
 10
3405.313073358968
 20
583.0755331484112
 30
0.0
 70
    32
  0
VERTEX
  5
3B8
330
3B6
100
AcDbEntity
  8
0
 62
    18
420
        0
100
AcDbVertex
100
AcDb3dPolylineVertex
 10
3424.701607973242
 20
600.882404200737
 30
0.0
 70
    32
  0
VERTEX
  5
3B9
330
3B6
100
AcDbEntity
  8
0
 62
    18
420
        0
100
AcDbVertex
100
AcDb3dPolylineVertex
 10
3506.182456186256
 20
675.7162679366364
 30
0.0
 70
    32
  0
VERTEX
  5
3BA
330
3B6
100
AcDbEntity
  8
0
 62
    18
420
        0
100
AcDbVertex
100
AcDb3dPolylineVertex
 10
3516.229419024084
 20
684.9436270578875
 30
0.0
 70
    32
  0
SEQEND
  5
3BB
330
3B6
100
AcDbEntity
  8
Vector Layer 2
 62
    18
420
        0
370
    30
  0
POLYLINE
  5
3BC
330
1F
100
AcDbEntity
  8
Vector Layer 2
 62
    18
420
        0
370
    30
100
AcDb3dPolyline
 66
     1
 10
0.0
 20
0.0
 30
0.0
 70
     8
  0
VERTEX
  5
3BD
330
3BC
100
AcDbEntity
  8
0
 62
    18
420
        0
100
AcDbVertex
100
AcDb3dPolylineVertex
 10
3423.609931674081
 20
787.8776802324497
 30
0.0
 70
    32
  0
VERTEX
  5
3BE
330
3BC
100
AcDbEntity
  8
0
 62
    18
420
        0
100
AcDbVertex
100
AcDb3dPolylineVertex
 10
3445.007670155799
 20
768.0935881793958
 30
0.0
 70
    32
  0
VERTEX
  5
3BF
330
3BC
100
AcDbEntity
  8
0
 62
    18
420
        0
100
AcDbVertex
100
AcDb3dPolylineVertex
 10
3516.229419024084
 20
702.2428144168539
 30
0.0
 70
    32
  0
SEQEND
  5
3C0
330
3BC
100
AcDbEntity
  8
Vector Layer 2
 62
    18
420
        0
370
    30
  0
LINE
  5
3C1
330
1F
100
AcDbEntity
  8
Vector Layer 2
 62
    18
420
        0
370
    30
100
AcDbLine
 10
3506.182456186256
 20
675.7162679366365
 30
0.0
 11
3516.229419024084
 21
666.445208049177
 31
0.0
  0
POLYLINE
  5
3C2
330
1F
100
AcDbEntity
  8
Vector Layer 2
 62
    18
420
        0
370
    30
100
AcDb3dPolyline
 66
     1
 10
0.0
 20
0.0
 30
0.0
 70
     8
  0
VERTEX
  5
3C3
330
3C2
100
AcDbEntity
  8
0
 62
    18
420
        0
100
AcDbVertex
100
AcDb3dPolylineVertex
 10
3424.701607973241
 20
600.8824042007367
 30
0.0
 70
    32
  0
VERTEX
  5
3C4
330
3C2
100
AcDbEntity
  8
0
 62
    18
420
        0
100
AcDbVertex
100
AcDb3dPolylineVertex
 10
3446.099481594399
 20
581.0981871993792
 30
0.0
 70
    32
  0
VERTEX
  5
3C5
330
3C2
100
AcDbEntity
  8
0
 62
    18
420
        0
100
AcDbVertex
100
AcDb3dPolylineVertex
 10
3516.229419024084
 20
516.2568891823381
 30
0.0
 70
    32
  0
SEQEND
  5
3C6
330
3C2
100
AcDbEntity
  8
Vector Layer 2
 62
    18
420
        0
370
    30
  0
POLYLINE
  5
3C7
330
1F
100
AcDbEntity
  8
Vector Layer 2
 62
    18
420
        0
370
    30
100
AcDb3dPolyline
 66
     1
 10
0.0
 20
0.0
 30
0.0
 70
     8
  0
VERTEX
  5
3C8
330
3C7
100
AcDbEntity
  8
0
 62
    18
420
        0
100
AcDbVertex
100
AcDb3dPolylineVertex
 10
2428.401633291222
 20
581.8237180115167
 30
0.0
 70
    32
  0
VERTEX
  5
3C9
330
3C7
100
AcDbEntity
  8
0
 62
    18
420
        0
100
AcDbVertex
100
AcDb3dPolylineVertex
 10
2408.451784620178
 20
563.4279100345869
 30
0.0
 70
    32
  0
VERTEX
  5
3CA
330
3C7
100
AcDbEntity
  8
0
 62
    18
420
        0
100
AcDbVertex
100
AcDb3dPolylineVertex
 10
2342.350421568249
 20
502.475669154606
 30
0.0
 70
    32
  0
SEQEND
  5
3CB
330
3C7
100
AcDbEntity
  8
Vector Layer 2
 62
    18
420
        0
370
    30
  0
LWPOLYLINE
  5
3CC
330
1F
100
AcDbEntity
  8
Vector Layer 2
 62
    18
420
        0
370
    30
100
AcDbPolyline
 90
       10
 70
     0
 43
0.0
 10
2509.308269728528
 20
695.7370173079559
 10
2489.369739845638
 20
677.3872831292213
 10
2489.369739845638
 20
677.3872831292213
 10
2407.016402023578
 20
601.596246044627
 10
2407.016402023578
 20
601.596246044627
 10
2387.026140702414
 20
583.1989026315817
 10
2387.026140702414
 20
583.1989026315817
 10
2306.680198106108
 20
509.2553020932424
 10
2306.680198106108
 20
509.2553020932424
 10
2299.313556571939
 20
502.475669154606
  0
LWPOLYLINE
  5
3CD
330
1F
100
AcDbEntity
  8
Vector Layer 2
 62
    18
420
        0
370
    30
100
AcDbPolyline
 90
        8
 70
     0
 43
0.0
 10
-2297.029419024086
 20
502.475669154606
 10
-2297.029419024086
 20
1112.075669154606
 10
-2297.029419024086
 20
1112.075669154606
 10
-3516.229419024084
 20
1112.075669154606
 10
-3516.229419024084
 20
1112.075669154606
 10
-3516.229419024084
 20
502.4756691546062
 10
-3516.229419024084
 20
502.4756691546062
 10
-2297.029419024086
 20
502.475669154606
210
0.0
220
0.0
230
-1.0
  0
POLYLINE
  5
3CE
330
1F
100
AcDbEntity
  8
Vector Layer 2
 62
    18
420
        0
370
    30
100
AcDb3dPolyline
 66
     1
 10
0.0
 20
0.0
 30
0.0
 70
     8
  0
VERTEX
  5
3CF
330
3CE
100
AcDbEntity
  8
0
 62
    18
420
        0
100
AcDbVertex
100
AcDb3dPolylineVertex
 10
2297.029419024086
 20
666.2453923840234
 30
0.0
 70
    32
  0
VERTEX
  5
3D0
330
3CE
100
AcDbEntity
  8
0
 62
    18
420
        0
100
AcDbVertex
100
AcDb3dPolylineVertex
 10
2306.654900339696
 20
657.363264007212
 30
0.0
 70
    32
  0
VERTEX
  5
3D1
330
3CE
100
AcDbEntity
  8
0
 62
    18
420
        0
100
AcDbVertex
100
AcDb3dPolylineVertex
 10
2387.026140702415
 20
583.1989026315819
 30
0.0
 70
    32
  0
VERTEX
  5
3D2
330
3CE
100
AcDbEntity
  8
0
 62
    18
420
        0
100
AcDbVertex
100
AcDb3dPolylineVertex
 10
2408.451784620178
 20
563.4279100345871
 30
0.0
 70
    32
  0
SEQEND
  5
3D3
330
3CE
100
AcDbEntity
  8
Vector Layer 2
 62
    18
420
        0
370
    30
  0
LINE
  5
3D4
330
1F
100
AcDbEntity
  8
Vector Layer 2
 62
    18
420
        0
370
    30
100
AcDbLine
 10
2305.307194903263
 20
695.6353576091785
 30
0.0
 11
2297.029419024086
 21
688.017193789368
 31
0.0
  0
POLYLINE
  5
3D5
330
1F
100
AcDbEntity
  8
Vector Layer 2
 62
    18
420
        0
370
    30
100
AcDb3dPolyline
 66
     1
 10
0.0
 20
0.0
 30
0.0
 70
     8
  0
VERTEX
  5
3D6
330
3D5
100
AcDbEntity
  8
0
 62
    18
420
        0
100
AcDbVertex
100
AcDb3dPolylineVertex
 10
2297.029419024086
 20
854.8736202335936
 30
0.0
 70
    32
  0
VERTEX
  5
3D7
330
3D5
100
AcDbEntity
  8
0
 62
    18
420
        0
100
AcDbVertex
100
AcDb3dPolylineVertex
 10
2307.310664661363
 20
845.3863706478783
 30
0.0
 70
    32
  0
VERTEX
  5
3D8
330
3D5
100
AcDbEntity
  8
0
 62
    18
420
        0
100
AcDbVertex
100
AcDb3dPolylineVertex
 10
2387.560340176019
 20
771.3341859573612
 30
0.0
 70
    32
  0
VERTEX
  5
3D9
330
3D5
100
AcDbEntity
  8
0
 62
    18
420
        0
100
AcDbVertex
100
AcDb3dPolylineVertex
 10
2408.899348219723
 20
751.6431385527376
 30
0.0
 70
    32
  0
SEQEND
  5
3DA
330
3D5
100
AcDbEntity
  8
Vector Layer 2
 62
    18
420
        0
370
    30
  0
LINE
  5
3DB
330
1F
100
AcDbEntity
  8
Vector Layer 2
 62
    18
420
        0
370
    30
100
AcDbLine
 10
2297.029419024086
 20
875.3078262654595
 30
0.0
 11
2306.128060770066
 21
883.5949986935704
 31
0.0
  0
POLYLINE
  5
3DC
330
1F
100
AcDbEntity
  8
Vector Layer 2
 62
    18
420
        0
370
    30
100
AcDb3dPolyline
 66
     1
 10
0.0
 20
0.0
 30
0.0
 70
     8
  0
VERTEX
  5
3DD
330
3DC
100
AcDbEntity
  8
0
 62
    18
420
        0
100
AcDbVertex
100
AcDb3dPolylineVertex
 10
2297.029419024086
 20
1041.923227069792
 30
0.0
 70
    32
  0
VERTEX
  5
3DE
330
3DC
100
AcDbEntity
  8
0
 62
    18
420
        0
100
AcDbVertex
100
AcDb3dPolylineVertex
 10
2306.951945309394
 20
1032.766993797024
 30
0.0
 70
    32
  0
VERTEX
  5
3DF
330
3DC
100
AcDbEntity
  8
0
 62
    18
420
        0
100
AcDbVertex
100
AcDb3dPolylineVertex
 10
2387.897992491212
 20
958.0722165604417
 30
0.0
 70
    32
  0
VERTEX
  5
3E0
330
3DC
100
AcDbEntity
  8
0
 62
    18
420
        0
100
AcDbVertex
100
AcDb3dPolylineVertex
 10
2408.453581404512
 20
939.104086697386
 30
0.0
 70
    32
  0
SEQEND
  5
3E1
330
3DC
100
AcDbEntity
  8
Vector Layer 2
 62
    18
420
        0
370
    30
  0
POLYLINE
  5
3E2
330
1F
100
AcDbEntity
  8
Vector Layer 2
 62
    18
420
        0
370
    30
100
AcDb3dPolyline
 66
     1
 10
0.0
 20
0.0
 30
0.0
 70
     8
  0
VERTEX
  5
3E3
330
3E2
100
AcDbEntity
  8
0
 62
    18
420
        0
100
AcDbVertex
100
AcDb3dPolylineVertex
 10
2297.029419024086
 20
1063.020834117873
 30
0.0
 70
    32
  0
VERTEX
  5
3E4
330
3E2
100
AcDbEntity
  8
0
 62
    18
420
        0
100
AcDbVertex
100
AcDb3dPolylineVertex
 10
2305.888928477426
 20
1071.090201449622
 30
0.0
 70
    32
  0
VERTEX
  5
3E5
330
3E2
100
AcDbEntity
  8
0
 62
    18
420
        0
100
AcDbVertex
100
AcDb3dPolylineVertex
 10
2350.88764072506
 20
1112.075669154606
 30
0.0
 70
    32
  0
SEQEND
  5
3E6
330
3E2
100
AcDbEntity
  8
Vector Layer 2
 62
    18
420
        0
370
    30
  0
LINE
  5
3E7
330
1F
100
AcDbEntity
  8
Vector Layer 2
 62
    18
420
        0
370
    30
100
AcDbLine
 10
2508.745057865956
 20
507.5391524251979
 30
0.0
 11
2503.243157319668
 21
502.475669154606
 31
0.0
  0
POLYLINE
  5
3E8
330
1F
100
AcDbEntity
  8
Vector Layer 2
 62
    18
420
        0
370
    30
100
AcDb3dPolyline
 66
     1
 10
0.0
 20
0.0
 30
0.0
 70
     8
  0
VERTEX
  5
3E9
330
3E8
100
AcDbEntity
  8
0
 62
    18
420
        0
100
AcDbVertex
100
AcDb3dPolylineVertex
 10
2407.016402023578
 20
601.596246044627
 30
0.0
 70
    32
  0
VERTEX
  5
3EA
330
3E8
100
AcDbEntity
  8
0
 62
    18
420
        0
100
AcDbVertex
100
AcDb3dPolylineVertex
 10
2428.401633291222
 20
581.8237180115167
 30
0.0
 70
    32
  0
VERTEX
  5
3EB
330
3E8
100
AcDbEntity
  8
0
 62
    18
420
        0
100
AcDbVertex
100
AcDb3dPolylineVertex
 10
2508.745057865956
 20
507.5391524251982
 30
0.0
 70
    32
  0
VERTEX
  5
3EC
330
3E8
100
AcDbEntity
  8
0
 62
    18
420
        0
100
AcDbVertex
100
AcDb3dPolylineVertex
 10
2514.221533134072
 20
502.475669154606
 30
0.0
 70
    32
  0
SEQEND
  5
3ED
330
3E8
100
AcDbEntity
  8
Vector Layer 2
 62
    18
420
        0
370
    30
  0
POLYLINE
  5
3EE
330
1F
100
AcDbEntity
  8
Vector Layer 2
 62
    18
420
        0
370
    30
100
AcDb3dPolyline
 66
     1
 10
0.0
 20
0.0
 30
0.0
 70
     8
  0
VERTEX
  5
3EF
330
3EE
100
AcDbEntity
  8
0
 62
    18
420
        0
100
AcDbVertex
100
AcDb3dPolylineVertex
 10
2632.264216750638
 20
582.0534251641347
 30
0.0
 70
    32
  0
VERTEX
  5
3F0
330
3EE
100
AcDbEntity
  8
0
 62
    18
420
        0
100
AcDbVertex
100
AcDb3dPolylineVertex
 10
2612.466008587996
 20
563.7974452991904
 30
0.0
 70
    32
  0
VERTEX
  5
3F1
330
3EE
100
AcDbEntity
  8
0
 62
    18
420
        0
100
AcDbVertex
100
AcDb3dPolylineVertex
 10
2545.963892678854
 20
502.475669154606
 30
0.0
 70
    32
  0
SEQEND
  5
3F2
330
3EE
100
AcDbEntity
  8
Vector Layer 2
 62
    18
420
        0
370
    30
  0
LINE
  5
3F3
330
1F
100
AcDbEntity
  8
Vector Layer 2
 62
    18
420
        0
370
    30
100
AcDbLine
 10
2712.746132691222
 20
507.6408121239756
 30
0.0
 11
2707.133770329944
 21
502.475669154606
 31
0.0
  0
POLYLINE
  5
3F4
330
1F
100
AcDbEntity
  8
Vector Layer 2
 62
    18
420
        0
370
    30
100
AcDb3dPolyline
 66
     1
 10
0.0
 20
0.0
 30
0.0
 70
     8
  0
VERTEX
  5
3F5
330
3F4
100
AcDbEntity
  8
0
 62
    18
420
        0
100
AcDbVertex
100
AcDb3dPolylineVertex
 10
2611.036925570907
 20
601.6799236885272
 30
0.0
 70
    32
  0
VERTEX
  5
3F6
330
3F4
100
AcDbEntity
  8
0
 62
    18
420
        0
100
AcDbVertex
100
AcDb3dPolylineVertex
 10
2632.264216750638
 20
582.0534251641347
 30
0.0
 70
    32
  0
VERTEX
  5
3F7
330
3F4
100
AcDbEntity
  8
0
 62
    18
420
        0
100
AcDbVertex
100
AcDb3dPolylineVertex
 10
2712.746132691222
 20
507.6408121239754
 30
0.0
 70
    32
  0
VERTEX
  5
3F8
330
3F4
100
AcDbEntity
  8
0
 62
    18
420
        0
100
AcDbVertex
100
AcDb3dPolylineVertex
 10
2718.332559310289
 20
502.475669154606
 30
0.0
 70
    32
  0
SEQEND
  5
3F9
330
3F4
100
AcDbEntity
  8
Vector Layer 2
 62
    18
420
        0
370
    30
  0
POLYLINE
  5
3FA
330
1F
100
AcDbEntity
  8
Vector Layer 2
 62
    18
420
        0
370
    30
100
AcDb3dPolyline
 66
     1
 10
0.0
 20
0.0
 30
0.0
 70
     8
  0
VERTEX
  5
3FB
330
3FA
100
AcDbEntity
  8
0
 62
    18
420
        0
100
AcDbVertex
100
AcDb3dPolylineVertex
 10
2835.371671737513
 20
581.5368151368211
 30
0.0
 70
    32
  0
VERTEX
  5
3FC
330
3FA
100
AcDbEntity
  8
0
 62
    18
420
        0
100
AcDbVertex
100
AcDb3dPolylineVertex
 10
2815.651661639585
 20
563.3529419132039
 30
0.0
 70
    32
  0
VERTEX
  5
3FD
330
3FA
100
AcDbEntity
  8
0
 62
    18
420
        0
100
AcDbVertex
100
AcDb3dPolylineVertex
 10
2749.631599864481
 20
502.475669154606
 30
0.0
 70
    32
  0
SEQEND
  5
3FE
330
3FA
100
AcDbEntity
  8
Vector Layer 2
 62
    18
420
        0
370
    30
  0
LINE
  5
3FF
330
1F
100
AcDbEntity
  8
Vector Layer 2
 62
    18
420
        0
370
    30
100
AcDbLine
 10
2910.515661196439
 20
502.475669154606
 30
0.0
 11
2915.715802200244
 21
507.2515968949369
 31
0.0
  0
POLYLINE
  5
400
330
1F
100
AcDbEntity
  8
Vector Layer 2
 62
    18
420
        0
370
    30
100
AcDb3dPolyline
 66
     1
 10
0.0
 20
0.0
 30
0.0
 70
     8
  0
VERTEX
  5
401
330
400
100
AcDbEntity
  8
0
 62
    18
420
        0
100
AcDbVertex
100
AcDb3dPolylineVertex
 10
2814.255032583357
 20
601.0610061270924
 30
0.0
 70
    32
  0
VERTEX
  5
402
330
400
100
AcDbEntity
  8
0
 62
    18
420
        0
100
AcDbVertex
100
AcDb3dPolylineVertex
 10
2835.371671737513
 20
581.5368151368211
 30
0.0
 70
    32
  0
VERTEX
  5
403
330
400
100
AcDbEntity
  8
0
 62
    18
420
        0
100
AcDbVertex
100
AcDb3dPolylineVertex
 10
2915.715802200244
 20
507.2515968949371
 30
0.0
 70
    32
  0
VERTEX
  5
404
330
400
100
AcDbEntity
  8
0
 62
    18
420
        0
100
AcDbVertex
100
AcDb3dPolylineVertex
 10
2920.881268096842
 20
502.475669154606
 30
0.0
 70
    32
  0
SEQEND
  5
405
330
400
100
AcDbEntity
  8
Vector Layer 2
 62
    18
420
        0
370
    30
  0
POLYLINE
  5
406
330
1F
100
AcDbEntity
  8
Vector Layer 2
 62
    18
420
        0
370
    30
100
AcDb3dPolyline
 66
     1
 10
0.0
 20
0.0
 30
0.0
 70
     8
  0
VERTEX
  5
407
330
406
100
AcDbEntity
  8
0
 62
    18
420
        0
100
AcDbVertex
100
AcDb3dPolylineVertex
 10
3039.460253840661
 20
581.5575666572699
 30
0.0
 70
    32
  0
VERTEX
  5
408
330
406
100
AcDbEntity
  8
0
 62
    18
420
        0
100
AcDbVertex
100
AcDb3dPolylineVertex
 10
3019.850567307098
 20
563.5520580048067
 30
0.0
 70
    32
  0
VERTEX
  5
409
330
406
100
AcDbEntity
  8
0
 62
    18
420
        0
100
AcDbVertex
100
AcDb3dPolylineVertex
 10
2953.332655312946
 20
502.475669154606
 30
0.0
 70
    32
  0
SEQEND
  5
40A
330
406
100
AcDbEntity
  8
Vector Layer 2
 62
    18
420
        0
370
    30
  0
POLYLINE
  5
40B
330
1F
100
AcDbEntity
  8
Vector Layer 2
 62
    18
420
        0
370
    30
100
AcDb3dPolyline
 66
     1
 10
0.0
 20
0.0
 30
0.0
 70
     8
  0
VERTEX
  5
40C
330
40B
100
AcDbEntity
  8
0
 62
    18
420
        0
100
AcDbVertex
100
AcDb3dPolylineVertex
 10
3018.112712168589
 20
601.2952473428956
 30
0.0
 70
    32
  0
VERTEX
  5
40D
330
40B
100
AcDbEntity
  8
0
 62
    18
420
        0
100
AcDbVertex
100
AcDb3dPolylineVertex
 10
3039.460253840661
 20
581.5575666572697
 30
0.0
 70
    32
  0
VERTEX
  5
40E
330
40B
100
AcDbEntity
  8
0
 62
    18
420
        0
100
AcDbVertex
100
AcDb3dPolylineVertex
 10
3118.945241673267
 20
508.0667013744899
 30
0.0
 70
    32
  0
VERTEX
  5
40F
330
40B
100
AcDbEntity
  8
0
 62
    18
420
        0
100
AcDbVertex
100
AcDb3dPolylineVertex
 10
3124.992294273058
 20
502.475669154606
 30
0.0
 70
    32
  0
SEQEND
  5
410
330
40B
100
AcDbEntity
  8
Vector Layer 2
 62
    18
420
        0
370
    30
  0
LINE
  5
411
330
1F
100
AcDbEntity
  8
Vector Layer 2
 62
    18
420
        0
370
    30
100
AcDbLine
 10
3112.857595988284
 20
502.475669154606
 30
0.0
 11
3118.945241673267
 21
508.0667013744899
 31
0.0
  0
POLYLINE
  5
412
330
1F
100
AcDbEntity
  8
Vector Layer 2
 62
    18
420
        0
370
    30
100
AcDb3dPolyline
 66
     1
 10
0.0
 20
0.0
 30
0.0
 70
     8
  0
VERTEX
  5
413
330
412
100
AcDbEntity
  8
0
 62
    18
420
        0
100
AcDbVertex
100
AcDb3dPolylineVertex
 10
3241.671407448834
 20
581.3913259446848
 30
0.0
 70
    32
  0
VERTEX
  5
414
330
412
100
AcDbEntity
  8
0
 62
    18
420
        0
100
AcDbVertex
100
AcDb3dPolylineVertex
 10
3222.149053310818
 20
563.4660054278648
 30
0.0
 70
    32
  0
VERTEX
  5
415
330
412
100
AcDbEntity
  8
0
 62
    18
420
        0
100
AcDbVertex
100
AcDb3dPolylineVertex
 10
3155.724860638448
 20
502.475669154606
 30
0.0
 70
    32
  0
SEQEND
  5
416
330
412
100
AcDbEntity
  8
Vector Layer 2
 62
    18
420
        0
370
    30
  0
POLYLINE
  5
417
330
1F
100
AcDbEntity
  8
Vector Layer 2
 62
    18
420
        0
370
    30
100
AcDb3dPolyline
 66
     1
 10
0.0
 20
0.0
 30
0.0
 70
     8
  0
VERTEX
  5
418
330
417
100
AcDbEntity
  8
0
 62
    18
420
        0
100
AcDbVertex
100
AcDb3dPolylineVertex
 10
3220.298837002375
 20
601.1521479345591
 30
0.0
 70
    32
  0
VERTEX
  5
419
330
417
100
AcDbEntity
  8
0
 62
    18
420
        0
100
AcDbVertex
100
AcDb3dPolylineVertex
 10
3241.671407448834
 20
581.391325944685
 30
0.0
 70
    32
  0
VERTEX
  5
41A
330
417
100
AcDbEntity
  8
0
 62
    18
420
        0
100
AcDbVertex
100
AcDb3dPolylineVertex
 10
3322.3046980049
 20
506.8387537527773
 30
0.0
 70
    32
  0
VERTEX
  5
41B
330
417
100
AcDbEntity
  8
0
 62
    18
420
        0
100
AcDbVertex
100
AcDb3dPolylineVertex
 10
3327.023648106574
 20
502.4756691546062
 30
0.0
 70
    32
  0
SEQEND
  5
41C
330
417
100
AcDbEntity
  8
Vector Layer 2
 62
    18
420
        0
370
    30
  0
POLYLINE
  5
41D
330
1F
100
AcDbEntity
  8
Vector Layer 2
 62
    18
420
        0
370
    30
100
AcDb3dPolyline
 66
     1
 10
0.0
 20
0.0
 30
0.0
 70
     8
  0
VERTEX
  5
41E
330
41D
100
AcDbEntity
  8
0
 62
    18
420
        0
100
AcDbVertex
100
AcDb3dPolylineVertex
 10
3446.099481594399
 20
581.0981871993792
 30
0.0
 70
    32
  0
VERTEX
  5
41F
330
41D
100
AcDbEntity
  8
0
 62
    18
420
        0
100
AcDbVertex
100
AcDb3dPolylineVertex
 10
3426.729647567939
 20
563.3129098282548
 30
0.0
 70
    32
  0
VERTEX
  5
420
330
41D
100
AcDbEntity
  8
0
 62
    18
420
        0
100
AcDbVertex
100
AcDb3dPolylineVertex
 10
3360.472190352811
 20
502.4756691546062
 30
0.0
 70
    32
  0
SEQEND
  5
421
330
41D
100
AcDbEntity
  8
Vector Layer 2
 62
    18
420
        0
370
    30
  0
LINE
  5
422
330
1F
100
AcDbEntity
  8
Vector Layer 2
 62
    18
420
        0
370
    30
100
AcDbLine
 10
3317.554070199034
 20
502.4756691546062
 30
0.0
 11
3322.3046980049
 21
506.8387537527777
 31
0.0
  0
LINE
  5
423
330
1F
100
AcDbEntity
  8
Vector Layer 2
 62
    18
420
        0
370
    30
100
AcDbLine
 10
2368.65795198714
 20
566.2943774609787
 30
0.0
 11
2368.944454308593
 21
566.0078751395247
 31
0.0
  0
LWPOLYLINE
  5
424
330
1F
100
AcDbEntity
  8
Vector Layer 2
 62
    18
420
        0
370
    30
100
AcDbPolyline
 90
      282
 70
     0
 43
0.0
 10
2202.915159884862
 20
1112.060038452683
 10
2202.775451294806
 20
1106.932051543485
 10
2202.775451294806
 20
1106.932051543485
 10
2202.627032279959
 20
1102.134865033872
 10
2202.627032279959
 20
1102.134865033872
 10
2202.44229267817
 20
1097.298853956757
 10
2202.44229267817
 20
1097.298853956757
 10
2202.234580372035
 20
1092.849575891569
 10
2202.234580372035
 20
1092.849575891569
 10
2201.936603911116
 20
1087.084746074548
 10
2201.936603911116
 20
1087.084746074548
 10
2201.648931691761
 20
1081.938873413053
 10
2201.648931691761
 20
1081.938873413053
 10
2201.179513815012
 20
1074.084527880317
 10
2201.179513815012
 20
1074.084527880317
 10
2200.599267471543
 20
1064.914550045253
 10
2200.599267471543
 20
1064.914550045253
 10
2199.944904777916
 20
1054.893271304702
 10
2199.944904777916
 20
1054.893271304702
 10
2199.297469294002
 20
1045.065431196112
 10
2199.297469294002
 20
1045.065431196112
 10
2198.722031148772
 20
1036.166248292055
 10
2198.722031148772
 20
1036.166248292055
 10
2198.53217221328
 20
1033.109602944573
 10
2198.53217221328
 20
1033.109602944573
 10
2198.737976271685
 20
1032.723586083829
 10
2198.737976271685
 20
1032.723586083829
 10
2199.68473898704
 20
1032.340471561256
 10
2199.68473898704
 20
1032.340471561256
 10
2200.821045137657
 20
1031.958099481114
 10
2200.821045137657
 20
1031.958099481114
 10
2201.036907855699
 20
1031.572122020182
 10
2201.036907855699
 20
1031.572122020182
 10
2200.602049573223
 20
1024.684969347785
 10
2200.602049573223
 20
1024.684969347785
 10
2199.969009204766
 20
1014.934550224145
 10
2199.969009204766
 20
1014.934550224145
 10
2199.393216552548
 20
1006.112730530702
 10
2199.393216552548
 20
1006.112730530702
 10
2198.842685635706
 20
997.5231035852473
 10
2198.842685635706
 20
997.5231035852473
 10
2198.676211533765
 20
994.8146905327524
 10
2198.676211533765
 20
994.8146905327524
 10
2198.662478230048
 20
994.4278137432386
 10
2198.662478230048
 20
994.4278137432386
 10
2199.035696748211
 20
994.0424526456361
 10
2199.035696748211
 20
994.0424526456361
 10
2202.556782646904
 20
993.2825987616771
 10
2202.556782646904
 20
993.2825987616771
 10
2203.195884588718
 20
992.8982791305616
 10
2203.195884588718
 20
992.8982791305616
 10
2203.293455486161
 20
992.5118383200711
 10
2203.293455486161
 20
992.5118383200711
 10
2203.55898704794
 20
984.7764184862036
 10
2203.55898704794
 20
984.7764184862036
 10
2203.718003297677
 20
979.4775663068765
 10
2203.718003297677
 20
979.4775663068765
 10
2203.845520432102
 20
974.6427783407087
 10
2203.845520432102
 20
974.6427783407087
 10
2203.949804437048
 20
969.9626285687175
 10
2203.949804437048
 20
969.9626285687175
 10
2204.028482336539
 20
965.514472295167
 10
2204.028482336539
 20
965.514472295167
 10
2204.082170171798
 20
961.2209473338721
 10
2204.082170171798
 20
961.2209473338721
 10
2204.109220147155
 20
957.1594118296312
 10
2204.109220147155
 20
957.1594118296312
 10
2204.109829793075
 20
952.9817258596775
 10
2204.109829793075
 20
952.9817258596775
 10
2204.085612341174
 20
948.6492134434351
 10
2204.085612341174
 20
948.6492134434351
 10
2204.034717600869
 20
943.9684558356471
 10
2204.034717600869
 20
943.9684558356471
 10
2203.958423734556
 20
939.0555049417125
 10
2203.958423734556
 20
939.0555049417125
 10
2203.852893497051
 20
933.7169342330733
 10
2203.852893497051
 20
933.7169342330733
 10
2203.73698469651
 20
928.7651458676643
 10
2203.73698469651
 20
928.7651458676643
 10
2203.606097410906
 20
923.774616531856
 10
2203.606097410906
 20
923.774616531856
 10
2203.392434722537
 20
916.501507287425
 10
2203.392434722537
 20
916.501507287425
 10
2203.261995588264
 20
912.826177893786
 10
2203.261995588264
 20
912.826177893786
 10
2203.136578414925
 20
909.8084672645684
 10
2203.136578414925
 20
909.8084672645684
 10
2202.854228394931
 20
903.9663340571614
 10
2202.854228394931
 20
903.9663340571614
 10
2202.570228739555
 20
898.6657465826734
 10
2202.570228739555
 20
898.6657465826734
 10
2202.129788079274
 20
891.0822906510896
 10
2202.129788079274
 20
891.0822906510896
 10
2201.732131418295
 20
884.6207889933166
 10
2201.732131418295
 20
884.6207889933166
 10
2201.282309141837
 20
877.54016620884
 10
2201.282309141837
 20
877.54016620884
 10
2200.602035338436
 20
867.1319629782574
 10
2200.602035338436
 20
867.1319629782574
 10
2200.028450411682
 20
858.4261988313167
 10
2200.028450411682
 20
858.4261988313167
 10
2199.464952909546
 20
849.7204741968607
 10
2199.464952909546
 20
849.7204741968607
 10
2199.251103683727
 20
846.2769118832062
 10
2199.251103683727
 20
846.2769118832062
 10
2199.284047617307
 20
845.8902179286269
 10
2199.284047617307
 20
845.8902179286269
 10
2199.977393121852
 20
845.5061107697744
 10
2199.977393121852
 20
845.5061107697744
 10
2201.110929886084
 20
845.1237278419347
 10
2201.110929886084
 20
845.1237278419347
 10
2201.753234202942
 20
844.7394207545356
 10
2201.753234202942
 20
844.7394207545356
 10
2201.846511170012
 20
844.3529631247018
 10
2201.846511170012
 20
844.3529631247018
 10
2201.351227776367
 20
836.5371985762381
 10
2201.351227776367
 20
836.5371985762381
 10
2200.715593382585
 20
826.748086992179
 10
2200.715593382585
 20
826.748086992179
 10
2200.132105706311
 20
817.8101902584636
 10
2200.132105706311
 20
817.8101902584636
 10
2199.579516701156
 20
809.1818729518656
 10
2199.579516701156
 20
809.1818729518656
 10
2199.412968415844
 20
806.4734596088005
 10
2199.412968415844
 20
806.4734596088005
 10
2199.415341648537
 20
806.4347866051525
 10
2199.415341648537
 20
806.4347866051525
 10
2199.820969094727
 20
806.0882347530684
 10
2199.820969094727
 20
806.0882347530684
 10
2199.877789137452
 20
806.049775017804
 10
2199.877789137452
 20
806.049775017804
 10
2201.517429087209
 20
805.6693744982682
 10
2201.517429087209
 20
805.6693744982682
 10
2203.407270625702
 20
805.2899540194063
 10
2203.407270625702
 20
805.2899540194063
 10
2204.024174707452
 20
804.9055474391806
 10
2204.024174707452
 20
804.9055474391806
 10
2204.06928192965
 20
804.441536529034
 10
2204.06928192965
 20
804.441536529034
 10
2204.29957914467
 20
797.6343538727515
 10
2204.29957914467
 20
797.6343538727515
 10
2204.452230912025
 20
792.5288882617844
 10
2204.452230912025
 20
792.5288882617844
 10
2204.579388105702
 20
787.6940988857386
 10
2204.579388105702
 20
787.6940988857386
 10
2204.682674298225
 20
783.0526275049333
 10
2204.682674298225
 20
783.0526275049333
 10
2204.759302706007
 20
778.720510102357
 10
2204.759302706007
 20
778.720510102357
 10
2204.8132387067
 20
774.4656684127476
 10
2204.8132387067
 20
774.4656684127476
 10
2204.840974865068
 20
770.2880886974667
 10
2204.840974865068
 20
770.2880886974667
 10
2204.841296726229
 20
766.0330370010477
 10
2204.841296726229
 20
766.0330370010477
 10
2204.817108674513
 20
761.7392069995865
 10
2204.817108674513
 20
761.7392069995865
 10
2204.765899790338
 20
757.0584481613066
 10
2204.765899790338
 20
757.0584481613066
 10
2204.690704805548
 20
752.2228661709278
 10
2204.690704805548
 20
752.2228661709278
 10
2204.591233285977
 20
747.1550952915978
 10
2204.591233285977
 20
747.1550952915978
 10
2204.44732770052
 20
741.0427282743626
 10
2204.44732770052
 20
741.0427282743626
 10
2204.244052428506
 20
733.5762482194496
 10
2204.244052428506
 20
733.5762482194496
 10
2204.085870947715
 20
728.4695650733445
 10
2204.085870947715
 20
728.4695650733445
 10
2203.903395587661
 20
723.7109274645063
 10
2203.903395587661
 20
723.7109274645063
 10
2203.697386349416
 20
719.3003383698624
 10
2203.697386349416
 20
719.3003383698624
 10
2203.393232595669
 20
713.4194374575419
 10
2203.393232595669
 20
713.4194374575419
 10
2203.111558644984
 20
708.3896351901344
 10
2203.111558644984
 20
708.3896351901344
 10
2202.694170533387
 20
701.3865040496552
 10
2202.694170533387
 20
701.3865040496552
 10
2202.099063009338
 20
691.9456919060323
 10
2202.099063009338
 20
691.9456919060323
 10
2201.440738561617
 20
681.8470330480758
 10
2201.440738561617
 20
681.8470330480758
 10
2200.762585810251
 20
671.5548850245186
 10
2200.762585810251
 20
671.5548850245186
 10
2200.179761486021
 20
662.5396262899559
 10
2200.179761486021
 20
662.5396262899559
 10
2199.990030478997
 20
659.4829814435783
 10
2199.990030478997
 20
659.4829814435783
 10
2199.995156066179
 20
659.4443192209143
 10
2199.995156066179
 20
659.4443192209143
 10
2200.248163336471
 20
659.0971695549605
 10
2200.248163336471
 20
659.0971695549605
 10
2200.294273722624
 20
659.0586678699262
 10
2200.294273722624
 20
659.0586678699262
 10
2202.171999108832
 20
658.3310592355508
 10
2202.171999108832
 20
658.3310592355508
 10
2202.254310601933
 20
658.2926993504043
 10
2202.254310601933
 20
658.2926993504043
 10
2202.595480267765
 20
657.9458950169241
 10
2202.595480267765
 20
657.9458950169241
 10
2202.624587900799
 20
657.9073267320344
 10
2202.624587900799
 20
657.9073267320344
 10
2202.655371432918
 20
657.5206243151544
 10
2202.655371432918
 20
657.5206243151544
 10
2202.190012499087
 20
650.1304822766585
 10
2202.190012499087
 20
650.1304822766585
 10
2201.520047291421
 20
639.7996840241338
 10
2201.520047291421
 20
639.7996840241338
 10
2200.927851004
 20
630.7457062799415
 10
2200.927851004
 20
630.7457062799415
 10
2200.336881500209
 20
621.5370041426239
 10
2200.336881500209
 20
621.5370041426239
 10
2200.170233294436
 20
618.8285904081699
 10
2200.170233294436
 20
618.8285904081699
 10
2200.155745923662
 20
618.4803929645836
 10
2200.155745923662
 20
618.4803929645836
 10
2200.188821353395
 20
618.4031579219598
 10
2200.188821353395
 20
618.4031579219598
 10
2200.400481869768
 20
618.0945286002077
 10
2200.400481869768
 20
618.0945286002077
 10
2200.461699926678
 20
618.0560860919833
 10
2200.461699926678
 20
618.0560860919833
 10
2201.94346176482
 20
617.6750671632213
 10
2201.94346176482
 20
617.6750671632213
 10
2203.783116616577
 20
617.3341324025073
 10
2203.783116616577
 20
617.3341324025073
 10
2203.953587477325
 20
617.2961178379742
 10
2203.953587477325
 20
617.2961178379742
 10
2204.74748387873
 20
616.9510868370182
 10
2204.74748387873
 20
616.9510868370182
 10
2204.811299867598
 20
616.9126545049042
 10
2204.811299867598
 20
616.9126545049042
 10
2204.849717204357
 20
616.3712527912272
 10
2204.849717204357
 20
616.3712527912272
 10
2205.047863589692
 20
610.3762724918294
 10
2205.047863589692
 20
610.3762724918294
 10
2205.198799298845
 20
605.2708001590554
 10
2205.198799298845
 20
605.2708001590554
 10
2205.315589027365
 20
600.7841108700992
 10
2205.315589027365
 20
600.7841108700992
 10
2205.316609186535
 20
600.7380575799187
 10
2205.316609186535
 20
600.7380575799187
 10
2205.414121576436
 20
596.3360323673047
 10
2205.414121576436
 20
596.3360323673047
 10
2205.492015886916
 20
591.9265553240536
 10
2205.492015886916
 20
591.9265553240536
 10
2205.544286181303
 20
587.7877540086971
 10
2205.544286181303
 20
587.7877540086971
 10
2205.572256122614
 20
583.6488575087554
 10
2205.572256122614
 20
583.6488575087554
 10
2205.573231251631
 20
579.3938083711894
 10
2205.573231251631
 20
579.3938083711894
 10
2205.547190359925
 20
574.9065596140939
 10
2205.547190359925
 20
574.9065596140939
 10
2205.497128681786
 20
570.3418521682561
 10
2205.497128681786
 20
570.3418521682561
 10
2205.425557097257
 20
565.6996958688036
 10
2205.425557097257
 20
565.6996958688036
 10
2205.334137162472
 20
560.9800972240592
 10
2205.334137162472
 20
560.9800972240592
 10
2205.316609186535
 20
560.2197079440943
 10
2205.316609186535
 20
560.2197079440943
 10
2205.203940414051
 20
555.3319714997217
 10
2205.203940414051
 20
555.3319714997217
 10
2204.995840290388
 20
547.5946964485715
 10
2204.995840290388
 20
547.5946964485715
 10
2204.829733260847
 20
542.1398415615644
 10
2204.829733260847
 20
542.1398415615644
 10
2204.652557226498
 20
537.4585893094281
 10
2204.652557226498
 20
537.4585893094281
 10
2204.455058272428
 20
533.1640804484346
 10
2204.455058272428
 20
533.1640804484346
 10
2204.1881523419
 20
527.9409245293718
 10
2204.1881523419
 20
527.9409245293718
 10
2203.860260409435
 20
522.0212483348949
 10
2203.860260409435
 20
522.0212483348949
 10
2203.379720556087
 20
513.9734477392957
 10
2203.379720556087
 20
513.9734477392957
 10
2202.792242834634
 20
504.6873946800833
 10
2202.792242834634
 20
504.6873946800833
 10
2202.646735153665
 20
502.4600384526829
  0
LWPOLYLINE
  5
425
330
1F
100
AcDbEntity
  8
Vector Layer 2
 62
    18
420
        0
370
    30
100
AcDbPolyline
 90
        6
 70
     0
 43
0.0
 10
-2202.646735153665
 20
502.4600384526829
 10
-2186.986850957129
 20
502.4600384526829
 10
-2186.986850957129
 20
502.4600384526829
 10
-2186.986850957129
 20
1112.060038452683
 10
-2186.986850957129
 20
1112.060038452683
 10
-2202.915159884862
 20
1112.060038452683
210
0.0
220
0.0
230
-1.0
  0
LINE
  5
426
330
1F
100
AcDbEntity
  8
Vector Layer 2
 62
    18
420
        0
370
    30
100
AcDbLine
 10
3516.218459683297
 20
406.7279753648382
 30
0.0
 11
3516.229419024084
 21
406.7279832092824
 31
0.0
  0
LWPOLYLINE
  5
427
330
1F
100
AcDbEntity
  8
Vector Layer 2
 62
    18
420
        0
370
    30
100
AcDbPolyline
 90
      556
 70
     0
 43
0.0
 10
-2297.018459683297
 20
409.9558811936942
 10
-2297.029398831074
 20
410.0123753416588
 10
-2297.029398831074
 20
410.0123753416588
 10
-2297.394930690629
 20
411.9001285177358
 10
-2297.394930690629
 20
411.9001285177358
 10
-2297.433531849927
 20
412.0135425453556
 10
-2297.433531849927
 20
412.0135425453556
 10
-2297.781363573851
 20
412.4456912867711
 10
-2297.781363573851
 20
412.4456912867711
 10
-2297.858706633628
 20
412.4758922076317
 10
-2297.858706633628
 20
412.4758922076317
 10
-2298.206813959187
 20
412.523002549638
 10
-2298.206813959187
 20
412.523002549638
 10
-2305.711517620681
 20
412.0619622776196
 10
-2305.711517620681
 20
412.0619622776196
 10
-2315.150434354896
 20
411.4665922150821
 10
-2315.150434354896
 20
411.4665922150821
 10
-2324.202512132339
 20
410.8929778982009
 10
-2324.202512132339
 20
410.8929778982009
 10
-2333.293267195917
 20
410.3264220882794
 10
-2333.293267195917
 20
410.3264220882794
 10
-2336.504038809856
 20
410.1342916956982
 10
-2336.504038809856
 20
410.1342916956982
 10
-2336.890869916082
 20
410.1235038157987
 10
-2336.890869916082
 20
410.1235038157987
 10
-2337.238971510995
 20
410.1786203440275
 10
-2337.238971510995
 20
410.1786203440275
 10
-2337.625488386771
 20
410.6068385312397
 10
-2337.625488386771
 20
410.6068385312397
 10
-2337.818211033148
 20
411.569492918827
 10
-2337.818211033148
 20
411.569492918827
 10
-2338.049440083125
 20
412.7779429211256
 10
-2338.049440083125
 20
412.7779429211256
 10
-2338.39648879323
 20
414.3040270776
 10
-2338.39648879323
 20
414.3040270776
 10
-2338.435109887464
 20
414.3895903414041
 10
-2338.435109887464
 20
414.3895903414041
 10
-2338.783041568904
 20
414.6820901208096
 10
-2338.783041568904
 20
414.6820901208096
 10
-2338.976440404456
 20
414.7000520045926
 10
-2338.976440404456
 20
414.7000520045926
 10
-2348.492099365629
 20
414.9742962699064
 10
-2348.492099365629
 20
414.9742962699064
 10
-2354.255665517752
 20
415.1171858229387
 10
-2354.255665517752
 20
415.1171858229387
 10
-2359.477701404733
 20
415.2286784873338
 10
-2359.477701404733
 20
415.2286784873338
 10
-2364.390295986874
 20
415.3158580412933
 10
-2364.390295986874
 20
415.3158580412933
 10
-2369.225541433177
 20
415.381325434596
 10
-2369.225541433177
 20
415.381325434596
 10
-2373.71266373986
 20
415.4217760474849
 10
-2373.71266373986
 20
415.4217760474849
 10
-2378.393215235298
 20
415.437782592076
 10
-2378.393215235298
 20
415.437782592076
 10
-2382.803009566695
 20
415.4269579944589
 10
-2382.803009566695
 20
415.4269579944589
 10
-2387.638329356137
 20
415.388561841294
 10
-2387.638329356137
 20
415.388561841294
 10
-2392.744444850932
 20
415.3231514147101
 10
-2392.744444850932
 20
415.3231514147101
 10
-2398.043990216644
 20
415.2323438835257
 10
-2398.043990216644
 20
415.2323438835257
 10
-2403.459598795263
 20
415.1189070243269
 10
-2403.459598795263
 20
415.1189070243269
 10
-2409.107317907064
 20
414.9824148326175
 10
-2409.107317907064
 20
414.9824148326175
 10
-2415.335295808649
 20
414.8127935798026
 10
-2415.335295808649
 20
414.8127935798026
 10
-2422.723781323958
 20
414.5908373157478
 10
-2422.723781323958
 20
414.5908373157478
 10
-2426.476062986353
 20
414.458348204593
 10
-2426.476062986353
 20
414.458348204593
 10
-2430.112309652621
 20
414.3090672367589
 10
-2430.112309652621
 20
414.3090672367589
 10
-2436.533795950632
 20
414.004342213559
 10
-2436.533795950632
 20
414.004342213559
 10
-2442.142945590322
 20
413.7101663603562
 10
-2442.142945590322
 20
413.7101663603562
 10
-2449.299466113685
 20
413.3079322192905
 10
-2449.299466113685
 20
413.3079322192905
 10
-2454.831272022544
 20
412.9844929634642
 10
-2454.831272022544
 20
412.9844929634642
 10
-2464.270176013508
 20
412.4069262852
 10
-2464.270176013508
 20
412.4069262852
 10
-2474.946982750626
 20
411.7344756909997
 10
-2474.946982750626
 20
411.7344756909997
 10
-2484.966164788754
 20
411.0968757897968
 10
-2484.966164788754
 20
411.0968757897968
 10
-2495.449547556274
 20
410.4415776656539
 10
-2495.449547556274
 20
410.4415776656539
 10
-2498.931107630242
 20
410.232555320097
 10
-2498.931107630242
 20
410.232555320097
 10
-2499.317931583796
 20
410.2317603172669
 10
-2499.317931583796
 20
410.2317603172669
 10
-2499.704625142644
 20
410.4131375602407
 10
-2499.704625142644
 20
410.4131375602407
 10
-2500.09067437045
 20
411.4946988463359
 10
-2500.09067437045
 20
411.4946988463359
 10
-2500.476824359575
 20
412.4354881923789
 10
-2500.476824359575
 20
412.4354881923789
 10
-2500.86346439909
 20
412.6916363942921
 10
-2500.86346439909
 20
412.6916363942921
 10
-2501.366339295311
 20
412.6853546052331
 10
-2501.366339295311
 20
412.6853546052331
 10
-2511.03735413615
 20
412.0842901403529
 10
-2511.03735413615
 20
412.0842901403529
 10
-2521.675478986467
 20
411.4112085461386
 10
-2521.675478986467
 20
411.4112085461386
 10
-2530.108609106145
 20
410.8798455836301
 10
-2530.108609106145
 20
410.8798455836301
 10
-2537.22647604645
 20
410.4374377627609
 10
-2537.22647604645
 20
410.4374377627609
 10
-2539.934355951786
 20
410.2750774542602
 10
-2539.934355951786
 20
410.2750774542602
 10
-2540.321174012418
 20
410.2825153528015
 10
-2540.321174012418
 20
410.2825153528015
 10
-2540.7077947317
 20
410.5656555260881
 10
-2540.7077947317
 20
410.5656555260881
 10
-2541.092853233749
 20
413.0313430761182
 10
-2541.092853233749
 20
413.0313430761182
 10
-2541.478622593027
 20
414.5039039696312
 10
-2541.478622593027
 20
414.5039039696312
 10
-2541.865222534559
 20
414.8160723872487
 10
-2541.865222534559
 20
414.8160723872487
 10
-2542.329382206391
 20
414.8557349894585
 10
-2542.329382206391
 20
414.8557349894585
 10
-2550.723276212877
 20
415.0980413889401
 10
-2550.723276212877
 20
415.0980413889401
 10
-2557.221792096062
 20
415.2614673682941
 10
-2557.221792096062
 20
415.2614673682941
 10
-2562.4051459104
 20
415.372588676402
 10
-2562.4051459104
 20
415.372588676402
 10
-2567.472468029155
 20
415.4623069915027
 10
-2567.472468029155
 20
415.4623069915027
 10
-2572.230349590521
 20
415.5266679439203
 10
-2572.230349590521
 20
415.5266679439203
 10
-2576.949565201336
 20
415.5681336360135
 10
-2576.949565201336
 20
415.5681336360135
 10
-2581.39802334577
 20
415.5831905800662
 10
-2581.39802334577
 20
415.5831905800662
 10
-2585.885182808849
 20
415.5717306151276
 10
-2585.885182808849
 20
415.5717306151276
 10
-2590.720502795516
 20
415.5330589216813
 10
-2590.720502795516
 20
415.5330589216813
 10
-2595.710570263759
 20
415.4690612214528
 10
-2595.710570263759
 20
415.4690612214528
 10
-2600.816700954931
 20
415.3824201891024
 10
-2600.816700954931
 20
415.3824201891024
 10
-2606.309674813962
 20
415.268140171903
 10
-2606.309674813962
 20
415.268140171903
 10
-2612.150809013984
 20
415.1269035280499
 10
-2612.150809013984
 20
415.1269035280499
 10
-2621.396071533387
 20
414.8703576400722
 10
-2621.396071533387
 20
414.8703576400722
 10
-2626.734353940193
 20
414.7031259664492
 10
-2626.734353940193
 20
414.7031259664492
 10
-2632.033978348045
 20
414.5018899901996
 10
-2632.033978348045
 20
414.5018899901996
 10
-2636.753378432607
 20
414.2856305184547
 10
-2636.753378432607
 20
414.2856305184547
 10
-2643.677767519872
 20
413.9356548163324
 10
-2643.677767519872
 20
413.9356548163324
 10
-2649.093507478508
 20
413.6386691453912
 10
-2649.093507478508
 20
413.6386691453912
 10
-2656.868979548599
 20
413.1887504346537
 10
-2656.868979548599
 20
413.1887504346537
 10
-2666.191830235603
 20
412.6199694562058
 10
-2666.191830235603
 20
412.6199694562058
 10
-2676.559163758267
 20
411.9677861252385
 10
-2676.559163758267
 20
411.9677861252385
 10
-2686.926502145734
 20
411.3088062601624
 10
-2686.926502145734
 20
411.3088062601624
 10
-2697.758042255762
 20
410.6307406300158
 10
-2697.758042255762
 20
410.6307406300158
 10
-2701.97459933881
 20
410.3762033905777
 10
-2701.97459933881
 20
410.3762033905777
 10
-2702.322679132731
 20
410.4617777175912
 10
-2702.322679132731
 20
410.4617777175912
 10
-2702.400019064806
 20
410.4963482985445
 10
-2702.400019064806
 20
410.4963482985445
 10
-2702.786038831256
 20
411.6190695496245
 10
-2702.786038831256
 20
411.6190695496245
 10
-2703.172237202642
 20
412.4922648526812
 10
-2703.172237202642
 20
412.4922648526812
 10
-2703.558826103617
 20
412.8198578487094
 10
-2703.558826103617
 20
412.8198578487094
 10
-2703.945625397763
 20
412.8535140862959
 10
-2703.945625397763
 20
412.8535140862959
 10
-2709.980334389005
 20
412.4844146260192
 10
-2709.980334389005
 20
412.4844146260192
 10
-2719.573986559415
 20
411.8805469522855
 10
-2719.573986559415
 20
411.8805469522855
 10
-2729.747903980095
 20
411.2345243807869
 10
-2729.747903980095
 20
411.2345243807869
 10
-2739.496288143385
 20
410.6269696960969
 10
-2739.496288143385
 20
410.6269696960969
 10
-2742.97784749943
 20
410.418950347443
 10
-2742.97784749943
 20
410.418950347443
 10
-2743.364653276279
 20
410.4435497122398
 10
-2743.364653276279
 20
410.4435497122398
 10
-2743.403326523085
 20
410.4562514961142
 10
-2743.403326523085
 20
410.4562514961142
 10
-2743.751108257956
 20
410.9582391011319
 10
-2743.751108257956
 20
410.9582391011319
 10
-2743.789731442021
 20
411.0408826977248
 10
-2743.789731442021
 20
411.0408826977248
 10
-2744.175124455955
 20
413.0392293288881
 10
-2744.175124455955
 20
413.0392293288881
 10
-2744.522170633827
 20
414.5688512257598
 10
-2744.522170633827
 20
414.5688512257598
 10
-2744.560750276592
 20
414.7123256382974
 10
-2744.560750276592
 20
414.7123256382974
 10
-2744.947377706956
 20
414.9860898722322
 10
-2744.947377706956
 20
414.9860898722322
 10
-2748.428704680549
 20
415.1027281309364
 10
-2748.428704680549
 20
415.1027281309364
 10
-2754.849845468105
 20
415.2807099391576
 10
-2754.849845468105
 20
415.2807099391576
 10
-2760.342641394879
 20
415.4150160808076
 10
-2760.342641394879
 20
415.4150160808076
 10
-2765.409950507865
 20
415.5229045364077
 10
-2765.409950507865
 20
415.5229045364077
 10
-2770.399909790121
 20
415.6100516566556
 10
-2770.399909790121
 20
415.6100516566556
 10
-2774.964381433656
 20
415.6719335910683
 10
-2774.964381433656
 20
415.6719335910683
 10
-2779.567550405003
 20
415.7128741438025
 10
-2779.567550405003
 20
415.7128741438025
 10
-2784.132055341972
 20
415.7282423807046
 10
-2784.132055341972
 20
415.7282423807046
 10
-2788.696579751429
 20
415.7164059351924
 10
-2788.696579751429
 20
415.7164059351924
 10
-2793.531900093535
 20
415.6772376636566
 10
-2793.531900093535
 20
415.6772376636566
 10
-2798.173822819745
 20
415.6184035490711
 10
-2798.173822819745
 20
415.6184035490711
 10
-2803.705464447157
 20
415.5244791283398
 10
-2803.705464447157
 20
415.5244791283398
 10
-2808.888974857378
 20
415.4168229670665
 10
-2808.888974857378
 20
415.4168229670665
 10
-2814.962206955153
 20
415.2701837361958
 10
-2814.962206955153
 20
415.2701837361958
 10
-2823.356440650691
 20
415.037916284427
 10
-2823.356440650691
 20
415.037916284427
 10
-2829.197602953978
 20
414.857417042938
 10
-2829.197602953978
 20
414.857417042938
 10
-2833.298039329394
 20
414.7058340438703
 10
-2833.298039329394
 20
414.7058340438703
 10
-2838.520318597663
 20
414.4773028098637
 10
-2838.520318597663
 20
414.4773028098637
 10
-2843.433148600282
 20
414.2355803763628
 10
-2843.433148600282
 20
414.2355803763628
 10
-2850.705706216101
 20
413.8472093410195
 10
-2850.705706216101
 20
413.8472093410195
 10
-2858.442492497965
 20
413.4021102560798
 10
-2858.442492497965
 20
413.4021102560798
 10
-2868.577706078602
 20
412.7861271943935
 10
-2868.577706078602
 20
412.7861271943935
 10
-2878.906354749588
 20
412.1374550513772
 10
-2878.906354749588
 20
412.1374550513772
 10
-2888.964220370969
 20
411.4981160495818
 10
-2888.964220370969
 20
411.4981160495818
 10
-2899.563656709017
 20
410.8336597920558
 10
-2899.563656709017
 20
410.8336597920558
 10
-2904.708631204973
 20
410.5214368661268
 10
-2904.708631204973
 20
410.5214368661268
 10
-2905.056784678294
 20
410.5040749456962
 10
-2905.056784678294
 20
410.5040749456962
 10
-2905.443540539779
 20
410.598410224979
 10
-2905.443540539779
 20
410.598410224979
 10
-2905.48218874817
 20
410.646092755937
 10
-2905.48218874817
 20
410.646092755937
 10
-2905.868283441849
 20
411.6641344374085
 10
-2905.868283441849
 20
411.6641344374085
 10
-2906.215606207753
 20
412.8073398549748
 10
-2906.215606207753
 20
412.8073398549748
 10
-2906.254231430445
 20
412.8871353188523
 10
-2906.254231430445
 20
412.8871353188523
 10
-2906.602286536244
 20
413.0072010061586
 10
-2906.602286536244
 20
413.0072010061586
 10
-2907.066467919666
 20
413.0165307110846
 10
-2907.066467919666
 20
413.0165307110846
 10
-2913.874858938821
 20
412.5981716410175
 10
-2913.874858938821
 20
412.5981716410175
 10
-2923.816668102809
 20
411.9720239556238
 10
-2923.816668102809
 20
411.9720239556238
 10
-2932.636642652806
 20
411.4112582476745
 10
-2932.636642652806
 20
411.4112582476745
 10
-2942.771867916339
 20
410.7789532092162
 10
-2942.771867916339
 20
410.7789532092162
 10
-2946.446847601439
 20
410.5588675310265
 10
-2946.446847601439
 20
410.5588675310265
 10
-2946.833676424942
 20
410.5512688027893
 10
-2946.833676424942
 20
410.5512688027893
 10
-2946.910999048863
 20
410.6100203143616
 10
-2946.910999048863
 20
410.6100203143616
 10
-2947.220228882022
 20
410.9297769495301
 10
-2947.220228882022
 20
410.9297769495301
 10
-2947.258795468357
 20
411.0914922800844
 10
-2947.258795468357
 20
411.0914922800844
 10
-2947.605022105617
 20
413.7660805604831
 10
-2947.605022105617
 20
413.7660805604831
 10
-2947.643552869534
 20
413.9778427870722
 10
-2947.643552869534
 20
413.9778427870722
 10
-2947.990939706601
 20
415.0315354621616
 10
-2947.990939706601
 20
415.0315354621616
 10
-2948.029575993692
 20
415.0958730405612
 10
-2948.029575993692
 20
415.0958730405612
 10
-2948.416358416399
 20
415.153100083858
 10
-2948.416358416399
 20
415.153100083858
 10
-2957.197068607438
 20
415.4054654209579
 10
-2957.197068607438
 20
415.4054654209579
 10
-2963.154042652307
 20
415.5536632002405
 10
-2963.154042652307
 20
415.5536632002405
 10
-2968.337396718323
 20
415.6644328916982
 10
-2968.337396718323
 20
415.6644328916982
 10
-2973.366037383203
 20
415.7529153807283
 10
-2973.366037383203
 20
415.7529153807283
 10
-2978.007872564905
 20
415.8163882224547
 10
-2978.007872564905
 20
415.8163882224547
 10
-2982.765770011314
 20
415.858556449058
 10
-2982.765770011314
 20
415.858556449058
 10
-2987.33027499732
 20
415.8738561793791
 10
-2987.33027499732
 20
415.8738561793791
 10
-2991.778752315964
 20
415.8621251578436
 10
-2991.778752315964
 20
415.8621251578436
 10
-2996.498024295316
 20
415.8248393180057
 10
-2996.498024295316
 20
415.8248393180057
 10
-3001.60413979065
 20
415.7594281344429
 10
-3001.60413979065
 20
415.7594281344429
 10
-3006.903685122225
 20
415.6686682929226
 10
-3006.903685122225
 20
415.6686682929226
 10
-3012.241927627732
 20
415.5571820517013
 10
-3012.241927627732
 20
415.5571820517013
 10
-3018.121744924723
 20
415.4148856957238
 10
-3018.121744924723
 20
415.4148856957238
 10
-3027.289641346364
 20
415.1603248682587
 10
-3027.289641346364
 20
415.1603248682587
 10
-3032.86002392362
 20
414.9845154600636
 10
-3032.86002392362
 20
414.9845154600636
 10
-3037.811498876076
 20
414.7950280279923
 10
-3037.811498876076
 20
414.7950280279923
 10
-3042.337480394692
 20
414.5883716767851
 10
-3042.337480394692
 20
414.5883716767851
 10
-3047.327680291392
 20
414.3393604108465
 10
-3047.327680291392
 20
414.3393604108465
 10
-3053.865246075839
 20
413.9892705800219
 10
-3053.865246075839
 20
413.9892705800219
 10
-3062.530448070896
 20
413.4888604510705
 10
-3062.530448070896
 20
413.4888604510705
 10
-3072.008034764643
 20
412.910784762755
 10
-3072.008034764643
 20
412.910784762755
 10
-3082.994313397393
 20
412.2199093917077
 10
-3082.994313397393
 20
412.2199093917077
 10
-3093.40033647128
 20
411.5576492172134
 10
-3093.40033647128
 20
411.5576492172134
 10
-3103.767667160455
 20
410.909424506853
 10
-3103.767667160455
 20
410.909424506853
 10
-3107.365279539245
 20
410.6930123303773
 10
-3107.365279539245
 20
410.6930123303773
 10
-3107.752103062587
 20
410.6928183687102
 10
-3107.752103062587
 20
410.6928183687102
 10
-3108.13880591812
 20
410.8612073695242
 10
-3108.13880591812
 20
410.8612073695242
 10
-3108.525120579887
 20
411.5719353417825
 10
-3108.525120579887
 20
411.5719353417825
 10
-3108.911087957527
 20
412.7678481155463
 10
-3108.911087957527
 20
412.7678481155463
 10
-3108.988378449963
 20
412.8714899836039
 10
-3108.988378449963
 20
412.8714899836039
 10
-3109.297609854694
 20
413.1890510017783
 10
-3109.297609854694
 20
413.1890510017783
 10
-3109.491017046047
 20
413.1953391370783
 10
-3109.491017046047
 20
413.1953391370783
 10
-3115.835194901955
 20
412.8120494393328
 10
-3115.835194901955
 20
412.8120494393328
 10
-3126.086476592293
 20
412.1665958537749
 10
-3126.086476592293
 20
412.1665958537749
 10
-3135.912237291958
 20
411.5424725336028
 10
-3135.912237291958
 20
411.5424725336028
 10
-3145.854042214538
 20
410.922250478214
 10
-3145.854042214538
 20
410.922250478214
 10
-3149.529022243708
 20
410.7016841184895
 10
-3149.529022243708
 20
410.7016841184895
 10
-3149.915839585335
 20
410.7101265278914
 10
-3149.915839585335
 20
410.7101265278914
 10
-3150.30214315209
 20
411.4363551549295
 10
-3150.30214315209
 20
411.4363551549295
 10
-3150.687315754181
 20
413.7426354609389
 10
-3150.687315754181
 20
413.7426354609389
 10
-3151.07323277243
 20
415.0089044933112
 10
-3151.07323277243
 20
415.0089044933112
 10
-3151.150543602109
 20
415.0841335407979
 10
-3151.150543602109
 20
415.0841335407979
 10
-3151.459853574613
 20
415.2919288488421
 10
-3151.459853574613
 20
415.2919288488421
 10
-3152.078745336314
 20
415.3277689408918
 10
-3152.078745336314
 20
415.3277689408918
 10
-3160.35659707238
 20
415.563446302503
 10
-3160.35659707238
 20
415.563446302503
 10
-3166.081482547079
 20
415.7040152788518
 10
-3166.081482547079
 20
415.7040152788518
 10
-3170.994064389498
 20
415.8089932967223
 10
-3170.994064389498
 20
415.8089932967223
 10
-3176.100068580636
 20
415.8990833465996
 10
-3176.100068580636
 20
415.8990833465996
 10
-3180.741904107765
 20
415.9620736143445
 10
-3180.741904107765
 20
415.9620736143445
 10
-3185.615848439103
 20
416.0044240689126
 10
-3185.615848439103
 20
416.0044240689126
 10
-3190.025624938949
 20
416.0185116434301
 10
-3190.025624938949
 20
416.0185116434301
 10
-3194.590149701959
 20
416.0061812692543
 10
-3194.590149701959
 20
416.0061812692543
 10
-3199.34810490291
 20
415.9676616121691
 10
-3199.34810490291
 20
415.9676616121691
 10
-3204.260806950688
 20
415.9047027489598
 10
-3204.260806950688
 20
415.9047027489598
 10
-3209.444303633978
 20
415.8162242669618
 10
-3209.444303633978
 20
415.8162242669618
 10
-3215.0533264973
 20
415.699165555172
 10
-3215.0533264973
 20
415.699165555172
 10
-3220.701045794687
 20
415.5624140982254
 10
-3220.701045794687
 20
415.5624140982254
 10
-3229.752892600347
 20
415.31148659441
 10
-3229.752892600347
 20
415.31148659441
 10
-3235.284590831192
 20
415.13848249144
 10
-3235.284590831192
 20
415.13848249144
 10
-3240.120013891439
 20
414.9558084509352
 10
-3240.120013891439
 20
414.9558084509352
 10
-3245.032829420218
 20
414.734307191978
 10
-3245.032829420218
 20
414.734307191978
 10
-3250.680653361393
 20
414.4513596634257
 10
-3250.680653361393
 20
414.4513596634257
 10
-3256.792698368931
 20
414.1223014698521
 10
-3256.792698368931
 20
414.1223014698521
 10
-3264.645537165865
 20
413.6695188462213
 10
-3264.645537165865
 20
413.6695188462213
 10
-3274.0070708442
 20
413.0998257665139
 10
-3274.0070708442
 20
413.0998257665139
 10
-3284.180982506352
 20
412.4618483656457
 10
-3284.180982506352
 20
412.4618483656457
 10
-3293.92937529286
 20
411.8422463634378
 10
-3293.92937529286
 20
411.8422463634378
 10
-3304.103287338087
 20
411.2037337785617
 10
-3304.103287338087
 20
411.2037337785617
 10
-3310.060628432169
 20
410.839133305375
 10
-3310.060628432169
 20
410.839133305375
 10
-3310.447464164522
 20
410.8218823405261
 10
-3310.447464164522
 20
410.8218823405261
 10
-3310.834204303784
 20
410.9381828734957
 10
-3310.834204303784
 20
410.9381828734957
 10
-3311.220513219466
 20
411.6569386058722
 10
-3311.220513219466
 20
411.6569386058722
 10
-3311.606494043112
 20
412.834066193866
 10
-3311.606494043112
 20
412.834066193866
 10
-3311.992927451095
 20
413.3788958289387
 10
-3311.992927451095
 20
413.3788958289387
 10
-3312.495802530455
 20
413.3723581810471
 10
-3312.495802530455
 20
413.3723581810471
 10
-3320.464715949568
 20
412.8810065269215
 10
-3320.464715949568
 20
412.8810065269215
 10
-3330.715998064427
 20
412.2349598484779
 10
-3330.715998064427
 20
412.2349598484779
 10
-3340.000180703487
 20
411.6462138746201
 10
-3340.000180703487
 20
411.6462138746201
 10
-3349.516460760511
 20
411.0527356184672
 10
-3349.516460760511
 20
411.0527356184672
 10
-3352.611180556737
 20
410.8673145328681
 10
-3352.611180556737
 20
410.8673145328681
 10
-3352.998015618849
 20
410.8509999507884
 10
-3352.998015618849
 20
410.8509999507884
 10
-3353.384719230234
 20
411.0183329661837
 10
-3353.384719230234
 20
411.0183329661837
 10
-3353.770788771174
 20
412.0715151172642
 10
-3353.770788771174
 20
412.0715151172642
 10
-3354.156239232424
 20
413.9896030717161
 10
-3354.156239232424
 20
413.9896030717161
 10
-3354.542171406958
 20
415.2346975147527
 10
-3354.542171406958
 20
415.2346975147527
 10
-3354.928835244914
 20
415.4575973155543
 10
-3354.928835244914
 20
415.4575973155543
 10
-3358.680937156143
 20
415.5762355410628
 10
-3358.680937156143
 20
415.5762355410628
 10
-3364.637901680835
 20
415.7377338162582
 10
-3364.637901680835
 20
415.7377338162582
 10
-3370.130699449296
 20
415.869466986985
 10
-3370.130699449296
 20
415.869466986985
 10
-3375.043283587169
 20
415.9712380641916
 10
-3375.043283587169
 20
415.9712380641916
 10
-3379.182241964341
 20
416.0436587742921
 10
-3379.182241964341
 20
416.0436587742921
 10
-3384.017487494096
 20
416.1090095928606
 10
-3384.017487494096
 20
416.1090095928606
 10
-3388.504610506247
 20
416.1484746193588
 10
-3388.504610506247
 20
416.1484746193588
 10
-3393.030432848263
 20
416.1642012275319
 10
-3393.030432848263
 20
416.1642012275319
 10
-3397.59495719542
 20
416.152451834581
 10
-3397.59495719542
 20
416.152451834581
 10
-3402.507642456282
 20
416.1129456883903
 10
-3402.507642456282
 20
416.1129456883903
 10
-3407.3816620944
 20
416.050086309704
 10
-3407.3816620944
 20
416.050086309704
 10
-3412.681207219279
 20
415.9596152555939
 10
-3412.681207219279
 20
415.9596152555939
 10
-3417.980766783335
 20
415.8489714735829
 10
-3417.980766783335
 20
415.8489714735829
 10
-3423.473753357186
 20
415.7169278134968
 10
-3423.473753357186
 20
415.7169278134968
 10
-3429.508314898344
 20
415.5538283990356
 10
-3429.508314898344
 20
415.5538283990356
 10
-3437.322314808127
 20
415.3197573294427
 10
-3437.322314808127
 20
415.3197573294427
 10
-3440.958546257973
 20
415.1917349755906
 10
-3440.958546257973
 20
415.1917349755906
 10
-3444.710843370059
 20
415.0376613710827
 10
-3444.710843370059
 20
415.0376613710827
 10
-3451.325748230508
 20
414.7233381477071
 10
-3451.325748230508
 20
414.7233381477071
 10
-3457.553839891062
 20
414.3947861690224
 10
-3457.553839891062
 20
414.3947861690224
 10
-3466.335087252856
 20
413.8966793226191
 10
-3466.335087252856
 20
413.8966793226191
 10
-3475.38714625679
 20
413.3492931855069
 10
-3475.38714625679
 20
413.3492931855069
 10
-3485.019478575021
 20
412.7484860352284
 10
-3485.019478575021
 20
412.7484860352284
 10
-3494.883922818392
 20
412.1226788739157
 10
-3494.883922818392
 20
412.1226788739157
 10
-3504.670996140915
 20
411.5055950198565
 10
-3504.670996140915
 20
411.5055950198565
 10
-3511.015181501684
 20
411.1118204088252
 10
-3511.015181501684
 20
411.1118204088252
 10
-3513.297536448817
 20
410.9763333429343
 10
-3513.297536448817
 20
410.9763333429343
 10
-3513.529637166513
 20
410.9669910597796
 10
-3513.529637166513
 20
410.9669910597796
 10
-3513.877735591736
 20
411.0265359139575
 10
-3513.877735591736
 20
411.0265359139575
 10
-3513.916400808649
 20
411.0504561235701
 10
-3513.916400808649
 20
411.0504561235701
 10
-3514.264094498638
 20
411.6754497548166
 10
-3514.264094498638
 20
411.6754497548166
 10
-3514.341283068888
 20
411.921485389994
 10
-3514.341283068888
 20
411.921485389994
 10
-3514.649863650124
 20
413.1483009496974
 10
-3514.649863650124
 20
413.1483009496974
 10
-3514.68848301999
 20
413.2362732985156
 10
-3514.68848301999
 20
413.2362732985156
 10
-3516.218459683297
 20
413.3328852322041
 10
-3516.218459683297
 20
413.3328852322041
 10
-3516.229419024084
 20
413.333577270933
 10
-3516.229419024084
 20
413.333577270933
 10
-3516.218459683297
 20
413.3239701975561
210
0.0
220
0.0
230
-1.0
  0
LWPOLYLINE
  5
428
330
1F
100
AcDbEntity
  8
Vector Layer 2
 62
    18
420
        0
370
    30
100
AcDbPolyline
 90
       12
 70
     0
 43
0.0
 10
-3516.218459683297
 20
413.3328852322041
 10
-3516.218459683297
 20
413.3239701975563
 10
-3516.218459683297
 20
413.3239701975563
 10
-3516.218459683297
 20
406.7279753648382
 10
-3516.218459683297
 20
406.7279753648382
 10
-3516.218459683297
 20
397.518998102333
 10
-3516.218459683297
 20
397.518998102333
 10
-2297.029398831074
 20
397.5189981023341
 10
-2297.029398831074
 20
397.5189981023341
 10
-2297.018459683297
 20
397.5189981023341
 10
-2297.018459683297
 20
397.5189981023341
 10
-2297.018459683297
 20
409.9558811936942
210
0.0
220
0.0
230
-1.0
  0
LINE
  5
429
330
1F
100
AcDbEntity
  8
Vector Layer 2
 62
    18
420
        0
370
    30
100
AcDbLine
 10
2297.029398831074
 20
410.0123753416588
 30
0.0
 11
2297.029398831074
 21
397.5189981023342
 31
0.0
  0
ENDSEC
  0
SECTION
  2
OBJECTS
  0
DICTIONARY
  5
C
330
0
100
AcDbDictionary
281
     1
  3
ACAD_CIP_PREVIOUS_PRODUCT_INFO
350
216
  3
ACAD_COLOR
350
6B
  3
ACAD_DETAILVIEWSTYLE
350
21B
  3
ACAD_GROUP
350
D
  3
ACAD_LAYOUT
350
1A
  3
ACAD_MATERIAL
350
6A
  3
ACAD_MLEADERSTYLE
350
12D
  3
ACAD_MLINESTYLE
350
17
  3
ACAD_PLOTSETTINGS
350
19
  3
ACAD_PLOTSTYLENAME
350
E
  3
ACAD_SCALELIST
350
10C
  3
ACAD_SECTIONVIEWSTYLE
350
219
  3
ACAD_TABLESTYLE
350
7E
  3
ACAD_VISUALSTYLE
350
EF
  3
ACDB_RECOMPOSE_DATA
350
42C
  3
AcDbVariableDictionary
350
5E
  3
AcDsDecomposeData
350
432
  0
DICTIONARY
  5
1FF
330
2
100
AcDbDictionary
280
     1
281
     1
  3
ACAD_LAYERSTATES
360
200
  0
DICTIONARY
  5
13C
330
10
100
AcDbDictionary
280
     1
281
     1
  0
DICTIONARY
  5
1CE
330
1F
100
AcDbDictionary
280
     1
281
     1
  0
XRECORD
  5
216
102
{ACAD_REACTORS
330
C
102
}
330
C
100
AcDbXrecord
280
     1
300
ACD
300
2015
300

  0
DICTIONARY
  5
6B
102
{ACAD_REACTORS
330
C
102
}
330
C
100
AcDbDictionary
281
     1
  0
DICTIONARY
  5
21B
102
{ACAD_REACTORS
330
C
102
}
330
C
100
AcDbDictionary
281
     1
  3
Metric50
350
21C
  0
DICTIONARY
  5
D
102
{ACAD_REACTORS
330
C
102
}
330
C
100
AcDbDictionary
281
     1
  0
DICTIONARY
  5
1A
102
{ACAD_REACTORS
330
C
102
}
330
C
100
AcDbDictionary
281
     1
  3
Layout1
350
D3
  3
Layout2
350
D7
  3
Model
350
22
  0
DICTIONARY
  5
6A
102
{ACAD_REACTORS
330
C
102
}
330
C
100
AcDbDictionary
281
     1
  3
ByBlock
350
ED
  3
ByLayer
350
EC
  3
Global
350
EE
  0
DICTIONARY
  5
12D
102
{ACAD_REACTORS
330
C
102
}
330
C
100
AcDbDictionary
281
     1
  3
Annotative
350
13B
  3
Standard
350
12E
  0
DICTIONARY
  5
17
102
{ACAD_REACTORS
330
C
102
}
330
C
100
AcDbDictionary
281
     1
  3
Standard
350
18
  0
DICTIONARY
  5
19
102
{ACAD_REACTORS
330
C
102
}
330
C
100
AcDbDictionary
281
     1
  0
ACDBDICTIONARYWDFLT
  5
E
102
{ACAD_REACTORS
330
C
102
}
330
C
100
AcDbDictionary
281
     1
  3
Normal
350
F
100
AcDbDictionaryWithDefault
340
F
  0
DICTIONARY
  5
10C
102
{ACAD_REACTORS
330
C
102
}
330
C
100
AcDbDictionary
281
     1
  3
A0
350
10D
  3
A1
350
1BE
  3
A2
350
1BF
  3
A3
350
1C0
  3
A4
350
1C1
  3
A5
350
1C2
  3
A6
350
1C3
  3
A7
350
1C4
  3
A8
350
1C5
  3
A9
350
1C6
  3
B0
350
1C7
  3
B1
350
1C8
  3
B2
350
1C9
  3
B3
350
1CA
  3
B4
350
1CB
  3
B5
350
1CC
  3
B6
350
1CD
  0
DICTIONARY
  5
219
102
{ACAD_REACTORS
330
C
102
}
330
C
100
AcDbDictionary
281
     1
  3
Metric50
350
21A
  0
DICTIONARY
  5
7E
102
{ACAD_REACTORS
330
C
102
}
330
C
100
AcDbDictionary
281
     1
  3
Standard
350
7F
  0
DICTIONARY
  5
EF
102
{ACAD_REACTORS
330
C
102
}
330
C
100
AcDbDictionary
281
     1
  3
2dWireframe
350
F5
  3
Basic
350
F4
  3
Brighten
350
FB
  3
ColorChange
350
FF
  3
Conceptual
350
F8
  3
Dim
350
FA
  3
EdgeColorOff
350
1E6
  3
Facepattern
350
FE
  3
Flat
350
F0
  3
FlatWithEdges
350
F1
  3
Gouraud
350
F2
  3
GouraudWithEdges
350
F3
  3
Hidden
350
F7
  3
JitterOff
350
1E4
  3
Linepattern
350
FD
  3
OverhangOff
350
1E5
  3
Realistic
350
F9
  3
Shaded
350
1F3
  3
Shaded with edges
350
1F2
  3
Shades of Gray
350
1EF
  3
Sketchy
350
1F0
  3
Thicken
350
FC
  3
Wireframe
350
F6
  3
X-Ray
350
1F1
  0
XRECORD
  5
42C
102
{ACAD_REACTORS
330
C
102
}
330
C
100
AcDbXrecord
280
     1
 90
        1
330
7F
  0
DICTIONARY
  5
5E
102
{ACAD_REACTORS
330
C
102
}
330
C
100
AcDbDictionary
281
     1
  3
CANNOSCALE
350
146
  3
CMLEADERSTYLE
350
145
  3
CTABLESTYLE
350
84
  3
CVIEWDETAILSTYLE
350
227
  3
CVIEWSECTIONSTYLE
350
228
  3
DIMASSOC
350
5F
  3
HIDETEXT
350
63
  3
LAYEREVAL
350
1AE
  3
LAYERNOTIFY
350
1AF
  3
XCLIPFRAME
350
42A
  0
DICTIONARY
  5
432
102
{ACAD_REACTORS
330
C
102
}
330
C
100
AcDbDictionary
281
     1
  3
AcDsRecords
350
434
  3
AcDsSchemas
350
433
1001
ACAD
1070
     2
  0
DICTIONARY
  5
200
102
{ACAD_REACTORS
330
1FF
102
}
330
1FF
100
AcDbDictionary
281
     1
  0
ACDBDETAILVIEWSTYLE
  5
21C
102
{ACAD_XDICTIONARY
360
236
102
}
102
{ACAD_REACTORS
330
21B
102
}
330
21B
100
AcDbModelDocViewStyle
 70
     0
  3
Metric50
290
     0
100
AcDbDetailViewStyle
 70
     0
 71
     0
 90
        3
 71
     1
340
11
 62
   256
 40
5.0
340
0
 62
   256
 40
5.0
300

 40
0.0
280
     1
 71
     2
340
16
 90
       25
 62
   256
 71
     3
340
11
 62
   256
 40
5.0
 90
        0
 40
15.0
 90
        1
300
%<\AcVar ViewDetailId>% (%<\AcVar ViewScale \f "%sn">%)
 71
     4
340
16
 90
       25
 62
   256
340
16
 90
       25
 62
   256
280
     0
  0
LAYOUT
  5
D3
102
{ACAD_REACTORS
330
1A
102
}
330
1A
100
AcDbPlotSettings
  1

  2
C:\Documents and Settings\basas\Application Data\Autodesk\AutoCAD 2005\R16.1\enu\plotters\Default Windows System Printer.pc3
  4

  6

 40
0.0
 41
0.0
 42
0.0
 43
0.0
 44
0.0
 45
0.0
 46
0.0
 47
0.0
 48
0.0
 49
0.0
140
0.0
141
0.0
142
1.0
143
1.0
 70
   688
 72
     0
 73
     0
 74
     5
  7

 75
    16
147
1.0
 76
     0
 77
     2
 78
   300
148
0.0
149
0.0
100
AcDbLayout
  1
Layout1
 70
     1
 71
     1
 10
0.0
 20
0.0
 11
12.0
 21
9.0
 12
0.0
 22
0.0
 32
0.0
 14
0.0
 24
0.0
 34
0.0
 15
0.0
 25
0.0
 35
0.0
146
0.0
 13
0.0
 23
0.0
 33
0.0
 16
1.0
 26
0.0
 36
0.0
 17
0.0
 27
1.0
 37
0.0
 76
     0
330
D2
  0
LAYOUT
  5
D7
102
{ACAD_REACTORS
330
1A
102
}
330
1A
100
AcDbPlotSettings
  1

  2
C:\Documents and Settings\basas\Application Data\Autodesk\AutoCAD 2005\R16.1\enu\plotters\Default Windows System Printer.pc3
  4

  6

 40
0.0
 41
0.0
 42
0.0
 43
0.0
 44
0.0
 45
0.0
 46
0.0
 47
0.0
 48
0.0
 49
0.0
140
0.0
141
0.0
142
1.0
143
1.0
 70
   688
 72
     0
 73
     0
 74
     5
  7

 75
    16
147
1.0
 76
     0
 77
     2
 78
   300
148
0.0
149
0.0
100
AcDbLayout
  1
Layout2
 70
     1
 71
     2
 10
0.0
 20
0.0
 11
12.0
 21
9.0
 12
0.0
 22
0.0
 32
0.0
 14
0.0
 24
0.0
 34
0.0
 15
0.0
 25
0.0
 35
0.0
146
0.0
 13
0.0
 23
0.0
 33
0.0
 16
1.0
 26
0.0
 36
0.0
 17
0.0
 27
1.0
 37
0.0
 76
     0
330
D6
  0
LAYOUT
  5
22
102
{ACAD_XDICTIONARY
360
205
102
}
102
{ACAD_REACTORS
330
1A
102
}
330
1A
100
AcDbPlotSettings
  1

  2
none_device
  4
ISO_A4_(210.00_x_297.00_MM)
  6

 40
7.5
 41
20.0
 42
7.5
 43
20.0
 44
210.0
 45
297.0
 46
11.54999923706054
 47
-13.65000009536743
 48
0.0
 49
0.0
140
0.0
141
0.0
142
1.0
143
8.704084754739808
 70
 11952
 72
     1
 73
     0
 74
     0
  7

 75
     0
147
0.1148885871608098
 76
     0
 77
     2
 78
   300
148
0.0
149
0.0
100
AcDbLayout
  1
Model
 70
     1
 71
     0
 10
0.0
 20
0.0
 11
12.0
 21
9.0
 12
0.0
 22
0.0
 32
0.0
 14
0.0
 24
0.0
 34
0.0
 15
0.0
 25
0.0
 35
0.0
146
0.0
 13
0.0
 23
0.0
 33
0.0
 16
1.0
 26
0.0
 36
0.0
 17
0.0
 27
1.0
 37
0.0
 76
     0
330
1F
331
EA
1001
ACAD_PSEXT
1000
None
1000
None
1000
Not applicable
1000
The layout will not be plotted unless a new plotter configuration name is selected.
1070
     0
  0
MATERIAL
  5
ED
102
{ACAD_XDICTIONARY
360
1F9
102
}
102
{ACAD_REACTORS
330
6A
102
}
330
6A
100
AcDbMaterial
  1
ByBlock
 94
       63
  0
MATERIAL
  5
EC
102
{ACAD_XDICTIONARY
360
1F7
102
}
102
{ACAD_REACTORS
330
6A
102
}
330
6A
100
AcDbMaterial
  1
ByLayer
 94
       63
  0
MATERIAL
  5
EE
102
{ACAD_XDICTIONARY
360
173
102
}
102
{ACAD_REACTORS
330
6A
102
}
330
6A
100
AcDbMaterial
  1
Global
 43
0.0007999999797903
 43
0.0
 43
0.0
 43
0.0
 43
0.0
 43
0.0007999999797903
 43
0.0
 43
0.0
 43
0.0
 43
0.0
 43
1.0
 43
0.0
 43
0.0
 43
0.0
 43
0.0
 43
1.0
 49
0.0007999999797903
 49
0.0
 49
0.0
 49
0.0
 49
0.0
 49
0.0007999999797903
 49
0.0
 49
0.0
 49
0.0
 49
0.0
 49
1.0
 49
0.0
 49
0.0
 49
0.0
 49
0.0
 49
1.0
142
0.0007999999797903
142
0.0
142
0.0
142
0.0
142
0.0
142
0.0007999999797903
142
0.0
142
0.0
142
0.0
142
0.0
142
1.0
142
0.0
142
0.0
142
0.0
142
0.0
142
1.0
144
0.0007999999797903
144
0.0
144
0.0
144
0.0
144
0.0
144
0.0007999999797903
144
0.0
144
0.0
144
0.0
144
0.0
144
1.0
144
0.0
144
0.0
144
0.0
144
0.0
144
1.0
 94
       63
1001
ACAD
1070
    -1
1070
     3
1070
     0
1000

1071
        0
1070
     0
  0
MLEADERSTYLE
  5
13B
102
{ACAD_REACTORS
330
12D
102
}
330
12D
100
AcDbMLeaderStyle
170
     2
171
     1
172
     0
 90
        2
 40
0.0
 41
0.0
173
     1
 91
-1056964608
340
14
 92
       -2
290
     1
 42
2.0
291
     1
 43
8.0
  3
Standard
 44
4.0
300

342
11
174
     1
178
     1
175
     1
176
     0
 93
-1056964608
 45
4.0
292
     0
297
     0
 46
4.0
 94
-1056964608
 47
1.0
 49
1.0
140
1.0
293
     1
141
0.0
294
     1
177
     0
142
1.0
295
     0
296
     1
143
3.75
1001
ACAD_MLEADERVER
1070
     2
  0
MLEADERSTYLE
  5
12E
102
{ACAD_REACTORS
330
12D
102
}
330
12D
100
AcDbMLeaderStyle
170
     2
171
     1
172
     0
 90
        2
 40
0.0
 41
0.0
173
     1
 91
-1056964608
340
14
 92
       -2
290
     1
 42
2.0
291
     1
 43
8.0
  3
Standard
 44
4.0
300

342
11
174
     1
178
     1
175
     1
176
     0
 93
-1056964608
 45
4.0
292
     0
297
     0
 46
4.0
 94
-1056964608
 47
1.0
 49
1.0
140
1.0
293
     1
141
0.0
294
     1
177
     0
142
1.0
295
     0
296
     0
143
3.75
1001
ACAD_MLEADERVER
1070
     2
  0
MLINESTYLE
  5
18
102
{ACAD_REACTORS
330
17
102
}
330
17
100
AcDbMlineStyle
  2
STANDARD
 70
     0
  3

 62
   256
 51
90.0
 52
90.0
 71
     2
 49
0.5
 62
   256
  6
BYLAYER
 49
-0.5
 62
   256
  6
BYLAYER
  0
ACDBPLACEHOLDER
  5
F
102
{ACAD_REACTORS
330
E
102
}
330
E
  0
SCALE
  5
10D
102
{ACAD_REACTORS
330
10C
102
}
330
10C
100
AcDbScale
 70
     0
300
1:1
140
1.0
141
1.0
290
     1
  0
SCALE
  5
1BE
102
{ACAD_REACTORS
330
10C
102
}
330
10C
100
AcDbScale
 70
     0
300
1:2
140
1.0
141
2.0
290
     0
  0
SCALE
  5
1BF
102
{ACAD_REACTORS
330
10C
102
}
330
10C
100
AcDbScale
 70
     0
300
1:4
140
1.0
141
4.0
290
     0
  0
SCALE
  5
1C0
102
{ACAD_REACTORS
330
10C
102
}
330
10C
100
AcDbScale
 70
     0
300
1:5
140
1.0
141
5.0
290
     0
  0
SCALE
  5
1C1
102
{ACAD_REACTORS
330
10C
102
}
330
10C
100
AcDbScale
 70
     0
300
1:8
140
1.0
141
8.0
290
     0
  0
SCALE
  5
1C2
102
{ACAD_REACTORS
330
10C
102
}
330
10C
100
AcDbScale
 70
     0
300
1:10
140
1.0
141
10.0
290
     0
  0
SCALE
  5
1C3
102
{ACAD_REACTORS
330
10C
102
}
330
10C
100
AcDbScale
 70
     0
300
1:16
140
1.0
141
16.0
290
     0
  0
SCALE
  5
1C4
102
{ACAD_REACTORS
330
10C
102
}
330
10C
100
AcDbScale
 70
     0
300
1:20
140
1.0
141
20.0
290
     0
  0
SCALE
  5
1C5
102
{ACAD_REACTORS
330
10C
102
}
330
10C
100
AcDbScale
 70
     0
300
1:30
140
1.0
141
30.0
290
     0
  0
SCALE
  5
1C6
102
{ACAD_REACTORS
330
10C
102
}
330
10C
100
AcDbScale
 70
     0
300
1:40
140
1.0
141
40.0
290
     0
  0
SCALE
  5
1C7
102
{ACAD_REACTORS
330
10C
102
}
330
10C
100
AcDbScale
 70
     0
300
1:50
140
1.0
141
50.0
290
     0
  0
SCALE
  5
1C8
102
{ACAD_REACTORS
330
10C
102
}
330
10C
100
AcDbScale
 70
     0
300
1:100
140
1.0
141
100.0
290
     0
  0
SCALE
  5
1C9
102
{ACAD_REACTORS
330
10C
102
}
330
10C
100
AcDbScale
 70
     0
300
2:1
140
2.0
141
1.0
290
     0
  0
SCALE
  5
1CA
102
{ACAD_REACTORS
330
10C
102
}
330
10C
100
AcDbScale
 70
     0
300
4:1
140
4.0
141
1.0
290
     0
  0
SCALE
  5
1CB
102
{ACAD_REACTORS
330
10C
102
}
330
10C
100
AcDbScale
 70
     0
300
8:1
140
8.0
141
1.0
290
     0
  0
SCALE
  5
1CC
102
{ACAD_REACTORS
330
10C
102
}
330
10C
100
AcDbScale
 70
     0
300
10:1
140
10.0
141
1.0
290
     0
  0
SCALE
  5
1CD
102
{ACAD_REACTORS
330
10C
102
}
330
10C
100
AcDbScale
 70
     0
300
100:1
140
100.0
141
1.0
290
     0
  0
ACDBSECTIONVIEWSTYLE
  5
21A
102
{ACAD_XDICTIONARY
360
234
102
}
102
{ACAD_REACTORS
330
219
102
}
330
219
100
AcDbModelDocViewStyle
 70
     0
  3
Metric50
290
     0
100
AcDbSectionViewStyle
 70
     0
 71
     0
 90
      102
 71
     1
340
11
 62
   256
 40
5.0
340
0
340
0
 62
   256
 40
5.0
300
I, O, Q, S, X, Z
 40
10.0
 90
        0
 40
2.5
 90
        0
 71
     2
340
16
 90
       25
 62
   256
340
16
 90
       50
 62
   256
 40
5.0
 40
2.5
 40
5.0
 71
     3
340
11
 62
   256
 40
5.0
 90
        0
 40
15.0
 90
        1
300
%<\AcVar ViewSectionStartId>%-%<\AcVar ViewSectionEndId>% (%<\AcVar ViewScale \f "%sn">%)
 71
     4
 62
   256
 62
   257
300
ANSI31
 40
1.0
 90
        0
290
     0
290
     0
 90
        6
 40
0.0
 40
1.570796326794896
 40
0.2617993877991494
 40
1.308996938995747
 40
-0.2617993877991494
 40
1.832595714594046
  0
TABLESTYLE
  5
7F
102
{ACAD_XDICTIONARY
360
162
102
}
102
{ACAD_REACTORS
330
7E
102
}
330
7E
100
AcDbTableStyle
  3
Standard
 70
     0
 71
     0
 40
1.5
 41
1.5
280
     0
281
     0
  7
Standard
140
4.5
170
     2
 62
     0
 63
     7
283
     0
 90
      512
 91
        0
  1

274
    -2
284
     1
 64
     0
275
    -2
285
     1
 65
     0
276
    -2
286
     1
 66
     0
277
    -2
287
     1
 67
     0
278
    -2
288
     1
 68
     0
279
    -2
289
     1
 69
     0
  7
Standard
140
6.0
170
     5
 62
     0
 63
     7
283
     0
 90
      512
 91
        0
  1

274
    -2
284
     1
 64
     0
275
    -2
285
     1
 65
     0
276
    -2
286
     1
 66
     0
277
    -2
287
     1
 67
     0
278
    -2
288
     1
 68
     0
279
    -2
289
     1
 69
     0
  7
Standard
140
4.5
170
     5
 62
     0
 63
     7
283
     0
 90
      512
 91
        0
  1

274
    -2
284
     1
 64
     0
275
    -2
285
     1
 65
     0
276
    -2
286
     1
 66
     0
277
    -2
287
     1
 67
     0
278
    -2
288
     1
 68
     0
279
    -2
289
     1
 69
     0
  0
VISUALSTYLE
  5
F5
102
{ACAD_XDICTIONARY
360
43F
102
}
102
{ACAD_REACTORS
330
EF
102
}
330
EF
100
AcDbVisualStyle
  2
2dWireframe
 70
     4
 71
     0
 72
     2
 73
     1
 90
        0
 40
-0.6
 41
-30.0
 62
     5
 63
     7
421
 16777215
 74
     1
 91
        4
 64
     7
 65
   257
 75
     1
175
     1
 42
1.0
 92
        0
 66
   257
 43
1.0
 76
     1
 77
     6
 78
     2
 67
     7
 79
     5
170
     0
171
     0
290
     0
174
     0
 93
        1
 44
0.0
173
     0
291
     0
 45
0.0
1001
ACAD
1000
AcDbSavedByObjectVersion
1070
     0
  0
VISUALSTYLE
  5
F4
102
{ACAD_XDICTIONARY
360
43D
102
}
102
{ACAD_REACTORS
330
EF
102
}
330
EF
100
AcDbVisualStyle
  2
Basic
 70
     7
 71
     1
 72
     0
 73
     1
 90
        0
 40
-0.6
 41
-30.0
 62
     5
 63
     7
421
 16777215
 74
     0
 91
        4
 64
     7
 65
   257
 75
     1
175
     1
 42
1.0
 92
        8
 66
     7
 43
1.0
 76
     1
 77
     6
 78
     2
 67
     7
 79
     5
170
     0
171
     0
290
     0
174
     0
 93
        1
 44
0.0
173
     0
291
     1
 45
0.0
1001
ACAD
1000
AcDbSavedByObjectVersion
1070
     0
  0
VISUALSTYLE
  5
FB
102
{ACAD_XDICTIONARY
360
44B
102
}
102
{ACAD_REACTORS
330
EF
102
}
330
EF
100
AcDbVisualStyle
  2
Brighten
 70
    12
 71
     2
 72
     2
 73
     1
 90
        0
 40
-0.6
 41
-30.0
 62
     5
 63
     7
421
 16777215
 74
     1
 91
        4
 64
     7
 65
   257
 75
     1
175
     1
 42
1.0
 92
        8
 66
     7
 43
1.0
 76
     1
 77
     6
 78
     2
 67
     7
 79
     5
170
     0
171
     0
290
     0
174
     0
 93
        1
 44
50.0
173
     0
291
     1
 45
0.0
1001
ACAD
1000
AcDbSavedByObjectVersion
1070
     0
  0
VISUALSTYLE
  5
FF
102
{ACAD_XDICTIONARY
360
453
102
}
102
{ACAD_REACTORS
330
EF
102
}
330
EF
100
AcDbVisualStyle
  2
ColorChange
 70
    16
 71
     2
 72
     2
 73
     3
 90
        0
 40
-0.6
 41
-30.0
 62
     5
 63
     8
421
  8421504
 74
     1
 91
        4
 64
     7
 65
   257
 75
     1
175
     1
 42
1.0
 92
        8
 66
     8
424
  8421504
 43
1.0
 76
     1
 77
     6
 78
     2
 67
     7
 79
     5
170
     0
171
     0
290
     0
174
     0
 93
        1
 44
0.0
173
     0
291
     1
 45
0.0
1001
ACAD
1000
AcDbSavedByObjectVersion
1070
     0
  0
VISUALSTYLE
  5
F8
102
{ACAD_XDICTIONARY
360
445
102
}
102
{ACAD_REACTORS
330
EF
102
}
330
EF
100
AcDbVisualStyle
  2
Conceptual
 70
     9
 71
     3
 72
     2
 73
     1
 90
        0
 40
-0.6
 41
-30.0
 62
     5
 63
     7
421
 16777215
 74
     2
 91
        2
 64
     7
 65
   257
 75
     1
175
     1
 42
40.0
 92
        8
 66
     7
 43
1.0
 76
     1
 77
     6
 78
     2
 67
     7
 79
     3
170
     0
171
     0
290
     0
174
     0
 93
        1
 44
0.0
173
     0
291
     0
 45
0.0
1001
ACAD
1000
AcDbSavedByObjectVersion
1070
     0
  0
VISUALSTYLE
  5
FA
102
{ACAD_XDICTIONARY
360
449
102
}
102
{ACAD_REACTORS
330
EF
102
}
330
EF
100
AcDbVisualStyle
  2
Dim
 70
    11
 71
     2
 72
     2
 73
     1
 90
        0
 40
-0.6
 41
-30.0
 62
     5
 63
     7
421
 16777215
 74
     1
 91
        4
 64
     7
 65
   257
 75
     1
175
     1
 42
1.0
 92
        8
 66
     7
 43
1.0
 76
     1
 77
     6
 78
     2
 67
     7
 79
     5
170
     0
171
     0
290
     0
174
     0
 93
        1
 44
-50.0
173
     0
291
     1
 45
0.0
1001
ACAD
1000
AcDbSavedByObjectVersion
1070
     0
  0
VISUALSTYLE
  5
1E6
102
{ACAD_XDICTIONARY
360
459
102
}
102
{ACAD_REACTORS
330
EF
102
}
330
EF
100
AcDbVisualStyle
  2
EdgeColorOff
 70
    22
 71
     2
 72
     2
 73
     0
 90
        0
 40
-0.6
 41
-30.0
 62
     5
 63
     7
421
 16777215
 74
     1
 91
        4
 64
     7
 65
   257
 75
     1
175
     1
 42
1.0
 92
        8
 66
     7
 43
1.0
 76
     1
 77
     6
 78
     2
 67
     7
 79
     5
170
     0
171
     0
290
     0
174
     0
 93
        1
 44
0.0
173
     0
291
     1
 45
0.0
1001
ACAD
1000
AcDbSavedByObjectVersion
1070
     0
  0
VISUALSTYLE
  5
FE
102
{ACAD_XDICTIONARY
360
451
102
}
102
{ACAD_REACTORS
330
EF
102
}
330
EF
100
AcDbVisualStyle
  2
Facepattern
 70
    15
 71
     2
 72
     2
 73
     1
 90
        0
 40
-0.6
 41
-30.0
 62
     5
 63
     7
421
 16777215
 74
     1
 91
        4
 64
     7
 65
   257
 75
     1
175
     1
 42
1.0
 92
        8
 66
     7
 43
1.0
 76
     1
 77
     6
 78
     2
 67
     7
 79
     5
170
     0
171
     0
290
     0
174
     0
 93
        1
 44
0.0
173
     0
291
     1
 45
0.0
1001
ACAD
1000
AcDbSavedByObjectVersion
1070
     0
  0
VISUALSTYLE
  5
F0
102
{ACAD_XDICTIONARY
360
435
102
}
102
{ACAD_REACTORS
330
EF
102
}
330
EF
100
AcDbVisualStyle
  2
Flat
 70
     0
 71
     2
 72
     1
 73
     1
 90
        2
 40
-0.6
 41
30.0
 62
     5
 63
     7
421
 16777215
 74
     0
 91
        0
 64
     7
 65
   257
 75
     1
175
     1
 42
1.0
 92
        8
 66
     7
 43
1.0
 76
     1
 77
     6
 78
     2
 67
     7
 79
     5
170
     0
171
     0
290
     0
174
     0
 93
       13
 44
0.0
173
     0
291
     1
 45
0.0
1001
ACAD
1000
AcDbSavedByObjectVersion
1070
     0
  0
VISUALSTYLE
  5
F1
102
{ACAD_XDICTIONARY
360
437
102
}
102
{ACAD_REACTORS
330
EF
102
}
330
EF
100
AcDbVisualStyle
  2
FlatWithEdges
 70
     1
 71
     2
 72
     1
 73
     1
 90
        2
 40
-0.6
 41
30.0
 62
     5
 63
     7
421
 16777215
 74
     1
 91
        0
 64
     7
 65
   257
 75
     1
175
     1
 42
1.0
 92
        0
 66
   257
 43
1.0
 76
     1
 77
     6
 78
     2
 67
     7
 79
     5
170
     0
171
     0
290
     0
174
     0
 93
       13
 44
0.0
173
     0
291
     1
 45
0.0
1001
ACAD
1000
AcDbSavedByObjectVersion
1070
     0
  0
VISUALSTYLE
  5
F2
102
{ACAD_XDICTIONARY
360
439
102
}
102
{ACAD_REACTORS
330
EF
102
}
330
EF
100
AcDbVisualStyle
  2
Gouraud
 70
     2
 71
     2
 72
     2
 73
     1
 90
        2
 40
-0.6
 41
30.0
 62
     5
 63
     7
421
 16777215
 74
     0
 91
        0
 64
     7
 65
   257
 75
     1
175
     1
 42
1.0
 92
        0
 66
     7
 43
1.0
 76
     1
 77
     6
 78
     2
 67
     7
 79
     5
170
     0
171
     0
290
     0
174
     0
 93
       13
 44
0.0
173
     0
291
     1
 45
0.0
1001
ACAD
1000
AcDbSavedByObjectVersion
1070
     0
  0
VISUALSTYLE
  5
F3
102
{ACAD_XDICTIONARY
360
43B
102
}
102
{ACAD_REACTORS
330
EF
102
}
330
EF
100
AcDbVisualStyle
  2
GouraudWithEdges
 70
     3
 71
     2
 72
     2
 73
     1
 90
        2
 40
-0.6
 41
30.0
 62
     5
 63
     7
421
 16777215
 74
     1
 91
        0
 64
     7
 65
   257
 75
     1
175
     1
 42
1.0
 92
        0
 66
   257
 43
1.0
 76
     1
 77
     6
 78
     2
 67
     7
 79
     5
170
     0
171
     0
290
     0
174
     0
 93
       13
 44
0.0
173
     0
291
     1
 45
0.0
1001
ACAD
1000
AcDbSavedByObjectVersion
1070
     0
  0
VISUALSTYLE
  5
F7
102
{ACAD_XDICTIONARY
360
443
102
}
102
{ACAD_REACTORS
330
EF
102
}
330
EF
100
AcDbVisualStyle
  2
Hidden
 70
     6
 71
     1
 72
     2
 73
     2
 90
        0
 40
-0.6
 41
-30.0
 62
     5
 63
     7
421
 16777215
 74
     2
 91
        2
 64
     7
 65
   257
 75
     2
175
     1
 42
40.0
 92
        0
 66
   257
 43
1.0
 76
     1
 77
     6
 78
     2
 67
     7
 79
     3
170
     0
171
     0
290
     0
174
     0
 93
        1
 44
0.0
173
     0
291
     0
 45
0.0
1001
ACAD
1000
AcDbSavedByObjectVersion
1070
     0
  0
VISUALSTYLE
  5
1E4
102
{ACAD_XDICTIONARY
360
455
102
}
102
{ACAD_REACTORS
330
EF
102
}
330
EF
100
AcDbVisualStyle
  2
JitterOff
 70
    20
 71
     2
 72
     2
 73
     0
 90
        0
 40
-0.6
 41
-30.0
 62
     5
 63
     7
421
 16777215
 74
     1
 91
        4
 64
     7
 65
   257
 75
     1
175
     1
 42
1.0
 92
       10
 66
     7
 43
1.0
 76
     1
 77
     6
 78
     2
 67
     7
 79
     5
170
     0
171
     0
290
     0
174
     0
 93
        1
 44
0.0
173
     0
291
     1
 45
0.0
1001
ACAD
1000
AcDbSavedByObjectVersion
1070
     0
  0
VISUALSTYLE
  5
FD
102
{ACAD_XDICTIONARY
360
44F
102
}
102
{ACAD_REACTORS
330
EF
102
}
330
EF
100
AcDbVisualStyle
  2
Linepattern
 70
    14
 71
     2
 72
     2
 73
     1
 90
        0
 40
-0.6
 41
-30.0
 62
     5
 63
     7
421
 16777215
 74
     1
 91
        4
 64
     7
 65
   257
 75
     7
175
     7
 42
1.0
 92
        8
 66
     7
 43
1.0
 76
     1
 77
     6
 78
     2
 67
     7
 79
     5
170
     0
171
     0
290
     0
174
     0
 93
        1
 44
0.0
173
     0
291
     1
 45
0.0
1001
ACAD
1000
AcDbSavedByObjectVersion
1070
     0
  0
VISUALSTYLE
  5
1E5
102
{ACAD_XDICTIONARY
360
457
102
}
102
{ACAD_REACTORS
330
EF
102
}
330
EF
100
AcDbVisualStyle
  2
OverhangOff
 70
    21
 71
     2
 72
     2
 73
     0
 90
        0
 40
-0.6
 41
-30.0
 62
     5
 63
     7
421
 16777215
 74
     1
 91
        4
 64
     7
 65
   257
 75
     1
175
     1
 42
1.0
 92
        9
 66
     7
 43
1.0
 76
     1
 77
     6
 78
     2
 67
     7
 79
     5
170
     0
171
     0
290
     0
174
     0
 93
        1
 44
0.0
173
     0
291
     1
 45
0.0
1001
ACAD
1000
AcDbSavedByObjectVersion
1070
     0
  0
VISUALSTYLE
  5
F9
102
{ACAD_XDICTIONARY
360
447
102
}
102
{ACAD_REACTORS
330
EF
102
}
330
EF
100
AcDbVisualStyle
  2
Realistic
 70
     8
 71
     2
 72
     3
 73
     0
 90
        2
 40
-0.6
 41
30.0
 62
     5
 63
     7
421
 16777215
 74
     0
 91
        0
 64
     7
 65
   257
 75
     1
175
     1
 42
1.0
 92
        8
 66
   257
 43
1.0
 76
     1
 77
     6
 78
     2
 67
     7
 79
     3
170
     0
171
     0
290
     0
174
     0
 93
       13
 44
0.0
173
     0
291
     0
 45
0.0
1001
ACAD
1000
AcDbSavedByObjectVersion
1070
     0
  0
VISUALSTYLE
  5
1F3
102
{ACAD_XDICTIONARY
360
463
102
}
102
{ACAD_REACTORS
330
EF
102
}
330
EF
100
AcDbVisualStyle
  2
Shaded
 70
    27
 71
     2
 72
     2
 73
     1
 90
        2
 40
-0.6
 41
30.0
 62
     5
 63
     7
421
 16777215
 74
     0
 91
        4
 64
     7
 65
   257
 75
     1
175
     1
 42
1.0
 92
        8
 66
   257
 43
1.0
 76
     1
 77
     6
 78
     2
 67
     8
425
  7895160
 79
     3
170
     0
171
     0
290
     0
174
     0
 93
        5
 44
0.0
173
     0
291
     0
 45
0.0
1001
ACAD
1000
AcDbSavedByObjectVersion
1070
     0
  0
VISUALSTYLE
  5
1F2
102
{ACAD_XDICTIONARY
360
461
102
}
102
{ACAD_REACTORS
330
EF
102
}
330
EF
100
AcDbVisualStyle
  2
Shaded with edges
 70
    26
 71
     2
 72
     2
 73
     1
 90
        2
 40
-0.6
 41
30.0
 62
     5
 63
     7
421
 16777215
 74
     1
 91
       10
 64
     7
 65
   257
 75
     2
175
     1
 42
1.0
 92
        8
 66
   257
 43
1.0
 76
     1
 77
     6
 78
     2
 67
     7
 79
     3
170
     0
171
     0
290
     0
174
     0
 93
        5
 44
0.0
173
     0
291
     0
 45
0.0
1001
ACAD
1000
AcDbSavedByObjectVersion
1070
     0
  0
VISUALSTYLE
  5
1EF
102
{ACAD_XDICTIONARY
360
45B
102
}
102
{ACAD_REACTORS
330
EF
102
}
330
EF
100
AcDbVisualStyle
  2
Shades of Gray
 70
    23
 71
     2
 72
     2
 73
     3
 90
        0
 40
-0.6
 41
-30.0
 62
     5
 63
     7
421
 16777215
 74
     2
 91
        2
 64
     7
 65
     7
 75
     1
175
     1
 42
40.0
 92
        8
 66
     7
 43
1.0
 76
     1
 77
     6
 78
     2
 67
     7
 79
     3
170
     0
171
     0
290
     0
174
     0
 93
        1
 44
0.0
173
     0
291
     0
 45
0.0
1001
ACAD
1000
AcDbSavedByObjectVersion
1070
     0
  0
VISUALSTYLE
  5
1F0
102
{ACAD_XDICTIONARY
360
45D
102
}
102
{ACAD_REACTORS
330
EF
102
}
330
EF
100
AcDbVisualStyle
  2
Sketchy
 70
    24
 71
     1
 72
     2
 73
     2
 90
        0
 40
-0.6
 41
-30.0
 62
     5
 63
     7
421
 16777215
 74
     2
 91
        2
 64
     7
 65
     7
 75
     1
175
     1
 42
40.0
 92
       11
 66
     7
 43
1.0
 76
     1
 77
     6
 78
     2
 67
     7
 79
     6
170
     0
171
     0
290
     0
174
     0
 93
        1
 44
0.0
173
     0
291
     0
 45
0.0
1001
ACAD
1000
AcDbSavedByObjectVersion
1070
     0
  0
VISUALSTYLE
  5
FC
102
{ACAD_XDICTIONARY
360
44D
102
}
102
{ACAD_REACTORS
330
EF
102
}
330
EF
100
AcDbVisualStyle
  2
Thicken
 70
    13
 71
     2
 72
     2
 73
     1
 90
        0
 40
-0.6
 41
-30.0
 62
     5
 63
     7
421
 16777215
 74
     1
 91
        4
 64
     7
 65
   257
 75
     1
175
     1
 42
1.0
 92
       12
 66
     7
 43
1.0
 76
     1
 77
     6
 78
     2
 67
     7
 79
     5
170
     0
171
     0
290
     0
174
     0
 93
        1
 44
0.0
173
     0
291
     1
 45
0.0
1001
ACAD
1000
AcDbSavedByObjectVersion
1070
     0
  0
VISUALSTYLE
  5
F6
102
{ACAD_XDICTIONARY
360
441
102
}
102
{ACAD_REACTORS
330
EF
102
}
330
EF
100
AcDbVisualStyle
  2
Wireframe
 70
     5
 71
     0
 72
     2
 73
     0
 90
        0
 40
-0.6
 41
-30.0
 62
     5
 63
     7
421
 16777215
 74
     1
 91
        4
 64
     7
 65
   257
 75
     1
175
     1
 42
1.0
 92
        0
 66
   257
 43
1.0
 76
     1
 77
     6
 78
     2
 67
     7
 79
     3
170
     0
171
     0
290
     0
174
     0
 93
        1
 44
0.0
173
     0
291
     0
 45
0.0
1001
ACAD
1000
AcDbSavedByObjectVersion
1070
     0
  0
VISUALSTYLE
  5
1F1
102
{ACAD_XDICTIONARY
360
45F
102
}
102
{ACAD_REACTORS
330
EF
102
}
330
EF
100
AcDbVisualStyle
  2
X-Ray
 70
    25
 71
     2
 72
     2
 73
     1
 90
        1
 40
0.5
 41
-30.0
 62
     5
 63
     7
421
 16777215
 74
     1
 91
        0
 64
     7
 65
   257
 75
     1
175
     1
 42
1.0
 92
        8
 66
     7
 43
1.0
 76
     1
 77
     6
 78
     2
 67
     7
 79
     3
170
     0
171
     0
290
     0
174
     0
 93
       13
 44
0.0
173
     0
291
     0
 45
0.0
1001
ACAD
1000
AcDbSavedByObjectVersion
1070
     0
  0
DICTIONARYVAR
  5
146
102
{ACAD_REACTORS
330
5E
102
}
330
5E
100
DictionaryVariables
280
     0
  1
1:1
  0
DICTIONARYVAR
  5
145
102
{ACAD_REACTORS
330
5E
102
}
330
5E
100
DictionaryVariables
280
     0
  1
STANDARD
  0
DICTIONARYVAR
  5
84
102
{ACAD_REACTORS
330
5E
102
}
330
5E
100
DictionaryVariables
280
     0
  1
STANDARD
  0
DICTIONARYVAR
  5
227
102
{ACAD_REACTORS
330
5E
102
}
330
5E
100
DictionaryVariables
280
     0
  1
Metric50
  0
DICTIONARYVAR
  5
228
102
{ACAD_REACTORS
330
5E
102
}
330
5E
100
DictionaryVariables
280
     0
  1
Metric50
  0
DICTIONARYVAR
  5
5F
102
{ACAD_REACTORS
330
5E
102
}
330
5E
100
DictionaryVariables
280
     0
  1
2
  0
DICTIONARYVAR
  5
63
102
{ACAD_REACTORS
330
5E
102
}
330
5E
100
DictionaryVariables
280
     0
  1
1
  0
DICTIONARYVAR
  5
1AE
102
{ACAD_REACTORS
330
5E
102
}
330
5E
100
DictionaryVariables
280
     0
  1
0
  0
DICTIONARYVAR
  5
1AF
102
{ACAD_REACTORS
330
5E
102
}
330
5E
100
DictionaryVariables
280
     0
  1
0
  0
DICTIONARYVAR
  5
42A
102
{ACAD_REACTORS
330
5E
102
}
330
5E
100
DictionaryVariables
280
     0
  1
2
  0
DICTIONARY
  5
434
102
{ACAD_REACTORS
330
432
102
}
330
432
100
AcDbDictionary
281
     1
  0
DICTIONARY
  5
433
102
{ACAD_REACTORS
330
432
102
}
330
432
100
AcDbDictionary
281
     1
  3
140689978461392
350
42D
  3
140689978461408
350
42E
  3
140689978461424
350
42F
  3
140689978461440
350
430
  3
140689978461456
350
431
  0
DICTIONARY
  5
236
330
21C
100
AcDbDictionary
280
     1
281
     1
  3
ACAD_XREC_ROUNDTRIP
360
466
  0
DICTIONARY
  5
205
330
22
100
AcDbDictionary
280
     1
281
     1
  0
DICTIONARY
  5
1F9
330
ED
100
AcDbDictionary
280
     1
281
     1
  3
FBXASSET
360
1FA
  0
DICTIONARY
  5
1F7
330
EC
100
AcDbDictionary
280
     1
281
     1
  3
FBXASSET
360
1F8
  0
DICTIONARY
  5
173
330
EE
100
AcDbDictionary
280
     1
281
     1
  3
BUMPTILE
360
175
  3
DIFFUSETILE
360
174
  3
FBXASSET
360
1FB
  3
OPACITYTILE
360
176
  3
REFLECTIONTILE
360
177
  0
DICTIONARY
  5
234
330
21A
100
AcDbDictionary
280
     1
281
     1
  3
ACAD_XREC_ROUNDTRIP
360
465
  0
DICTIONARY
  5
162
330
7F
100
AcDbDictionary
280
     1
281
     1
  3
ACAD_ROUNDTRIP_2008_TABLESTYLE_CELLSTYLEMAP
360
42B
  0
DICTIONARY
  5
43F
330
F5
100
AcDbDictionary
280
     1
281
     1
  3
ACAD_XREC_ROUNDTRIP
360
440
  0
DICTIONARY
  5
43D
330
F4
100
AcDbDictionary
280
     1
281
     1
  3
ACAD_XREC_ROUNDTRIP
360
43E
  0
DICTIONARY
  5
44B
330
FB
100
AcDbDictionary
280
     1
281
     1
  3
ACAD_XREC_ROUNDTRIP
360
44C
  0
DICTIONARY
  5
453
330
FF
100
AcDbDictionary
280
     1
281
     1
  3
ACAD_XREC_ROUNDTRIP
360
454
  0
DICTIONARY
  5
445
330
F8
100
AcDbDictionary
280
     1
281
     1
  3
ACAD_XREC_ROUNDTRIP
360
446
  0
DICTIONARY
  5
449
330
FA
100
AcDbDictionary
280
     1
281
     1
  3
ACAD_XREC_ROUNDTRIP
360
44A
  0
DICTIONARY
  5
459
330
1E6
100
AcDbDictionary
280
     1
281
     1
  3
ACAD_XREC_ROUNDTRIP
360
45A
  0
DICTIONARY
  5
451
330
FE
100
AcDbDictionary
280
     1
281
     1
  3
ACAD_XREC_ROUNDTRIP
360
452
  0
DICTIONARY
  5
435
330
F0
100
AcDbDictionary
280
     1
281
     1
  3
ACAD_XREC_ROUNDTRIP
360
436
  0
DICTIONARY
  5
437
330
F1
100
AcDbDictionary
280
     1
281
     1
  3
ACAD_XREC_ROUNDTRIP
360
438
  0
DICTIONARY
  5
439
330
F2
100
AcDbDictionary
280
     1
281
     1
  3
ACAD_XREC_ROUNDTRIP
360
43A
  0
DICTIONARY
  5
43B
330
F3
100
AcDbDictionary
280
     1
281
     1
  3
ACAD_XREC_ROUNDTRIP
360
43C
  0
DICTIONARY
  5
443
330
F7
100
AcDbDictionary
280
     1
281
     1
  3
ACAD_XREC_ROUNDTRIP
360
444
  0
DICTIONARY
  5
455
330
1E4
100
AcDbDictionary
280
     1
281
     1
  3
ACAD_XREC_ROUNDTRIP
360
456
  0
DICTIONARY
  5
44F
330
FD
100
AcDbDictionary
280
     1
281
     1
  3
ACAD_XREC_ROUNDTRIP
360
450
  0
DICTIONARY
  5
457
330
1E5
100
AcDbDictionary
280
     1
281
     1
  3
ACAD_XREC_ROUNDTRIP
360
458
  0
DICTIONARY
  5
447
330
F9
100
AcDbDictionary
280
     1
281
     1
  3
ACAD_XREC_ROUNDTRIP
360
448
  0
DICTIONARY
  5
463
330
1F3
100
AcDbDictionary
280
     1
281
     1
  3
ACAD_XREC_ROUNDTRIP
360
464
  0
DICTIONARY
  5
461
330
1F2
100
AcDbDictionary
280
     1
281
     1
  3
ACAD_XREC_ROUNDTRIP
360
462
  0
DICTIONARY
  5
45B
330
1EF
100
AcDbDictionary
280
     1
281
     1
  3
ACAD_XREC_ROUNDTRIP
360
45C
  0
DICTIONARY
  5
45D
330
1F0
100
AcDbDictionary
280
     1
281
     1
  3
ACAD_XREC_ROUNDTRIP
360
45E
  0
DICTIONARY
  5
44D
330
FC
100
AcDbDictionary
280
     1
281
     1
  3
ACAD_XREC_ROUNDTRIP
360
44E
  0
DICTIONARY
  5
441
330
F6
100
AcDbDictionary
280
     1
281
     1
  3
ACAD_XREC_ROUNDTRIP
360
442
  0
DICTIONARY
  5
45F
330
1F1
100
AcDbDictionary
280
     1
281
     1
  3
ACAD_XREC_ROUNDTRIP
360
460
  0
XRECORD
  5
42D
102
{ACAD_REACTORS
330
433
102
}
330
433
100
AcDbXrecord
280
     1
  1
AcDb_Thumbnail_Schema
102
{ATTRRECORD
341
42E
  2
AcDbDs::TreatedAsObjectData
280
     1
291
     1
102
ATTRRECORD}
102
{ATTRRECORD
341
42F
  2
AcDbDs::Legacy
280
     1
291
     1
102
ATTRRECORD}
  2
AcDbDs::ID
280
    10
 91
        8
102
{ATTRRECORD
341
430
  2
AcDs:Indexable
280
     1
291
     1
102
ATTRRECORD}
102
{ATTRRECORD
341
431
  2
AcDbDs::HandleAttribute
280
     7
282
     1
102
ATTRRECORD}
  2
Thumbnail_Data
280
    15
 91
        0
  0
XRECORD
  5
42E
102
{ACAD_REACTORS
330
433
102
}
330
433
100
AcDbXrecord
280
     1
  1
AcDbDs::TreatedAsObjectDataSchema
  2
AcDbDs::TreatedAsObjectData
280
     1
 91
        0
  0
XRECORD
  5
42F
102
{ACAD_REACTORS
330
433
102
}
330
433
100
AcDbXrecord
280
     1
  1
AcDbDs::LegacySchema
  2
AcDbDs::Legacy
280
     1
 91
        0
  0
XRECORD
  5
430
102
{ACAD_REACTORS
330
433
102
}
330
433
100
AcDbXrecord
280
     1
  1
AcDbDs::IndexedPropertySchema
  2
AcDs:Indexable
280
     1
 91
        0
  0
XRECORD
  5
431
102
{ACAD_REACTORS
330
433
102
}
330
433
100
AcDbXrecord
280
     1
  1
AcDbDs::HandleAttributeSchema
  2
AcDbDs::HandleAttribute
280
     7
 91
        1
284
     1
  0
XRECORD
  5
466
102
{ACAD_REACTORS
330
236
102
}
330
236
100
AcDbXrecord
280
     1
102
DISPLAYNAME
  1
Metric50
102
FLAGS
 90
        0
  0
XRECORD
  5
1FA
102
{ACAD_REACTORS
330
1F9
102
}
330
1F9
100
AcDbXrecord
280
     1
 70
     1
 90
429727718
  1
D62C5603-E3A1-4AEA-B7FB-FE5D8D0755AF
310
504B03040A0000080000CC70623B3DEE336E79000000790000001B0000006175746F6465736B2D64657369676E2D7061636B6167652E786D6C3C3F786D6C2076657273696F6E3D22312E302220656E636F64696E673D227574662D3822203F3E3C666F726D6174733E3C666F726D61743E687474703A2F2F736368656D612E
310
6175746F6465736B2E636F6D2F64657369676E2D7061636B6167652F323030393C2F666F726D61743E3C2F666F726D6174733E504B0304140006080800CC70623BD486FD9CA0000000F4000000130000005B436F6E74656E745F54797065735D2E786D6C7D8EC10E82300C865F65E91D8A1E8C310C0EEA1BF002731658846E
310
D98AC1B77784ABF1D8FE5FBFBF75BBCE937A534CCEB38643598122B6FEE978D0B0485F9C41B54DDD7D022595594E1A469170414C76A4D9A4D207E29CF43ECE46F218070CC6BECC4078ACAA135ACF422C856C0E68EA1BF5669944DDD7BCDE7B1F8E415D77AECB980613C2E4AC91FC167A2B244592486606FC29C8FD7F045B9A
310
EF7053A7E60B504B0304140006080800CC70623B853B8169EB0000007C01000008000000636F72652E786D6C8D90416EC3201045AF62CDB6C206821CC7C244919D9CA01740401C94182C03558F5F9C3852BBEB6A467FFE9B197D7EFC9E1EC5975982F5AE035262288C535E5B377690E21535501C055FBC8FBF6C503839990E
310
5619041F179FE64D52DE45E362569DD7661365082642A11EB9E920A89B99642953CC8E702F67A9EE7234257977194EC9EAE275C4EABCCF5EAD5940D4AC6F0E35A568B8F43562CD7046CD199FD07E60174276A7BE677B5EADB0E0D14EEFFB6A31321A0D82627C4084204C3F096B71DD52F6819B16635EADF63F509AF53FA164
310
5DDCD1EDDD17164090FCC8732078B56691CB33A85CD7DCC40F504B0304140006080800CC70623B55019EA25F0000007C00000007000000636E782E786D6C4DCB3B0E80201045D1AD90E915ED2CF8AC45050C11660C8261F98AB1B07AC9C97D42D718D865D3E909258CFD00CCE24AC6E326A164D74DC0B4128928FF32603847
310
2BA13128B1252AC747C6BAB984FC68F0B87FE8960A5C09FE86CFB69FBA01504B0304140006080800CC70623BDBABAAF470010000D40300000C0000006662782F636F72652E786D6CC553D16E823014FD95A6AF4B694182CC941A83FA05FB810A9511A125A5257EFE2E82712ECEB8A7F100CD39F7F69E734AF9FADC366850B6
310
AF8DCE7018308C942E4C59EB2AC3DE1D498AD15A706B8CFB56869196ADCAF00863C12B6B7C374385D14E6907A836A59A41D9F7CA615434B0C8705F7CAA5606D23BA8E84F41278B93AC54100640439DE0BDB320004D43C63716C7C399D30917DCFBBA9CD9BA8469F5B156168B24CED3F7248AC8769F27244EB73B92EED8862C
310
B7F13E0C179B3C8F979C8ECD82BBBABDAA2BAC924E9558448CBD9330242CFA08E3154B5651FCC6D215639C8EE5774DBE2B5F6CF2B5768B68963BB5F5588420E442FC700B1139D4CB01F450C1E918227C2E09DF070D8140C84E1E9AAB8F1340832A9CB13130A5F1376A908D57309505ECF2A0DF179C4E9D30F5B239B87E3823
310
7A79C6F31DE1A8A5AEC08474B03C7837EAE4938639B44E5932B833D2C6B6B279CDC613877FA26EE21F4A2A4C63EC7F29A2F301D1F9F7A0E37D145F504B0304140006080800CC70623B9C113CC27E0000009D0000000B0000006662782F636E782E786D6C4DCCDF0A83201C86E15B91DFB94BFB330DD428C8FB886521330DA7
310
6397BF1A1DECE883878F57749FCDA1B7892F1BBC047A23808C7F84D9FA55424E0BE6803A256208E9EF06C84F9B91703228B1C690F78B66B34CD9A5439DF5CF0BFBF65E35BCA1B8D6A5C6F540381E886698B5741C695F9503EBA150A2F8958E3DC3EA0B504B0304140006080800CC70623B7DF2F77C2A010000120200003100
310
00006662782F41393633353835312D344632462D344230382D423046372D3739314545314133324237412F636F72652E786D6C8D51DB8EC22014FC15C2939B0D2DB4B45643319AE817EC0F6041255A68B86CFCFC856D4D76DF7CE190393373060EDB3DC707F856CE6B6B7A480A0C81328395DA5C7B18C3057510EC3873D686
310
3F34088C18550F330C39BB3A1BA7051AAC09CA84841A2BD5020AEF55806078A44B0FFD7053A328440C89E1EFC52486BBB8AA8214A99D789CF9E05200300FC927E4FB4D5B375D43103D5527440FB843077C5AA3F5861C8F645F5787F59E95B390B318B55CE45AA638FAA2957BD7248B390B7A7CC51F9C124149C82B8C378810
310
84AB2F42B7B8DD56F413775B8C5999E9FF4471926F8AA236A1AE96B8B3CC434E5839373893369E1FAF30EA395917409EB7F26AF8801C171837A4A6AC9C89E9F9C9B1A58BA30FD6A5EF5DDDCF894B9AD9B6A59C957943A9FCAE2FD5BC4DFE03504B0304140006080800CC70623BAD7543B64E01000033030000300000006662
310
782F41393633353835312D344632462D344230382D423046372D3739314545314133324237412F636E782E786D6CD593CD6EC32010845F0571AD6CE3D48AD20813A9873E410FBD12D82434182C7EAAE6EDBB2424CD25871E7B41D6EC30B3FA84F9E67BB2E40B4234DE8DB46F1925E094D7C6ED479AD3AE5951B2113C789FEE
310
6C943839C1488B4C05DF079FE72A69D8C96C13AAD6B8631503449F83828872B949AC57D26200B826A308D316B4064D6E46FCDA41C05550DC9E483A00797BFD207EFB092A45DE9514C1BBD22178396BD39D891265658C238DEA00936C654E5E433CB65A26D9F6EDB5EBC14EBF49A45CB856E66048291F6939A9A81BB5C89177
310
38143CA680F4AA299D66A042CEB3354A2684DC9D8D178FE0D9B8B41CAAD720F880EE7EF93C0C18769E099ECC04D5A102C8049A8A05632F4DDF376CF1DE0F6BB65C2F8627B65A33C6BB62177CEBBDAD973006829F89F22E814B54F4BC2BE347F8AA8F681390B50FA73F804400B5F542E796F19FF974E7F78DB802FE05E20750
310
4B0304140006080800CC70623BE75B7789680500003C100000340000006662782F41393633353835312D344632462D344230382D423046372D3739314545314133324237412F6F626A656374732E786D6CAD575B8F9B3818FD2B887D06C22499CB8AA1CA655245D5B455A356FB305264C061D8018C6C3393D95FBFC7600890
310
A4CD5EF210B0B1BFEBF98E3F7B1FF6596ABC522E1296DF9BAE3D320D9A872C4AF2F8DE2CE5CEBA358D0FBEC719939D65A691938CDE9B6ADAF4BD98B3B2D05311DD91329583D9D5FC0F438434A7A611A644887B5384CF34233629258BA878B12322891DEFF6B66BD70BFB62634E8AE781D082709A4B588AF91C528CDA28B73F
310
1C998EEF39EABBEFA97FBD6A7C7E9553F9D3D79FE442923C3C523610337627CB87ABE99D359D4CC6D6E4FACAB5E6ABF9D2726FC6A3C5F56271377BB88362213924694B38DD99FE47C48627A1E7D49F5A8BB5E1A74C0A599ED3B0F21F1E56366B89112D681E218F0915D0D6F17AD41FBA2A369DCF6335D62ABBD39779D5DDD1
310
11D4D8DE3CBB96B2E04FB8202E41051754A1AA8E8F76B4C6DFE810B580B1547F4B84911149794252234D024EF8BBE963A95AE27B3D310A9D5C215C7960FAEE415ED75694C6AFB17BCACA5D99A60A9AA65F217B0BFC53292ACB92BF283FAD0D3621576592CB5BED907C2FA8E9DF794E35E97BEA31BED21FEB401ABB94C44839
310
DCACBF0E1C5DA8DA5B2F4DFFD32AD86F543D9E565E7056502E157C00AD2671CD534549AB752FCA9CDA00677A313F04E51B22FF19E57B300579E3C97EB29F682D92935CEC18CF901B7B54FD8C51F362B56FC72FE0B3C1EAE335EDCCBF5AEC39ADB17DC238973F804BA5E6F6BFE7AF1FB32E523BE9F3BD571418E3631DCA4D48
310
5250CF639223210A9446CA30052EDF057BD35F8329C1ECD84552BF0DC8D18BE7BCE23BFE6BD960AB4A7DE79923A103BEBD80F911CBAA2C60DB19B01CF164A5583B772EE6D3FFA56666CBCDA74DC97724A48F9A58967497E489C4D979006FD7A05E227A1EBDD0F737C623387A9C844D3709995625106D157315F8B8392CD4E0
310
A0B9A720C4BE9829CEF37EA1E13111214D53925356365ADA634861B52519DD27A00AEB808EAF0628E6F435519D446F45CF2C9CF5214F0A15B2F6D06B79DA3EE3CBF7F56780D2F4E7EF73A0F5E5B02A38D07DC852C6B7C1FBB6664213E0C39E3EBA7FF4E1AD23EA2829407C85E586727488B751B2DB9502BC7B228A3FD68B6E
310
A65A22397E690AA8D158D7E404EC8CDA235CC3B7D1898680131CEC2CDF2638C65196279577750F15884AEE19F94199155B92B13297978469D4F8D358DF0AEF7631E28DC8F0D9F437D5D39A83B2231A1D52D543813A824EF8D44BCFF2FA6A31BD1E8DAD87F1CCB526B3879935BF59CDADD5C37479BB1CDD4CA7B3556B516589
310
EF352754B706114D9C885EC9131DE6EFEB43D99AFE2391C2F958179413D7CFEF6B1B6DB1E7600F00DE6E5C67454A339A4BA2E0FBA85ED26F045D454F463DBFCE484C2F90F2E5E3666003662ED8F755951A7D1BECD5B30B550B2785C8E7320B7292A4838DDA71BBC863ED7613CAF659337A3354231D4FF4A182A54904C2898C
310
98B28C4AD0CE056CCF332A80986E571EE9DBC305BB5FEB7E509220A58D25CF042D712A806AC0AD0C657FDEF80D2D9CEAA2EE4D1C76F60BFE74219A06527D6F82DF6412526107381E55E353090704D085B52408A8913C4ED159D79BDA71BB4BC506F4831350EB6F975CD22D69BF7AC49B91A2C0A9DDA3D5CA36AD20FC478E37
310
E61844E2352865EBCB61A275A65283CAAA9DD27703B4102F5AF51EF5F573B75CBB5AD38BC845F7A49F82A0966A49C2E3EA5EA0ECD326CD965F1DB402C6FA8B51A4658C5C5E2EC9E214602E55810345408596591009A82E7E7FFACA19EEA299B14A0081A705CB3296EBC14CDF658DCD336EA6D1136881AAEB87B81AB9EE53D5
310
F5EB8BC8362082DA24122F98680A4E7930C01A0079749CEA14382A0783E5EBA5A10F8C098456A03D6A4AEB6BB881E2513747552A5DB22C7EDAF83BD5528081A365F7FF06504B0304140006080000CC70623B000000000000000000000000350000006662782F41393633353835312D344632462D344230382D423046372D37
310
39314545314133324237412F76657274696365732E62696E504B0304140006080800CC70623BF270F1330600000004000000360000006662782F41393633353835312D344632462D344230382D423046372D3739314545314133324237412F747269616E676C65732E62696E636660600000504B0304140006080000CC7062
310
3B000000000000000000000000370000006662782F41393633353835312D344632462D344230382D423046372D3739314545314133324237412F617474726962757465732E62696E504B0304140006080800CC70623B08DA0BD19000000041010000360000006662782F41393633353835312D344632462D344230382D4230
310
46372D3739314545314133324237412F6469726563746F72792E786D6C858F410AC3201045AF22B36F53E9A60B35CBEEBAE80D244E44489C6234F4F835464A48035D0DF398FF9F8AF63D0E6CC63039F212F8F9020C7D47C6792B21C5FE7403D62A1188E2E60C98D7234A5830286103A55745067B9D86B8A3CF9C7F90C11DE6
310
07FB144396D7B6A82D282E9A152AD114D5EF2CB866EEE831B8EEA07A7BB5A8D7D61A2BAAEB7FD5F70921FF497D00504B0304140006080800CC70623BEDD1DC58FD000000A00100003B0000006662782F41393633353835312D344632462D344230382D423046372D3739314545314133324237412F7265736F75726365732F
310
636F72652E786D6C8D504B6E833010BD0A9A6D65B00922041947112427E8052C33A156828DFCA97AFC9A40A576D7CDCCE87D344F8F9FBFE667F689CE6B6B3A6039850C8DB2A336530731DC4903D95970676DF82583CCC8193B5861107C72362E3BA4AC096842428D1D7107A5F7182053CF7474E0D507CE32973124857FE48B
310
540F3961CEF244279DE03EB81420DB9EAC1384436FA353E879B1B182C7A8C75DA3C7F453DF353A1075D537A7BA6464B8F535A99AE14A9A2BBD90E350DD183B5CFABE3AF262350B1EF4FC9351399401471025A527C218A1E53BAB5A5AB765F5469B96525EACF23FA6B88CFF34456DC2A1DCE36E360F82A5202F42F062ED2BAD
310
579969AFDD8A6F504B010214000A0000080000CC70623B3DEE336E79000000790000001B00000000000000000000000000000000006175746F6465736B2D64657369676E2D7061636B6167652E786D6C504B01021400140006080800CC70623BD486FD9CA0000000F40000001300000000000000000000000000B20000005B
310
436F6E74656E745F54797065735D2E786D6C504B01021400140006080800CC70623B853B8169EB0000007C010000080000000000000000000000000083010000636F72652E786D6C504B01021400140006080800CC70623B55019EA25F0000007C000000070000000000000000000000000094020000636E782E786D6C504B
310
01021400140006080800CC70623BDBABAAF470010000D40300000C00000000000000000000000000180300006662782F636F72652E786D6C504B01021400140006080800CC70623B9C113CC27E0000009D0000000B00000000000000000000000000B20400006662782F636E782E786D6C504B01021400140006080800CC70
310
623B7DF2F77C2A010000120200003100000000000000000000000000590500006662782F41393633353835312D344632462D344230382D423046372D3739314545314133324237412F636F72652E786D6C504B01021400140006080800CC70623BAD7543B64E010000330300003000000000000000000000000000D2060000
310
6662782F41393633353835312D344632462D344230382D423046372D3739314545314133324237412F636E782E786D6C504B01021400140006080800CC70623BE75B7789680500003C10000034000000000000000000000000006E0800006662782F41393633353835312D344632462D344230382D423046372D3739314545
310
314133324237412F6F626A656374732E786D6C504B01021400140006080000CC70623B0000000000000000000000003500000000000000000000000000280E00006662782F41393633353835312D344632462D344230382D423046372D3739314545314133324237412F76657274696365732E62696E504B01021400140006
310
080800CC70623BF270F133060000000400000036000000000000000000000000007B0E00006662782F41393633353835312D344632462D344230382D423046372D3739314545314133324237412F747269616E676C65732E62696E504B01021400140006080000CC70623B0000000000000000000000003700000000000000
310
000000000000D50E00006662782F41393633353835312D344632462D344230382D423046372D3739314545314133324237412F617474726962757465732E62696E504B01021400140006080800CC70623B08DA0BD1900000004101000036000000000000000000000000002A0F00006662782F41393633353835312D344632
310
462D344230382D423046372D3739314545314133324237412F6469726563746F72792E786D6C504B01021400140006080800CC70623BEDD1DC58FD000000A00100003B000000000000000000000000000E1000006662782F41393633353835312D344632462D344230382D423046372D3739314545314133324237412F7265
310
736F75726365732F636F72652E786D6C504B0506000000000E000E0080040000641100000000
  0
XRECORD
  5
1F8
102
{ACAD_REACTORS
330
1F7
102
}
330
1F7
100
AcDbXrecord
280
     1
 70
     1
 90
429727718
  1
30362254-06B7-45E0-A893-8CFA70E3D6BC
310
504B03040A0000080000CC70623B3DEE336E79000000790000001B0000006175746F6465736B2D64657369676E2D7061636B6167652E786D6C3C3F786D6C2076657273696F6E3D22312E302220656E636F64696E673D227574662D3822203F3E3C666F726D6174733E3C666F726D61743E687474703A2F2F736368656D612E
310
6175746F6465736B2E636F6D2F64657369676E2D7061636B6167652F323030393C2F666F726D61743E3C2F666F726D6174733E504B0304140006080800CC70623BD486FD9CA0000000F4000000130000005B436F6E74656E745F54797065735D2E786D6C7D8EC10E82300C865F65E91D8A1E8C310C0EEA1BF002731658846E
310
D98AC1B77784ABF1D8FE5FBFBF75BBCE937A534CCEB38643598122B6FEE978D0B0485F9C41B54DDD7D022595594E1A469170414C76A4D9A4D207E29CF43ECE46F218070CC6BECC4078ACAA135ACF422C856C0E68EA1BF5669944DDD7BCDE7B1F8E415D77AECB980613C2E4AC91FC167A2B244592486606FC29C8FD7F045B9A
310
EF7053A7E60B504B0304140006080800CC70623B1EC5D7A3EB0000007C01000008000000636F72652E786D6C8D90416EC3201045AF82665B6103C6756C6122AB4D4ED00B204C5C94182C03558F5F9C3852BBEB6A467FFE9B197D71FC9E6FE8CBACC17AD7032D0820E3B41FAD9B7A48F1820F808E52ACDEC75F36404ECDA687
310
4D0629A6D5A76597B477D1B89855E747B38B2A041301E95B6E7A08FAD3CCAA50296647B8168BD2573599823EBB0CA76447F43862C7BCCF5EAC59410E4DDD9C7973C2755553CCCFA4C603E3040F1565ED3B1FDE4E432BCA0D9622DAF9795FAF464533826484B498524CD807E51D79ED187F21878E10516EF63F505AC67F42C9
310
BA58B1FDDD071640D2FCC87D2045B96591CB3DA85CB7DCE40F504B0304140006080800CC70623B55019EA25F0000007C00000007000000636E782E786D6C4DCB3B0E80201045D1AD90E915ED2CF8AC45050C11660C8261F98AB1B07AC9C97D42D718D865D3E909258CFD00CCE24AC6E326A164D74DC0B4128928FF32603847
310
2BA13128B1252AC747C6BAB984FC68F0B87FE8960A5C09FE86CFB69FBA01504B0304140006080800CC70623B8C9102E971010000D40300000C0000006662782F636F72652E786D6CC5535B6E833010BC8AE5DF0A6C08340F1947A84D4ED00B38C6A128602363A31CBFCB234A53A551FA553EC09AD9F5CE8C31DB9E9B1AF5CA
310
7695D1198E428A91D2D214952E33ECDD315861B4E5CC1AE3BE9561A445A3323CC098B3D21ADFCE9034DA29ED00D5A6503328BA4E398C640D8B0C77F253352214DE4145770A5B214FA2546114020D759C75CE8200340D19DE981F0F6746269C33EFAB6266AB02A655C74A59CCF365BADC27CB5D902ED22848F6340DF238A141
310
BE88E2F57B92BFEDF23523433367AE6A2EEAA455C2A902F398D2751045018D3FA264435F3771F242571B4A1919CA6F9A7C5B3CD9E42BED16F12C776AEB308F40C848FC700B1139D4891EF410CEC810227CC6846F8386402064270EF5C5C709A05E49676C024C61FC95EA45ED154CA5211D1FF4FB8291A913A68E9B83EBBB33
310
E2A7673CDE118E5AE8124C0807CB8377834E366998436B950D7A7746DAD846D4CFD978E0F04FD455FC5D49D2D4C6FE9722321F10997F0F32DC47FE05504B0304140006080800CC70623BFFEA85907E0000009D0000000B0000006662782F636E782E786D6C4DCCD10A83201886E15B91FFDC95D95A811AB6F23E625948A6C3
310
E9D8E5AF46073BFAE0E1E365ED67B3E8ADC3CB78C7815C7240DA3DFC64DCC221C519D7805AC182F7F1EF06C88D9BE6703008B6049F9E274D7A1E938DBB5AE3D6131B2589BA0D3D965551E0B2EA732C9B9A624AAEB41E3A557677029960D9AFB4EF11165F504B0304140006080800CC70623B4FEEA4082C0100001202000031
310
0000006662782F39464131463745442D413632322D343644302D413938332D3331353338454246344243312F636F72652E786D6C8D515B6EC32010BC0AE2AB55850DD871ED0813254D72825EC00192A2C460F1A872FC42ED48ED5F7E00CDCECCCEB26C731F6FE05B39AFADE921293004CA082BB5B9F43086336A21D870E6AC
310
0D7F68109861543DCC30E4ECE26C9C164858139409093556AA051CBC570102714B8F1E7AF1A5C6A11862480C7F2DA6415C878B2A4891CA89C7990F2E050073937C42DE1DB7E4F87ED8A36D4329AA9B3D46DBAEAD504556557BD81DEBDD0761E52CE42C462D17B996298E3E6BE59E35C962CE821E1FF18553435012728A7187
310
0841987E927A8D9B35ADDF70BBC6989599FE4F1427F9A4286A132ABAC49D651EF234CD5CE04CDA78BA3DC2A8FB645D00B9DF8B57E215725C60BCA2A463E54C4CE327C7A65E1C7DB02E7DEFCBF594B864C5CA6CDBD49C957943E9FA5D5FBAF336F90F504B0304140006080800CC70623BAD7543B64E01000033030000300000
310
006662782F39464131463745442D413632322D343644302D413938332D3331353338454246344243312F636E782E786D6CD593CD6EC32010845F0571AD6CE3D48AD20813A9873E410FBD12D82434182C7EAAE6EDBB2424CD25871E7B41D6EC30B3FA84F9E67BB2E40B4234DE8DB46F1925E094D7C6ED479AD3AE5951B2113C
310
789FEE6C943839C1488B4C05DF079FE72A69D8C96C13AAD6B8631503449F83828872B949AC57D26200B826A308D316B4064D6E46FCDA41C05550DC9E483A00797BFD207EFB092A45DE9514C1BBD22178396BD39D891265658C238DEA00936C654E5E433CB65A26D9F6EDB5EBC14EBF49A45CB856E66048291F6939A9A81BB5
310
C8917738143CA680F4AA299D66A042CEB3354A2684DC9D8D178FE0D9B8B41CAAD720F880EE7EF93C0C18769E099ECC04D5A102C8049A8A05632F4DDF376CF1DE0F6BB65C2F8627B65A33C6BB62177CEBBDAD973006829F89F22E814B54F4BC2BE347F8AA8F681390B50FA73F804400B5F542E796F19FF974E7F78DB802FE05
310
E207504B0304140006080800CC70623B16AB87BA640500003C100000340000006662782F39464131463745442D413632322D343644302D413938332D3331353338454246344243312F6F626A656374732E786D6CAD575B6FA33818FD2B887DE6924B3BED8A326A92B68A663B534DD4D13E548A0C38942D60649B369D5FBFC7
310
600890A493BDE42160637FD7F31D7FF63E6FB3D478A55C242CBF3247B66B1A340F5994E4F19559CA8D75611A9F7D8F33263BCB4C232719BD32D5B4E97B316765A1A722BA21652A07B3B7B33F0D11D29C9A46981221AE4C113ED38CD8A4942CA2E2C58E882476BCD9DA23BB5ED8171B73523C0F841684D35CC252CCE79062D4
310
468DFA43D7747CCF51DF7D4FFDEB5593E3AB9CCA9FBEFE241792E4E19EB28198C968BAB8199F5D5A67D3E9C49A9E8F47D6EC76B6B0469F26EEFC7C3EBFBCBEB98462213924694B38DD98FE1D62C393D073EA4FADC5DAF04326852CCF6958F90F0F2B9BB5C48816348F90C7840A68EB78EDF68723159BCEE7891A6B95DDE9D3
310
BCEAEEE8086A6C6F9E5D4B59F0175C10A7A0820BAA5055C7473B5AE3CFDD452D602CD5DF12616444529E90D448938013FE6EFA58AA96F85E4F8C42275708571E98FE6827AF6B2B4AE3D7D83D64E5A64C53054DD3AF90BD06FEA9149565C94FCA0F6B834DC85599E4F2423B24DF0B6AFA979E534DFA9E7A4CC6FA631D486393
310
921829879BF5D781A373557BCB85E97FB90DB62B558F8795179C15944B051F40AB495CF35451D26A4727654E6D8033BD98EF82F21D91FF8AF2DD9982BCF1643BDD4EB516C9492E368C67C88DED563FC36D5EACF66DFF057C3658BDBFA69DF9578B3DA735B64F18C7F20770A9D45CFCF7FCF563D6456A277DBEF78A02637CA2
310
43B90A490AEAB94F72244481D24819A6C0E59B606BFA4B3025981DBB48EAB701D97BF19C577CC77F2D1B6C55A9EF3C732474C0B727303F625995056C3B02963D9EAC146BE78EC5FCEC7FA999EBC5EACBAAE41B12D27B4D2C0BBA49F244E2ECDC81B76B502F113D8F5EE8FB1BE3111CDD4FC2AA9B844CAB1288B68AB90A7CDC
310
1C166AB0D3DC5310625FCC14E779BFD0709F8890A629C9292B1B2DED31A4B0DA928CEE135085754027E3018A397D4D5427D15BD1330B677DC8934285AC3DF45A9EB68FF8F2B8FC0A509AFEECFD0FF2DE25CC6047F7214B195F07EFEB9A094D800F7BFAE8FED187B78EA8A3A400F115961BCAD1215E47C966530AF0EE8128FE
310
58CEBB996A8964FFA529A046635D9353B0336A8F700DDF46271A024E70B0B37C9DE01847591E54DED53D54202AB947E4076556AC49C6CA5C9E1226B7F1A7B1BE15DEED62C41B91E1B3E9AFAAA735036547343A925075041DF0A9979E893B391F8FCFA6967B3EFB644DCF6E5CEBFAE272625DCC6FAF3FB93793C5F90CE1EF57
310
407342756B10D1C489E8953CD1617E5CEECAD6F4EF8914CE5D5D504E5C3F1F9736DA62CFC11E00BCDDB8CC8A9466349744C1F75EBDA4DF09BA8A9E8C7A7E9991989E20E5DBDD6A6003664ED8F7A04A8DBE0DF6EAD9B9AA858342E47399053949D2C146EDB85DE4B176BB0965FBAC19BD19AA918E27FA50C1D22402E144464C
310
59462568E704B6E71915404CB72B8FF4EDE184DDAF753F284990D2C6926782963815403548A70C657FDEF80D2D9CEAA2AE4C1C76F60BFE74219A06527D6582DF6412526107381E55E353090704D085B52408D0933C4ED159D79BDA71BB4BC506F4831350EB6F979CD22D69BF7AC49B91A2C0A9DDA3D5CA36AD20FC478E37E6
310
1844E2352865EBCB6EA275A652E3836BE04EFB400BF1A2556F515F1FBB35B2AB35BD889C744FFA1004B5544B121E57F70215746DD2F5E2C1412B602CBF19455AC6C8E5E9922C4E01E65215385004546899059180EAFCF7A707CE7017CD8CDB0410789AB32C63B91E5CEBBBACB17AC6CD347A022D5075FD106377347AAABA7E
310
7D11590744509B44E205134DC1290F06580320F78E537D3D73540E06CB970B431F185308AD40BBD794D6D77003C5A36E8EAA54BA64597CD8F83BD552A080A365F7FF06504B0304140006080000CC70623B000000000000000000000000350000006662782F39464131463745442D413632322D343644302D413938332D3331
310
353338454246344243312F76657274696365732E62696E504B0304140006080800CC70623BF270F1330600000004000000360000006662782F39464131463745442D413632322D343644302D413938332D3331353338454246344243312F747269616E676C65732E62696E636660600000504B0304140006080000CC70623B
310
000000000000000000000000370000006662782F39464131463745442D413632322D343644302D413938332D3331353338454246344243312F617474726962757465732E62696E504B0304140006080800CC70623B08DA0BD19000000041010000360000006662782F39464131463745442D413632322D343644302D413938
310
332D3331353338454246344243312F6469726563746F72792E786D6C858F410AC3201045AF22B36F53E9A60B35CBEEBAE80D244E44489C6234F4F835464A48035D0DF398FF9F8AF63D0E6CC63039F212F8F9020C7D47C6792B21C5FE7403D62A1188E2E60C98D7234A5830286103A55745067B9D86B8A3CF9C7F90C11DE607
310
FB144396D7B6A82D282E9A152AD114D5EF2CB866EEE831B8EEA07A7BB5A8D7D61A2BAAEB7FD5F70921FF497D00504B0304140006080800CC70623B0D6EF93BFE000000A00100003B0000006662782F39464131463745442D413632322D343644302D413938332D3331353338454246344243312F7265736F75726365732F63
310
6F72652E786D6C8D50596E833010BD0A9ADFCA60B334011947A8694ED00B586642AC041B79A97AFC9A40A5F6AF3F33A3B7689E1E3F7DCD8FEC139DD7D6F4C0720A191A65476DA61E62B892236427C19DB5E1970C322367EC618541F0C9D9B8EC90B226A009093576C41D94DE63804C3DD2D18357379C652E63480A7FCF17A9
310
EE72C29CE5894E3AC17D702940B63D59270887DE46A7D0F36263058F518FBB468FE9A7BE6A7420864373B8D4873369AA8691FA421B3294352543C5CAF65C0F6FEF43CB8BD52C78D0F34F46E550061C419494B6843142CB0F5677F4B52BEB177AEC28E5C52AFF638ACBF84F53D42654E51E77B379102C05791282176B5F693D
310
CB4C7BED567C03504B010214000A0000080000CC70623B3DEE336E79000000790000001B00000000000000000000000000000000006175746F6465736B2D64657369676E2D7061636B6167652E786D6C504B01021400140006080800CC70623BD486FD9CA0000000F40000001300000000000000000000000000B20000005B
310
436F6E74656E745F54797065735D2E786D6C504B01021400140006080800CC70623B1EC5D7A3EB0000007C010000080000000000000000000000000083010000636F72652E786D6C504B01021400140006080800CC70623B55019EA25F0000007C000000070000000000000000000000000094020000636E782E786D6C504B
310
01021400140006080800CC70623B8C9102E971010000D40300000C00000000000000000000000000180300006662782F636F72652E786D6C504B01021400140006080800CC70623BFFEA85907E0000009D0000000B00000000000000000000000000B30400006662782F636E782E786D6C504B01021400140006080800CC70
310
623B4FEEA4082C0100001202000031000000000000000000000000005A0500006662782F39464131463745442D413632322D343644302D413938332D3331353338454246344243312F636F72652E786D6C504B01021400140006080800CC70623BAD7543B64E010000330300003000000000000000000000000000D5060000
310
6662782F39464131463745442D413632322D343644302D413938332D3331353338454246344243312F636E782E786D6C504B01021400140006080800CC70623B16AB87BA640500003C1000003400000000000000000000000000710800006662782F39464131463745442D413632322D343644302D413938332D3331353338
310
454246344243312F6F626A656374732E786D6C504B01021400140006080000CC70623B0000000000000000000000003500000000000000000000000000270E00006662782F39464131463745442D413632322D343644302D413938332D3331353338454246344243312F76657274696365732E62696E504B01021400140006
310
080800CC70623BF270F133060000000400000036000000000000000000000000007A0E00006662782F39464131463745442D413632322D343644302D413938332D3331353338454246344243312F747269616E676C65732E62696E504B01021400140006080000CC70623B0000000000000000000000003700000000000000
310
000000000000D40E00006662782F39464131463745442D413632322D343644302D413938332D3331353338454246344243312F617474726962757465732E62696E504B01021400140006080800CC70623B08DA0BD190000000410100003600000000000000000000000000290F00006662782F39464131463745442D413632
310
322D343644302D413938332D3331353338454246344243312F6469726563746F72792E786D6C504B01021400140006080800CC70623B0D6EF93BFE000000A00100003B000000000000000000000000000D1000006662782F39464131463745442D413632322D343644302D413938332D3331353338454246344243312F7265
310
736F75726365732F636F72652E786D6C504B0506000000000E000E0080040000641100000000
  0
XRECORD
  5
175
102
{ACAD_REACTORS
330
173
102
}
330
173
100
AcDbXrecord
280
     1
270
     1
271
     1
  0
XRECORD
  5
174
102
{ACAD_REACTORS
330
173
102
}
330
173
100
AcDbXrecord
280
     1
270
     1
271
     1
  0
XRECORD
  5
1FB
102
{ACAD_REACTORS
330
173
102
}
330
173
100
AcDbXrecord
280
     1
 70
     0
 90
1673772943
  1
ECE7A1D2-D628-4531-984C-D00F80459256
310
504B03040A0000080000CC70623B3DEE336E79000000790000001B0000006175746F6465736B2D64657369676E2D7061636B6167652E786D6C3C3F786D6C2076657273696F6E3D22312E302220656E636F64696E673D227574662D3822203F3E3C666F726D6174733E3C666F726D61743E687474703A2F2F736368656D612E
310
6175746F6465736B2E636F6D2F64657369676E2D7061636B6167652F323030393C2F666F726D61743E3C2F666F726D6174733E504B0304140006080800CC70623BD486FD9CA0000000F4000000130000005B436F6E74656E745F54797065735D2E786D6C7D8EC10E82300C865F65E91D8A1E8C310C0EEA1BF002731658846E
310
D98AC1B77784ABF1D8FE5FBFBF75BBCE937A534CCEB38643598122B6FEE978D0B0485F9C41B54DDD7D022595594E1A469170414C76A4D9A4D207E29CF43ECE46F218070CC6BECC4078ACAA135ACF422C856C0E68EA1BF5669944DDD7BCDE7B1F8E415D77AECB980613C2E4AC91FC167A2B244592486606FC29C8FD7F045B9A
310
EF7053A7E60B504B0304140006080800CC70623BD9DDAED0EC0000007C01000008000000636F72652E786D6C8D90416EC3201045AF82665B61836D9CD8C2444DD39CA01740405C94182C03558F5F9C3852BBEB6A467FFE9B197D7EF89E6EE8CB2CC17A37002D0820E394D7D68D03A478C17B4007C117EFE32F1B20272733C0
310
2A83E0E3E2D3BC49CABB685CCCAAF3DA6CA20CC14440EA969B0182FA34932C648AD911AEC52CD5558EA6A0CF2EC329598D1E47ACCEFBECC59A050463A7EA5833865FEBDD0E37353BE3EE8DBDE3F6786A48D375FBF6CC78B9C282473B3DEFABC5C86834888A900E538A49F5419B9EB47DD5BC907D4F082F57FB1F28CDFA9F50
310
B22ED6D5F6EE030B20687EE43E10BC5CB3C8E51E54AE6B6EE207504B0304140006080800CC70623B55019EA25F0000007C00000007000000636E782E786D6C4DCB3B0E80201045D1AD90E915ED2CF8AC45050C11660C8261F98AB1B07AC9C97D42D718D865D3E909258CFD00CCE24AC6E326A164D74DC0B4128928FF326038
310
472BA13128B1252AC747C6BAB984FC68F0B87FE8960A5C09FE86CFB69FBA01504B0304140006080800CC70623BA24EB22D72010000D40300000C0000006662782F636F72652E786D6CC5535B6E833010BC8AE5DF0A6C5E49888CA3A6694ED00B38E05014B091B1518EDFE511A5A9D228FD2A1F60CDEC7A67C6986DCE4D8D7A
310
69BA4AAB0C073EC548AA5C17952A33ECECD15B61B4E1CC686DBF9561A44423333CC098B3D268D7CE50AE9595CA02AA74216750749DB418E5352C32DCE59FB211BE70162ABA93DF8AFC244AE9073ED050C759670D0840D390E18DF9F1706664C23973AE2A66B62A605A75ACA4C13C4976E1364A12EF355A2EBD384AF65EFA96
310
BC7B8BED2EA6719AAE16FB8491A199335B351775B991C2CA02F390D2D40B028F861F41BCA68B7518BFD0D59A524686F29B26D7164F36B94AD9289CE54E6D1DE6010819891F6E21228B3AD1831EC219194284CF98F06DD01008846CC5A1BEF83801D4CBDC6A1303536877A57A513B0953A94FC707FDBE6064EA84A9E3E6E0FA
310
EE8CF0E9198F7784A316AA0413C2C2F2E0ECA0934D1AE6D05A69BCDE9E91D2A611F573361E38FC1375157F5752AE6B6DFE4B11990F88CCBF0719EE23FF02504B0304140006080800CC70623B408A7D3B7C0000009D0000000B0000006662782F636E782E786D6C4DCCD10A83201886E15B91FFDC552A92A0064DBC8F581632
310
D3703A76F9ABD1C18E3E78F878E5F0D9027ABBFCF2292AE86E2D20171F69F6715550CB827B40839639A5F2770314A7CD293819B45C73AAFB45B35BA61ACAA1C1C7E7855C58C15BC331339661262CC762340413D68D77DA5B42298546CBE6573AF60CEB2F504B0304140006080800CC70623B449FB9BD290100001202000031
310
0000006662782F36394639363044362D344446342D343946362D394244322D3234314243333846323333332F636F72652E786D6C8D515B6EC32010BC0AE22B55850D98B871848994463E412FE002495162B07854397EA176A4F62F3F2C9A9D991D587EB84F37F0AD7D30CEF6905418026DA553C65E7A98E219ED203808EE9D
310
8B7F6810D871D23D2C3014FCE25D9A57483A1BB58D19B54EE9151C43D0110279CB971E06F9A5A7B11A53CC8C70ADE6515EC78BAE4895DB992778883E0700CB907242D17643D7E2538BD869608875438BBAE38922CAC8F1BDD90DB4691A5E2F42C153326A951B95E398B3D1FE599322163C9AE9115F7A3D46ADA0A018778810
310
84E907617BDCEE297BC5BB3DC6BC2EF47FA234AB2745C9D8D8D035EE220B50105E2F0DC1954B9FB747187D9F9D8FA0CCDB042D5FA0C015C65B42DF78BD10F3F3B363CB56C7109DCFDFBBB97E662ED92EB62D13BC2E1BCAE5777DB9966D8A1F504B0304140006080800CC70623BAD7543B64E01000033030000300000006662
310
782F36394639363044362D344446342D343946362D394244322D3234314243333846323333332F636E782E786D6CD593CD6EC32010845F0571AD6CE3D48AD20813A9873E410FBD12D82434182C7EAAE6EDBB2424CD25871E7B41D6EC30B3FA84F9E67BB2E40B4234DE8DB46F1925E094D7C6ED479AD3AE5951B2113C789FEE
310
6C943839C1488B4C05DF079FE72A69D8C96C13AAD6B8631503449F83828872B949AC57D26200B826A308D316B4064D6E46FCDA41C05550DC9E483A00797BFD207EFB092A45DE9514C1BBD22178396BD39D891265658C238DEA00936C654E5E433CB65A26D9F6EDB5EBC14EBF49A45CB856E66048291F6939A9A81BB5C89177
310
38143CA680F4AA299D66A042CEB3354A2684DC9D8D178FE0D9B8B41CAAD720F880EE7EF93C0C18769E099ECC04D5A102C8049A8A05632F4DDF376CF1DE0F6BB65C2F8627B65A33C6BB62177CEBBDAD973006829F89F22E814B54F4BC2BE347F8AA8F681390B50FA73F804400B5F542E796F19FF974E7F78DB802FE05E20750
310
4B0304140006080800CC70623B8D05915C650500003B100000340000006662782F36394639363044362D344446342D343946362D394244322D3234314243333846323333332F6F626A656374732E786D6CAD575B6FA33814FE2B887D06429276DA1565D4266D158D3A339A6846FB502932E050B66023DB74D2FDF5FB190C01
310
9276B2973C046C8ECFF53B17071F77456EBD502133CEAE6CDF9DD81665314F32965ED995DA3A17B6F5310C04E7AA47665B8C14F4CAD6DB7618A48257A5D94AE89654B91AEDDEDDFC61C998326A5B714EA4BCB265FC440BE2924AF184CA6737218AB8E976E7FA6E4338649B0A523E8D98964450A6A029F619B8588D52FE7039
310
B1BD30F0F4F730D0FF866AF6369557DB33949F31A9088B0F848DD8CCFCF9F2767A76E99CCDE733677E3EF59D9BBB9BA5E37F984D16E78BC5E5F5ED25044B25C0C96822E8D60EEFE11B91C581D77CEA34368A1F5329E68CD1B8B61F16D63A1B8E092D294B10C78C4A48EB593D192E7DED9BDEE7995E1B91FDEDD3ACEA9FE831
310
6A756F9F7D4D79F4274C90A7A04248AA51D5F8C718DAE06FB2F75AC4796EBE65D22A88A22223B995679120E2D50E41AA49C260C046A35368846B0BECD0DFF3EBEB8AD4F835768F69B9ADF25C43D30E6B646F807FAA64AD59F61715C7A54127C4AACA98BA3006A9D792DAE165E0D59B61A01FB3A9F9D838D2DAE62445C86166
310
F37564E842E7DE6A69879FEEA2DD5AE7E371E1A5E025154AC307D06A03D73EB5978C58FFA4C8E9033066E0F3BD53BEC1F39F91BE7B55103791EDE6BBB991A2046172CB4581D8B893FA674DDA17A77B3B7C413D1B511FD2743BFF8A38F03A658705E3ADF8015C3A3417FF3D7E439FF591DA0B5F18BC20C1B8981957AE6392A3
310
F43C640C01D1A0B4728E2DD4F26DB4B3C3152A252A3B4E913CEC1C72F012782FF88EFF8637AA552DBEF76408E8A8DE9E50F9E1CB3A2DA0DB1B6039A893B56063DC5B3E3FFB5F72E67AB9FEB4AEC496C4F4C1149625DD662C53E89D7BF0F6151A046260D1337DFDC94502430F83B0EE07A130A224BCAD7DAE1D9FB6CD422FF6
310
920702629C4BB9AE79C12F243C6432A6794E18E5552BA56B431AAB5D91317302B2B071E86C3A42B1A02F999E24061403B5D0EB639195DA655DD3EBEAB4FB862DDF579F014AD0E73C22F99E28DA57FB98E75C6CA2D74D53086D600F4786E0FE3144B771A8A7B900F03594DB8A633CBC49B2EDB69228BB479CF863B5E807AAAB
310
23872F6DFEB4129B949CA33823F58830E86D65621E10047D9DB34D862E8EAC3C2ABC2F7B2C40D67CDFE01F5545B92105AF983AC54D93D69E56FB8E797F88913F898A9FEC705D3F9D1B54EC8426FB500D40A03BD0119B06E1B95DDC7EB8F6975367793EBD70E66733DFB9BC982F9CE564727731999F5D4ECFCE3B8D6A4DC2A0
310
6D50FD148437D110834A64C6CDDF57FBACB5C307A2A477DFE4939736CFEF2B175371E0E10CF0DD1D5C15654E0BCA14D1E87DD02FF93782A162C0A3D95F1524A52770F972BF1EE9809D13CE7DD599467F8ECE9ADD85CE85A34CD45355448C64F9E8A031DC2D596ACC6E5DD93D9B82DE2EF5CAF81363A8E47996A0DE24564A79
310
4115AACE09C55E14540231FDA13C319787134EBF34E3A022514E5B4D9E0826E25C02D5805B15ABE1BEF51B26383D445DD9E875EE33FE4C22DA16427D65A3BCA92CA6D28DD01DF5DC53330704308475351050232CCD31583787BA75774AFB06E5070DD0C8EF484E19968C5D83BA5B90B244D31E54D55A372320FE4786B7EA58
310
44E135AA5467CB7EA333A61683CC6A8C3257034C10CF46F40EF9F5BE59BE5BD30C3C72D235E95D10345C1D45445A5F0BB47E46A5EBE5570F9380B5FA629579952296A773720405982B9DE04011506178964401AA8BDF1FBF0A8EAB6861DD6580C0E38217056766716DAEB2D6FA0917D3E4116581EADB879C4E7CFFB11EFACD
310
3D641311495D92C8676CB409A72D18610D803CE8A626049E8EC1887CB5B44CC39883690DDA8399B4B9855B481E7D71D4A9D22F96E5BB73BF5793020C02137BF837504B0304140006080000CC70623B000000000000000000000000350000006662782F36394639363044362D344446342D343946362D394244322D32343142
310
43333846323333332F76657274696365732E62696E504B0304140006080800CC70623BF270F1330600000004000000360000006662782F36394639363044362D344446342D343946362D394244322D3234314243333846323333332F747269616E676C65732E62696E636660600000504B0304140006080000CC70623B0000
310
00000000000000000000370000006662782F36394639363044362D344446342D343946362D394244322D3234314243333846323333332F617474726962757465732E62696E504B0304140006080800CC70623B08DA0BD19000000041010000360000006662782F36394639363044362D344446342D343946362D394244322D
310
3234314243333846323333332F6469726563746F72792E786D6C858F410AC3201045AF22B36F53E9A60B35CBEEBAE80D244E44489C6234F4F835464A48035D0DF398FF9F8AF63D0E6CC63039F212F8F9020C7D47C6792B21C5FE7403D62A1188E2E60C98D7234A5830286103A55745067B9D86B8A3CF9C7F90C11DE607FB14
310
4396D7B6A82D282E9A152AD114D5EF2CB866EEE831B8EEA07A7BB5A8D7D61A2BAAEB7FD5F70921FF497D00504B0304140006080800CC70623BCA768048FE000000A00100003B0000006662782F36394639363044362D344446342D343946362D394244322D3234314243333846323333332F7265736F75726365732F636F72
310
652E786D6C8D50596E833010BD0A9ADFCA60D600328E9AA639412F609909B1126CE4A5EAF16B0295DABFFECC8CDEA2797AECF8353F924FB44E193D409E5248504B332A3D0D10FC95B4901C39B3C6F85F3248B49871801506CE266BC2B243D2688FDA47549B11775038871E12F988C7004EDE7016A9083E2ADC3D5D84BC8B09
310
D33C8D74D471E6BC8D0192EDC93A815B742658898E651BCB59086ADC356A8C3FD555A1055ED7E7E254D615792D0F075295F585746FF53B694EE78A565DD736979A65AB9933AFE69F8CD2A2F038022F28ED489E135A7CE4554F9BBEA85E68DB53CAB255FEC71496F19FA6A0B42F8B3DEE6673C0F318E4497096AD7DC5F52C33
310
EEB55BFE0D504B010214000A0000080000CC70623B3DEE336E79000000790000001B00000000000000000000000000000000006175746F6465736B2D64657369676E2D7061636B6167652E786D6C504B01021400140006080800CC70623BD486FD9CA0000000F40000001300000000000000000000000000B20000005B436F
310
6E74656E745F54797065735D2E786D6C504B01021400140006080800CC70623BD9DDAED0EC0000007C010000080000000000000000000000000083010000636F72652E786D6C504B01021400140006080800CC70623B55019EA25F0000007C000000070000000000000000000000000095020000636E782E786D6C504B0102
310
1400140006080800CC70623BA24EB22D72010000D40300000C00000000000000000000000000190300006662782F636F72652E786D6C504B01021400140006080800CC70623B408A7D3B7C0000009D0000000B00000000000000000000000000B50400006662782F636E782E786D6C504B01021400140006080800CC70623B
310
449FB9BD290100001202000031000000000000000000000000005A0500006662782F36394639363044362D344446342D343946362D394244322D3234314243333846323333332F636F72652E786D6C504B01021400140006080800CC70623BAD7543B64E010000330300003000000000000000000000000000D20600006662
310
782F36394639363044362D344446342D343946362D394244322D3234314243333846323333332F636E782E786D6C504B01021400140006080800CC70623B8D05915C650500003B10000034000000000000000000000000006E0800006662782F36394639363044362D344446342D343946362D394244322D32343142433338
310
46323333332F6F626A656374732E786D6C504B01021400140006080000CC70623B0000000000000000000000003500000000000000000000000000250E00006662782F36394639363044362D344446342D343946362D394244322D3234314243333846323333332F76657274696365732E62696E504B010214001400060808
310
00CC70623BF270F13306000000040000003600000000000000000000000000780E00006662782F36394639363044362D344446342D343946362D394244322D3234314243333846323333332F747269616E676C65732E62696E504B01021400140006080000CC70623B00000000000000000000000037000000000000000000
310
00000000D20E00006662782F36394639363044362D344446342D343946362D394244322D3234314243333846323333332F617474726962757465732E62696E504B01021400140006080800CC70623B08DA0BD190000000410100003600000000000000000000000000270F00006662782F36394639363044362D344446342D
310
343946362D394244322D3234314243333846323333332F6469726563746F72792E786D6C504B01021400140006080800CC70623BCA768048FE000000A00100003B000000000000000000000000000B1000006662782F36394639363044362D344446342D343946362D394244322D3234314243333846323333332F7265736F
310
75726365732F636F72652E786D6C504B0506000000000E000E0080040000621100000000
  0
XRECORD
  5
176
102
{ACAD_REACTORS
330
173
102
}
330
173
100
AcDbXrecord
280
     1
270
     1
271
     1
  0
XRECORD
  5
177
102
{ACAD_REACTORS
330
173
102
}
330
173
100
AcDbXrecord
280
     1
270
     1
271
     1
  0
XRECORD
  5
465
102
{ACAD_REACTORS
330
234
102
}
330
234
100
AcDbXrecord
280
     1
102
DISPLAYNAME
  1
Metric50
102
FLAGS
 90
        0
  0
CELLSTYLEMAP
  5
42B
102
{ACAD_REACTORS
330
162
102
}
330
162
100
AcDbCellStyleMap
 90
        3
300
CELLSTYLE
  1
TABLEFORMAT_BEGIN
 90
        5
170
     1
 91
        0
 92
    32768
 62
   257
 93
        1
300
CONTENTFORMAT
  1
CONTENTFORMAT_BEGIN
 90
        0
 91
        0
 92
      512
 93
        0
300

 40
0.0
140
1.0
 94
        5
 62
     0
340
11
144
6.0
309
CONTENTFORMAT_END
171
     1
301
MARGIN
  1
CELLMARGIN_BEGIN
 40
1.5
 40
1.5
 40
1.5
 40
1.5
 40
4.5
 40
4.5
309
CELLMARGIN_END
 94
        6
 95
        1
302
GRIDFORMAT
  1
GRIDFORMAT_BEGIN
 90
        0
 91
        1
 62
     0
 92
       -2
340
14
 93
        0
 40
1.125
309
GRIDFORMAT_END
 95
        2
302
GRIDFORMAT
  1
GRIDFORMAT_BEGIN
 90
        0
 91
        1
 62
     0
 92
       -2
340
14
 93
        0
 40
1.125
309
GRIDFORMAT_END
 95
        4
302
GRIDFORMAT
  1
GRIDFORMAT_BEGIN
 90
        0
 91
        1
 62
     0
 92
       -2
340
14
 93
        0
 40
1.125
309
GRIDFORMAT_END
 95
        8
302
GRIDFORMAT
  1
GRIDFORMAT_BEGIN
 90
        0
 91
        1
 62
     0
 92
       -2
340
14
 93
        0
 40
1.125
309
GRIDFORMAT_END
 95
       16
302
GRIDFORMAT
  1
GRIDFORMAT_BEGIN
 90
        0
 91
        1
 62
     0
 92
       -2
340
14
 93
        0
 40
1.125
309
GRIDFORMAT_END
 95
       32
302
GRIDFORMAT
  1
GRIDFORMAT_BEGIN
 90
        0
 91
        1
 62
     0
 92
       -2
340
14
 93
        0
 40
1.125
309
GRIDFORMAT_END
309
TABLEFORMAT_END
  1
CELLSTYLE_BEGIN
 90
        1
 91
        1
300
_TITLE
309
CELLSTYLE_END
300
CELLSTYLE
  1
TABLEFORMAT_BEGIN
 90
        5
170
     1
 91
        0
 92
        0
 62
   257
 93
        1
300
CONTENTFORMAT
  1
CONTENTFORMAT_BEGIN
 90
        0
 91
        0
 92
      512
 93
        0
300

 40
0.0
140
1.0
 94
        5
 62
     0
340
11
144
4.5
309
CONTENTFORMAT_END
171
     1
301
MARGIN
  1
CELLMARGIN_BEGIN
 40
1.5
 40
1.5
 40
1.5
 40
1.5
 40
4.5
 40
4.5
309
CELLMARGIN_END
 94
        6
 95
        1
302
GRIDFORMAT
  1
GRIDFORMAT_BEGIN
 90
        0
 91
        1
 62
     0
 92
       -2
340
14
 93
        0
 40
1.125
309
GRIDFORMAT_END
 95
        2
302
GRIDFORMAT
  1
GRIDFORMAT_BEGIN
 90
        0
 91
        1
 62
     0
 92
       -2
340
14
 93
        0
 40
1.125
309
GRIDFORMAT_END
 95
        4
302
GRIDFORMAT
  1
GRIDFORMAT_BEGIN
 90
        0
 91
        1
 62
     0
 92
       -2
340
14
 93
        0
 40
1.125
309
GRIDFORMAT_END
 95
        8
302
GRIDFORMAT
  1
GRIDFORMAT_BEGIN
 90
        0
 91
        1
 62
     0
 92
       -2
340
14
 93
        0
 40
1.125
309
GRIDFORMAT_END
 95
       16
302
GRIDFORMAT
  1
GRIDFORMAT_BEGIN
 90
        0
 91
        1
 62
     0
 92
       -2
340
14
 93
        0
 40
1.125
309
GRIDFORMAT_END
 95
       32
302
GRIDFORMAT
  1
GRIDFORMAT_BEGIN
 90
        0
 91
        1
 62
     0
 92
       -2
340
14
 93
        0
 40
1.125
309
GRIDFORMAT_END
309
TABLEFORMAT_END
  1
CELLSTYLE_BEGIN
 90
        2
 91
        1
300
_HEADER
309
CELLSTYLE_END
300
CELLSTYLE
  1
TABLEFORMAT_BEGIN
 90
        5
170
     1
 91
        0
 92
        0
 62
   257
 93
        1
300
CONTENTFORMAT
  1
CONTENTFORMAT_BEGIN
 90
        0
 91
        0
 92
      512
 93
        0
300

 40
0.0
140
1.0
 94
        2
 62
     0
340
11
144
4.5
309
CONTENTFORMAT_END
171
     1
301
MARGIN
  1
CELLMARGIN_BEGIN
 40
1.5
 40
1.5
 40
1.5
 40
1.5
 40
4.5
 40
4.5
309
CELLMARGIN_END
 94
        6
 95
        1
302
GRIDFORMAT
  1
GRIDFORMAT_BEGIN
 90
        0
 91
        1
 62
     0
 92
       -2
340
14
 93
        0
 40
1.125
309
GRIDFORMAT_END
 95
        2
302
GRIDFORMAT
  1
GRIDFORMAT_BEGIN
 90
        0
 91
        1
 62
     0
 92
       -2
340
14
 93
        0
 40
1.125
309
GRIDFORMAT_END
 95
        4
302
GRIDFORMAT
  1
GRIDFORMAT_BEGIN
 90
        0
 91
        1
 62
     0
 92
       -2
340
14
 93
        0
 40
1.125
309
GRIDFORMAT_END
 95
        8
302
GRIDFORMAT
  1
GRIDFORMAT_BEGIN
 90
        0
 91
        1
 62
     0
 92
       -2
340
14
 93
        0
 40
1.125
309
GRIDFORMAT_END
 95
       16
302
GRIDFORMAT
  1
GRIDFORMAT_BEGIN
 90
        0
 91
        1
 62
     0
 92
       -2
340
14
 93
        0
 40
1.125
309
GRIDFORMAT_END
 95
       32
302
GRIDFORMAT
  1
GRIDFORMAT_BEGIN
 90
        0
 91
        1
 62
     0
 92
       -2
340
14
 93
        0
 40
1.125
309
GRIDFORMAT_END
309
TABLEFORMAT_END
  1
CELLSTYLE_BEGIN
 90
        3
 91
        2
300
_DATA
309
CELLSTYLE_END
  0
XRECORD
  5
440
102
{ACAD_REACTORS
330
43F
102
}
330
43F
100
AcDbXrecord
280
     1
102
RTVSPost2010Prop28
280
     1
102
RTVSPost2010PropOp28
 70
     1
102
RTVSPost2010Prop29
280
     1
102
RTVSPost2010PropOp29
 70
     1
102
RTVSPost2010Prop30
280
     0
102
RTVSPost2010PropOp30
 70
     1
102
RTVSPost2010Prop31
280
     0
102
RTVSPost2010PropOp31
 70
     1
102
RTVSPost2010Prop32
280
     0
102
RTVSPost2010PropOp32
 70
     1
102
RTVSPost2010Prop33
280
     0
102
RTVSPost2010PropOp33
 70
     1
102
RTVSPost2010Prop34
280
     0
102
RTVSPost2010PropOp34
 70
     1
102
RTVSPost2010Prop35
280
     0
102
RTVSPost2010PropOp35
 70
     1
102
RTVSPost2010Prop36
280
     0
102
RTVSPost2010PropOp36
 70
     1
102
RTVSPost2010Prop37
 90
       50
102
RTVSPost2010PropOp37
 70
     1
102
RTVSPost2010Prop38
140
0.0
102
RTVSPost2010PropOp38
 70
     1
102
RTVSPost2010Prop39
140
1.0
102
RTVSPost2010PropOp39
 70
     1
102
RTVSPost2010Prop40
 90
        0
102
RTVSPost2010PropOp40
 70
     1
102
RTVSPost2010Prop41ColorIndex
 90
       18
102
RTVSPost2010Prop41ColorRGB
 90
        0
102
RTVSPost2010PropOp41
 70
     1
102
RTVSPost2010Prop42
 90
       50
102
RTVSPost2010PropOp42
 70
     1
102
RTVSPost2010Prop43
 90
        3
102
RTVSPost2010PropOp43
 70
     1
102
RTVSPost2010Prop44ColorIndex
 90
        5
102
RTVSPost2010Prop44ColorRGB
 90
      255
102
RTVSPost2010PropOp44
 70
     1
102
RTVSPost2010Prop45
280
     0
102
RTVSPost2010PropOp45
 70
     1
102
RTVSPost2010Prop46
 90
       50
102
RTVSPost2010PropOp46
 70
     1
102
RTVSPost2010Prop47
 90
       50
102
RTVSPost2010PropOp47
 70
     1
102
RTVSPost2010Prop48
 90
       50
102
RTVSPost2010PropOp48
 70
     1
102
RTVSPost2010Prop49
280
     0
102
RTVSPost2010PropOp49
 70
     1
102
RTVSPost2010Prop50
 90
       50
102
RTVSPost2010PropOp50
 70
     1
102
RTVSPost2010Prop51ColorIndex
 90
      256
102
RTVSPost2010Prop51ColorRGB
 90
-16777216
102
RTVSPost2010PropOp51
 70
     0
102
RTVSPost2010Prop52
140
1.0
102
RTVSPost2010PropOp52
 70
     0
102
RTVSPost2010Prop53
 90
        2
102
RTVSPost2010PropOp53
 70
     1
102
RTVSPost2010Prop54
  1
strokes_ogs.tif
102
RTVSPost2010PropOp54
 70
     1
102
RTVSPost2010Prop55
280
     0
102
RTVSPost2010PropOp55
 70
     1
102
RTVSPost2010Prop56
140
1.0
102
RTVSPost2010PropOp56
 70
     1
102
RTVSPost2010Prop57
140
1.0
102
RTVSPost2010PropOp57
 70
     1
102
RTVSPropertyOp0
 70
     1
102
RTVSPropertyOp1
 70
     1
102
RTVSPropertyOp2
 70
     1
102
RTVSPropertyOp3
 70
     1
102
RTVSPropertyOp4
 70
     1
102
RTVSPropertyOp5
 70
     1
102
RTVSPropertyOp6
 70
     1
102
RTVSPropertyOp7
 70
     1
102
RTVSPropertyOp8
 70
     1
102
RTVSPropertyOp9
 70
     1
102
RTVSPropertyOp10
 70
     1
102
RTVSPropertyOp11
 70
     1
102
RTVSPropertyOp12
 70
     1
102
RTVSPropertyOp13
 70
     1
102
RTVSPropertyOp14
 70
     1
102
RTVSPropertyOp15
 70
     1
102
RTVSPropertyOp16
 70
     1
102
RTVSPropertyOp17
 70
     1
102
RTVSPropertyOp18
 70
     1
102
RTVSPropertyOp19
 70
     1
102
RTVSPropertyOp20
 70
     1
102
RTVSPropertyOp21
 70
     1
102
RTVSPropertyOp22
 70
     1
102
RTVSPropertyOp23
 70
     1
102
RTVSPropertyOp24
 70
     1
102
RTVSPropertyOp25
 70
     1
102
RTVSPropertyOp26
 70
     1
102
RTVSPropertyOp27
 70
     1
102
RTVSPropertyOp28
 70
     1
102
RTVSPropertyOp29
 70
     1
102
RTVSPropertyOp30
 70
     1
102
RTVSPropertyOp31
 70
     1
102
RTVSPropertyOp32
 70
     1
102
RTVSPropertyOp33
 70
     1
102
RTVSPropertyOp34
 70
     1
102
RTVSPropertyOp35
 70
     1
102
RTVSPropertyOp36
 70
     1
102
RTVSPropertyOp37
 70
     1
102
RTVSPropertyOp38
 70
     1
102
RTVSPropertyOp39
 70
     1
102
RTVSPropertyOp40
 70
     1
102
RTVSPropertyOp41
 70
     1
102
RTVSPropertyOp42
 70
     1
102
RTVSPropertyOp43
 70
     1
102
RTVSPropertyOp44
 70
     1
102
RTVSPropertyOp45
 70
     1
102
RTVSPropertyOp46
 70
     1
102
RTVSPropertyOp47
 70
     1
102
RTVSPropertyOp48
 70
     1
102
RTVSPropertyOp49
 70
     1
102
RTVSPropertyOp50
 70
     1
102
RTVSPropertyOp51
 70
     0
102
RTVSPropertyOp52
 70
     0
102
RTVSPropertyOp53
 70
     1
102
RTVSPropertyOp54
 70
     1
102
RTVSPropertyOp55
 70
     1
102
RTVSPropertyOp56
 70
     1
102
RTVSPropertyOp57
 70
     1
102
RTVSPropertyOp58
 70
     1
102
RTVSPropertyOp59
 70
     1
102
RTVSPropertyOp60
 70
     1
102
RTVSPropertyOp61
 70
     1
102
RTVSPropertyOp62
 70
     1
  0
XRECORD
  5
43E
102
{ACAD_REACTORS
330
43D
102
}
330
43D
100
AcDbXrecord
280
     1
102
RTVSPost2010Prop28
280
     0
102
RTVSPost2010PropOp28
 70
     1
102
RTVSPost2010Prop29
280
     1
102
RTVSPost2010PropOp29
 70
     1
102
RTVSPost2010Prop30
280
     1
102
RTVSPost2010PropOp30
 70
     1
102
RTVSPost2010Prop31
280
     0
102
RTVSPost2010PropOp31
 70
     1
102
RTVSPost2010Prop32
280
     0
102
RTVSPost2010PropOp32
 70
     1
102
RTVSPost2010Prop33
280
     0
102
RTVSPost2010PropOp33
 70
     1
102
RTVSPost2010Prop34
280
     0
102
RTVSPost2010PropOp34
 70
     1
102
RTVSPost2010Prop35
280
     0
102
RTVSPost2010PropOp35
 70
     1
102
RTVSPost2010Prop36
280
     0
102
RTVSPost2010PropOp36
 70
     1
102
RTVSPost2010Prop37
 90
       50
102
RTVSPost2010PropOp37
 70
     1
102
RTVSPost2010Prop38
140
0.0
102
RTVSPost2010PropOp38
 70
     1
102
RTVSPost2010Prop39
140
1.0
102
RTVSPost2010PropOp39
 70
     1
102
RTVSPost2010Prop40
 90
        0
102
RTVSPost2010PropOp40
 70
     1
102
RTVSPost2010Prop41ColorIndex
 90
       18
102
RTVSPost2010Prop41ColorRGB
 90
        0
102
RTVSPost2010PropOp41
 70
     1
102
RTVSPost2010Prop42
 90
       50
102
RTVSPost2010PropOp42
 70
     1
102
RTVSPost2010Prop43
 90
        3
102
RTVSPost2010PropOp43
 70
     1
102
RTVSPost2010Prop44ColorIndex
 90
        5
102
RTVSPost2010Prop44ColorRGB
 90
      255
102
RTVSPost2010PropOp44
 70
     1
102
RTVSPost2010Prop45
280
     0
102
RTVSPost2010PropOp45
 70
     1
102
RTVSPost2010Prop46
 90
       50
102
RTVSPost2010PropOp46
 70
     1
102
RTVSPost2010Prop47
 90
       50
102
RTVSPost2010PropOp47
 70
     1
102
RTVSPost2010Prop48
 90
       50
102
RTVSPost2010PropOp48
 70
     1
102
RTVSPost2010Prop49
280
     0
102
RTVSPost2010PropOp49
 70
     1
102
RTVSPost2010Prop50
 90
       50
102
RTVSPost2010PropOp50
 70
     1
102
RTVSPost2010Prop51ColorIndex
 90
      256
102
RTVSPost2010Prop51ColorRGB
 90
-16777216
102
RTVSPost2010PropOp51
 70
     0
102
RTVSPost2010Prop52
140
1.0
102
RTVSPost2010PropOp52
 70
     0
102
RTVSPost2010Prop53
 90
        2
102
RTVSPost2010PropOp53
 70
     1
102
RTVSPost2010Prop54
  1
strokes_ogs.tif
102
RTVSPost2010PropOp54
 70
     1
102
RTVSPost2010Prop55
280
     0
102
RTVSPost2010PropOp55
 70
     1
102
RTVSPost2010Prop56
140
1.0
102
RTVSPost2010PropOp56
 70
     1
102
RTVSPost2010Prop57
140
1.0
102
RTVSPost2010PropOp57
 70
     1
102
RTVSPropertyOp0
 70
     1
102
RTVSPropertyOp1
 70
     1
102
RTVSPropertyOp2
 70
     1
102
RTVSPropertyOp3
 70
     1
102
RTVSPropertyOp4
 70
     1
102
RTVSPropertyOp5
 70
     1
102
RTVSPropertyOp6
 70
     1
102
RTVSPropertyOp7
 70
     1
102
RTVSPropertyOp8
 70
     1
102
RTVSPropertyOp9
 70
     1
102
RTVSPropertyOp10
 70
     1
102
RTVSPropertyOp11
 70
     1
102
RTVSPropertyOp12
 70
     1
102
RTVSPropertyOp13
 70
     1
102
RTVSPropertyOp14
 70
     1
102
RTVSPropertyOp15
 70
     1
102
RTVSPropertyOp16
 70
     1
102
RTVSPropertyOp17
 70
     1
102
RTVSPropertyOp18
 70
     1
102
RTVSPropertyOp19
 70
     1
102
RTVSPropertyOp20
 70
     1
102
RTVSPropertyOp21
 70
     1
102
RTVSPropertyOp22
 70
     1
102
RTVSPropertyOp23
 70
     1
102
RTVSPropertyOp24
 70
     1
102
RTVSPropertyOp25
 70
     1
102
RTVSPropertyOp26
 70
     1
102
RTVSPropertyOp27
 70
     1
102
RTVSPropertyOp28
 70
     1
102
RTVSPropertyOp29
 70
     1
102
RTVSPropertyOp30
 70
     1
102
RTVSPropertyOp31
 70
     1
102
RTVSPropertyOp32
 70
     1
102
RTVSPropertyOp33
 70
     1
102
RTVSPropertyOp34
 70
     1
102
RTVSPropertyOp35
 70
     1
102
RTVSPropertyOp36
 70
     1
102
RTVSPropertyOp37
 70
     1
102
RTVSPropertyOp38
 70
     1
102
RTVSPropertyOp39
 70
     1
102
RTVSPropertyOp40
 70
     1
102
RTVSPropertyOp41
 70
     1
102
RTVSPropertyOp42
 70
     1
102
RTVSPropertyOp43
 70
     1
102
RTVSPropertyOp44
 70
     1
102
RTVSPropertyOp45
 70
     1
102
RTVSPropertyOp46
 70
     1
102
RTVSPropertyOp47
 70
     1
102
RTVSPropertyOp48
 70
     1
102
RTVSPropertyOp49
 70
     1
102
RTVSPropertyOp50
 70
     1
102
RTVSPropertyOp51
 70
     0
102
RTVSPropertyOp52
 70
     0
102
RTVSPropertyOp53
 70
     1
102
RTVSPropertyOp54
 70
     1
102
RTVSPropertyOp55
 70
     1
102
RTVSPropertyOp56
 70
     1
102
RTVSPropertyOp57
 70
     1
102
RTVSPropertyOp58
 70
     1
102
RTVSPropertyOp59
 70
     1
102
RTVSPropertyOp60
 70
     1
102
RTVSPropertyOp61
 70
     1
102
RTVSPropertyOp62
 70
     1
  0
XRECORD
  5
44C
102
{ACAD_REACTORS
330
44B
102
}
330
44B
100
AcDbXrecord
280
     1
102
RTVSPost2010Prop28
280
     0
102
RTVSPost2010PropOp28
 70
     1
102
RTVSPost2010Prop29
280
     1
102
RTVSPost2010PropOp29
 70
     1
102
RTVSPost2010Prop30
280
     1
102
RTVSPost2010PropOp30
 70
     1
102
RTVSPost2010Prop31
280
     0
102
RTVSPost2010PropOp31
 70
     1
102
RTVSPost2010Prop32
280
     0
102
RTVSPost2010PropOp32
 70
     1
102
RTVSPost2010Prop33
280
     0
102
RTVSPost2010PropOp33
 70
     1
102
RTVSPost2010Prop34
280
     0
102
RTVSPost2010PropOp34
 70
     1
102
RTVSPost2010Prop35
280
     0
102
RTVSPost2010PropOp35
 70
     1
102
RTVSPost2010Prop36
280
     0
102
RTVSPost2010PropOp36
 70
     1
102
RTVSPost2010Prop37
 90
       50
102
RTVSPost2010PropOp37
 70
     1
102
RTVSPost2010Prop38
140
0.0
102
RTVSPost2010PropOp38
 70
     1
102
RTVSPost2010Prop39
140
1.0
102
RTVSPost2010PropOp39
 70
     1
102
RTVSPost2010Prop40
 90
        0
102
RTVSPost2010PropOp40
 70
     1
102
RTVSPost2010Prop41ColorIndex
 90
       18
102
RTVSPost2010Prop41ColorRGB
 90
        0
102
RTVSPost2010PropOp41
 70
     1
102
RTVSPost2010Prop42
 90
       50
102
RTVSPost2010PropOp42
 70
     1
102
RTVSPost2010Prop43
 90
        3
102
RTVSPost2010PropOp43
 70
     1
102
RTVSPost2010Prop44ColorIndex
 90
        5
102
RTVSPost2010Prop44ColorRGB
 90
      255
102
RTVSPost2010PropOp44
 70
     1
102
RTVSPost2010Prop45
280
     0
102
RTVSPost2010PropOp45
 70
     1
102
RTVSPost2010Prop46
 90
       50
102
RTVSPost2010PropOp46
 70
     1
102
RTVSPost2010Prop47
 90
       50
102
RTVSPost2010PropOp47
 70
     1
102
RTVSPost2010Prop48
 90
       50
102
RTVSPost2010PropOp48
 70
     1
102
RTVSPost2010Prop49
280
     0
102
RTVSPost2010PropOp49
 70
     1
102
RTVSPost2010Prop50
 90
       50
102
RTVSPost2010PropOp50
 70
     1
102
RTVSPost2010Prop51ColorIndex
 90
      256
102
RTVSPost2010Prop51ColorRGB
 90
-16777216
102
RTVSPost2010PropOp51
 70
     0
102
RTVSPost2010Prop52
140
1.0
102
RTVSPost2010PropOp52
 70
     0
102
RTVSPost2010Prop53
 90
        2
102
RTVSPost2010PropOp53
 70
     1
102
RTVSPost2010Prop54
  1
strokes_ogs.tif
102
RTVSPost2010PropOp54
 70
     1
102
RTVSPost2010Prop55
280
     0
102
RTVSPost2010PropOp55
 70
     1
102
RTVSPost2010Prop56
140
1.0
102
RTVSPost2010PropOp56
 70
     1
102
RTVSPost2010Prop57
140
1.0
102
RTVSPost2010PropOp57
 70
     1
102
RTVSPropertyOp0
 70
     1
102
RTVSPropertyOp1
 70
     1
102
RTVSPropertyOp2
 70
     1
102
RTVSPropertyOp3
 70
     1
102
RTVSPropertyOp4
 70
     1
102
RTVSPropertyOp5
 70
     1
102
RTVSPropertyOp6
 70
     1
102
RTVSPropertyOp7
 70
     1
102
RTVSPropertyOp8
 70
     1
102
RTVSPropertyOp9
 70
     1
102
RTVSPropertyOp10
 70
     1
102
RTVSPropertyOp11
 70
     1
102
RTVSPropertyOp12
 70
     1
102
RTVSPropertyOp13
 70
     1
102
RTVSPropertyOp14
 70
     1
102
RTVSPropertyOp15
 70
     1
102
RTVSPropertyOp16
 70
     1
102
RTVSPropertyOp17
 70
     1
102
RTVSPropertyOp18
 70
     1
102
RTVSPropertyOp19
 70
     1
102
RTVSPropertyOp20
 70
     1
102
RTVSPropertyOp21
 70
     1
102
RTVSPropertyOp22
 70
     1
102
RTVSPropertyOp23
 70
     1
102
RTVSPropertyOp24
 70
     1
102
RTVSPropertyOp25
 70
     1
102
RTVSPropertyOp26
 70
     1
102
RTVSPropertyOp27
 70
     1
102
RTVSPropertyOp28
 70
     1
102
RTVSPropertyOp29
 70
     1
102
RTVSPropertyOp30
 70
     1
102
RTVSPropertyOp31
 70
     1
102
RTVSPropertyOp32
 70
     1
102
RTVSPropertyOp33
 70
     1
102
RTVSPropertyOp34
 70
     1
102
RTVSPropertyOp35
 70
     1
102
RTVSPropertyOp36
 70
     1
102
RTVSPropertyOp37
 70
     1
102
RTVSPropertyOp38
 70
     1
102
RTVSPropertyOp39
 70
     1
102
RTVSPropertyOp40
 70
     1
102
RTVSPropertyOp41
 70
     1
102
RTVSPropertyOp42
 70
     1
102
RTVSPropertyOp43
 70
     1
102
RTVSPropertyOp44
 70
     1
102
RTVSPropertyOp45
 70
     1
102
RTVSPropertyOp46
 70
     1
102
RTVSPropertyOp47
 70
     1
102
RTVSPropertyOp48
 70
     1
102
RTVSPropertyOp49
 70
     1
102
RTVSPropertyOp50
 70
     1
102
RTVSPropertyOp51
 70
     0
102
RTVSPropertyOp52
 70
     0
102
RTVSPropertyOp53
 70
     1
102
RTVSPropertyOp54
 70
     1
102
RTVSPropertyOp55
 70
     1
102
RTVSPropertyOp56
 70
     1
102
RTVSPropertyOp57
 70
     1
102
RTVSPropertyOp58
 70
     1
102
RTVSPropertyOp59
 70
     1
102
RTVSPropertyOp60
 70
     1
102
RTVSPropertyOp61
 70
     1
102
RTVSPropertyOp62
 70
     1
  0
XRECORD
  5
454
102
{ACAD_REACTORS
330
453
102
}
330
453
100
AcDbXrecord
280
     1
102
RTVSPost2010Prop28
280
     0
102
RTVSPost2010PropOp28
 70
     1
102
RTVSPost2010Prop29
280
     1
102
RTVSPost2010PropOp29
 70
     1
102
RTVSPost2010Prop30
280
     1
102
RTVSPost2010PropOp30
 70
     1
102
RTVSPost2010Prop31
280
     0
102
RTVSPost2010PropOp31
 70
     1
102
RTVSPost2010Prop32
280
     0
102
RTVSPost2010PropOp32
 70
     1
102
RTVSPost2010Prop33
280
     0
102
RTVSPost2010PropOp33
 70
     1
102
RTVSPost2010Prop34
280
     0
102
RTVSPost2010PropOp34
 70
     1
102
RTVSPost2010Prop35
280
     0
102
RTVSPost2010PropOp35
 70
     1
102
RTVSPost2010Prop36
280
     0
102
RTVSPost2010PropOp36
 70
     1
102
RTVSPost2010Prop37
 90
       50
102
RTVSPost2010PropOp37
 70
     1
102
RTVSPost2010Prop38
140
0.0
102
RTVSPost2010PropOp38
 70
     1
102
RTVSPost2010Prop39
140
1.0
102
RTVSPost2010PropOp39
 70
     1
102
RTVSPost2010Prop40
 90
        0
102
RTVSPost2010PropOp40
 70
     1
102
RTVSPost2010Prop41ColorIndex
 90
       18
102
RTVSPost2010Prop41ColorRGB
 90
        0
102
RTVSPost2010PropOp41
 70
     1
102
RTVSPost2010Prop42
 90
       50
102
RTVSPost2010PropOp42
 70
     1
102
RTVSPost2010Prop43
 90
        3
102
RTVSPost2010PropOp43
 70
     1
102
RTVSPost2010Prop44ColorIndex
 90
        5
102
RTVSPost2010Prop44ColorRGB
 90
      255
102
RTVSPost2010PropOp44
 70
     1
102
RTVSPost2010Prop45
280
     0
102
RTVSPost2010PropOp45
 70
     1
102
RTVSPost2010Prop46
 90
       50
102
RTVSPost2010PropOp46
 70
     1
102
RTVSPost2010Prop47
 90
       50
102
RTVSPost2010PropOp47
 70
     1
102
RTVSPost2010Prop48
 90
       50
102
RTVSPost2010PropOp48
 70
     1
102
RTVSPost2010Prop49
280
     0
102
RTVSPost2010PropOp49
 70
     1
102
RTVSPost2010Prop50
 90
       50
102
RTVSPost2010PropOp50
 70
     1
102
RTVSPost2010Prop51ColorIndex
 90
      256
102
RTVSPost2010Prop51ColorRGB
 90
-16777216
102
RTVSPost2010PropOp51
 70
     0
102
RTVSPost2010Prop52
140
1.0
102
RTVSPost2010PropOp52
 70
     0
102
RTVSPost2010Prop53
 90
        2
102
RTVSPost2010PropOp53
 70
     1
102
RTVSPost2010Prop54
  1
strokes_ogs.tif
102
RTVSPost2010PropOp54
 70
     1
102
RTVSPost2010Prop55
280
     0
102
RTVSPost2010PropOp55
 70
     1
102
RTVSPost2010Prop56
140
1.0
102
RTVSPost2010PropOp56
 70
     1
102
RTVSPost2010Prop57
140
1.0
102
RTVSPost2010PropOp57
 70
     1
102
RTVSPropertyOp0
 70
     1
102
RTVSPropertyOp1
 70
     1
102
RTVSPropertyOp2
 70
     1
102
RTVSPropertyOp3
 70
     1
102
RTVSPropertyOp4
 70
     1
102
RTVSPropertyOp5
 70
     1
102
RTVSPropertyOp6
 70
     1
102
RTVSPropertyOp7
 70
     1
102
RTVSPropertyOp8
 70
     1
102
RTVSPropertyOp9
 70
     1
102
RTVSPropertyOp10
 70
     1
102
RTVSPropertyOp11
 70
     1
102
RTVSPropertyOp12
 70
     1
102
RTVSPropertyOp13
 70
     1
102
RTVSPropertyOp14
 70
     1
102
RTVSPropertyOp15
 70
     1
102
RTVSPropertyOp16
 70
     1
102
RTVSPropertyOp17
 70
     1
102
RTVSPropertyOp18
 70
     1
102
RTVSPropertyOp19
 70
     1
102
RTVSPropertyOp20
 70
     1
102
RTVSPropertyOp21
 70
     1
102
RTVSPropertyOp22
 70
     1
102
RTVSPropertyOp23
 70
     1
102
RTVSPropertyOp24
 70
     1
102
RTVSPropertyOp25
 70
     1
102
RTVSPropertyOp26
 70
     1
102
RTVSPropertyOp27
 70
     1
102
RTVSPropertyOp28
 70
     1
102
RTVSPropertyOp29
 70
     1
102
RTVSPropertyOp30
 70
     1
102
RTVSPropertyOp31
 70
     1
102
RTVSPropertyOp32
 70
     1
102
RTVSPropertyOp33
 70
     1
102
RTVSPropertyOp34
 70
     1
102
RTVSPropertyOp35
 70
     1
102
RTVSPropertyOp36
 70
     1
102
RTVSPropertyOp37
 70
     1
102
RTVSPropertyOp38
 70
     1
102
RTVSPropertyOp39
 70
     1
102
RTVSPropertyOp40
 70
     1
102
RTVSPropertyOp41
 70
     1
102
RTVSPropertyOp42
 70
     1
102
RTVSPropertyOp43
 70
     1
102
RTVSPropertyOp44
 70
     1
102
RTVSPropertyOp45
 70
     1
102
RTVSPropertyOp46
 70
     1
102
RTVSPropertyOp47
 70
     1
102
RTVSPropertyOp48
 70
     1
102
RTVSPropertyOp49
 70
     1
102
RTVSPropertyOp50
 70
     1
102
RTVSPropertyOp51
 70
     0
102
RTVSPropertyOp52
 70
     0
102
RTVSPropertyOp53
 70
     1
102
RTVSPropertyOp54
 70
     1
102
RTVSPropertyOp55
 70
     1
102
RTVSPropertyOp56
 70
     1
102
RTVSPropertyOp57
 70
     1
102
RTVSPropertyOp58
 70
     1
102
RTVSPropertyOp59
 70
     1
102
RTVSPropertyOp60
 70
     1
102
RTVSPropertyOp61
 70
     1
102
RTVSPropertyOp62
 70
     1
  0
XRECORD
  5
446
102
{ACAD_REACTORS
330
445
102
}
330
445
100
AcDbXrecord
280
     1
102
RTVSPost2010Prop28
280
     0
102
RTVSPost2010PropOp28
 70
     1
102
RTVSPost2010Prop29
280
     1
102
RTVSPost2010PropOp29
 70
     1
102
RTVSPost2010Prop30
280
     1
102
RTVSPost2010PropOp30
 70
     1
102
RTVSPost2010Prop31
280
     0
102
RTVSPost2010PropOp31
 70
     1
102
RTVSPost2010Prop32
280
     0
102
RTVSPost2010PropOp32
 70
     1
102
RTVSPost2010Prop33
280
     0
102
RTVSPost2010PropOp33
 70
     1
102
RTVSPost2010Prop34
280
     0
102
RTVSPost2010PropOp34
 70
     1
102
RTVSPost2010Prop35
280
     0
102
RTVSPost2010PropOp35
 70
     1
102
RTVSPost2010Prop36
280
     0
102
RTVSPost2010PropOp36
 70
     1
102
RTVSPost2010Prop37
 90
       50
102
RTVSPost2010PropOp37
 70
     1
102
RTVSPost2010Prop38
140
0.0
102
RTVSPost2010PropOp38
 70
     1
102
RTVSPost2010Prop39
140
1.0
102
RTVSPost2010PropOp39
 70
     1
102
RTVSPost2010Prop40
 90
        0
102
RTVSPost2010PropOp40
 70
     1
102
RTVSPost2010Prop41ColorIndex
 90
       18
102
RTVSPost2010Prop41ColorRGB
 90
        0
102
RTVSPost2010PropOp41
 70
     1
102
RTVSPost2010Prop42
 90
       50
102
RTVSPost2010PropOp42
 70
     1
102
RTVSPost2010Prop43
 90
        3
102
RTVSPost2010PropOp43
 70
     1
102
RTVSPost2010Prop44ColorIndex
 90
        5
102
RTVSPost2010Prop44ColorRGB
 90
      255
102
RTVSPost2010PropOp44
 70
     1
102
RTVSPost2010Prop45
280
     0
102
RTVSPost2010PropOp45
 70
     1
102
RTVSPost2010Prop46
 90
       50
102
RTVSPost2010PropOp46
 70
     1
102
RTVSPost2010Prop47
 90
       50
102
RTVSPost2010PropOp47
 70
     1
102
RTVSPost2010Prop48
 90
       50
102
RTVSPost2010PropOp48
 70
     1
102
RTVSPost2010Prop49
280
     0
102
RTVSPost2010PropOp49
 70
     1
102
RTVSPost2010Prop50
 90
       50
102
RTVSPost2010PropOp50
 70
     1
102
RTVSPost2010Prop51ColorIndex
 90
      256
102
RTVSPost2010Prop51ColorRGB
 90
-16777216
102
RTVSPost2010PropOp51
 70
     0
102
RTVSPost2010Prop52
140
1.0
102
RTVSPost2010PropOp52
 70
     0
102
RTVSPost2010Prop53
 90
        2
102
RTVSPost2010PropOp53
 70
     1
102
RTVSPost2010Prop54
  1
strokes_ogs.tif
102
RTVSPost2010PropOp54
 70
     1
102
RTVSPost2010Prop55
280
     0
102
RTVSPost2010PropOp55
 70
     1
102
RTVSPost2010Prop56
140
1.0
102
RTVSPost2010PropOp56
 70
     1
102
RTVSPost2010Prop57
140
1.0
102
RTVSPost2010PropOp57
 70
     1
102
RTVSPropertyOp0
 70
     1
102
RTVSPropertyOp1
 70
     1
102
RTVSPropertyOp2
 70
     1
102
RTVSPropertyOp3
 70
     1
102
RTVSPropertyOp4
 70
     1
102
RTVSPropertyOp5
 70
     1
102
RTVSPropertyOp6
 70
     1
102
RTVSPropertyOp7
 70
     1
102
RTVSPropertyOp8
 70
     1
102
RTVSPropertyOp9
 70
     1
102
RTVSPropertyOp10
 70
     1
102
RTVSPropertyOp11
 70
     1
102
RTVSPropertyOp12
 70
     1
102
RTVSPropertyOp13
 70
     1
102
RTVSPropertyOp14
 70
     1
102
RTVSPropertyOp15
 70
     1
102
RTVSPropertyOp16
 70
     1
102
RTVSPropertyOp17
 70
     1
102
RTVSPropertyOp18
 70
     1
102
RTVSPropertyOp19
 70
     1
102
RTVSPropertyOp20
 70
     1
102
RTVSPropertyOp21
 70
     1
102
RTVSPropertyOp22
 70
     1
102
RTVSPropertyOp23
 70
     1
102
RTVSPropertyOp24
 70
     1
102
RTVSPropertyOp25
 70
     1
102
RTVSPropertyOp26
 70
     1
102
RTVSPropertyOp27
 70
     1
102
RTVSPropertyOp28
 70
     1
102
RTVSPropertyOp29
 70
     1
102
RTVSPropertyOp30
 70
     1
102
RTVSPropertyOp31
 70
     1
102
RTVSPropertyOp32
 70
     1
102
RTVSPropertyOp33
 70
     1
102
RTVSPropertyOp34
 70
     1
102
RTVSPropertyOp35
 70
     1
102
RTVSPropertyOp36
 70
     1
102
RTVSPropertyOp37
 70
     1
102
RTVSPropertyOp38
 70
     1
102
RTVSPropertyOp39
 70
     1
102
RTVSPropertyOp40
 70
     1
102
RTVSPropertyOp41
 70
     1
102
RTVSPropertyOp42
 70
     1
102
RTVSPropertyOp43
 70
     1
102
RTVSPropertyOp44
 70
     1
102
RTVSPropertyOp45
 70
     1
102
RTVSPropertyOp46
 70
     1
102
RTVSPropertyOp47
 70
     1
102
RTVSPropertyOp48
 70
     1
102
RTVSPropertyOp49
 70
     1
102
RTVSPropertyOp50
 70
     1
102
RTVSPropertyOp51
 70
     0
102
RTVSPropertyOp52
 70
     0
102
RTVSPropertyOp53
 70
     1
102
RTVSPropertyOp54
 70
     1
102
RTVSPropertyOp55
 70
     1
102
RTVSPropertyOp56
 70
     1
102
RTVSPropertyOp57
 70
     1
102
RTVSPropertyOp58
 70
     1
102
RTVSPropertyOp59
 70
     1
102
RTVSPropertyOp60
 70
     1
102
RTVSPropertyOp61
 70
     1
102
RTVSPropertyOp62
 70
     1
  0
XRECORD
  5
44A
102
{ACAD_REACTORS
330
449
102
}
330
449
100
AcDbXrecord
280
     1
102
RTVSPost2010Prop28
280
     0
102
RTVSPost2010PropOp28
 70
     1
102
RTVSPost2010Prop29
280
     1
102
RTVSPost2010PropOp29
 70
     1
102
RTVSPost2010Prop30
280
     1
102
RTVSPost2010PropOp30
 70
     1
102
RTVSPost2010Prop31
280
     0
102
RTVSPost2010PropOp31
 70
     1
102
RTVSPost2010Prop32
280
     0
102
RTVSPost2010PropOp32
 70
     1
102
RTVSPost2010Prop33
280
     0
102
RTVSPost2010PropOp33
 70
     1
102
RTVSPost2010Prop34
280
     0
102
RTVSPost2010PropOp34
 70
     1
102
RTVSPost2010Prop35
280
     0
102
RTVSPost2010PropOp35
 70
     1
102
RTVSPost2010Prop36
280
     0
102
RTVSPost2010PropOp36
 70
     1
102
RTVSPost2010Prop37
 90
       50
102
RTVSPost2010PropOp37
 70
     1
102
RTVSPost2010Prop38
140
0.0
102
RTVSPost2010PropOp38
 70
     1
102
RTVSPost2010Prop39
140
1.0
102
RTVSPost2010PropOp39
 70
     1
102
RTVSPost2010Prop40
 90
        0
102
RTVSPost2010PropOp40
 70
     1
102
RTVSPost2010Prop41ColorIndex
 90
       18
102
RTVSPost2010Prop41ColorRGB
 90
        0
102
RTVSPost2010PropOp41
 70
     1
102
RTVSPost2010Prop42
 90
       50
102
RTVSPost2010PropOp42
 70
     1
102
RTVSPost2010Prop43
 90
        3
102
RTVSPost2010PropOp43
 70
     1
102
RTVSPost2010Prop44ColorIndex
 90
        5
102
RTVSPost2010Prop44ColorRGB
 90
      255
102
RTVSPost2010PropOp44
 70
     1
102
RTVSPost2010Prop45
280
     0
102
RTVSPost2010PropOp45
 70
     1
102
RTVSPost2010Prop46
 90
       50
102
RTVSPost2010PropOp46
 70
     1
102
RTVSPost2010Prop47
 90
       50
102
RTVSPost2010PropOp47
 70
     1
102
RTVSPost2010Prop48
 90
       50
102
RTVSPost2010PropOp48
 70
     1
102
RTVSPost2010Prop49
280
     0
102
RTVSPost2010PropOp49
 70
     1
102
RTVSPost2010Prop50
 90
       50
102
RTVSPost2010PropOp50
 70
     1
102
RTVSPost2010Prop51ColorIndex
 90
      256
102
RTVSPost2010Prop51ColorRGB
 90
-16777216
102
RTVSPost2010PropOp51
 70
     0
102
RTVSPost2010Prop52
140
1.0
102
RTVSPost2010PropOp52
 70
     0
102
RTVSPost2010Prop53
 90
        2
102
RTVSPost2010PropOp53
 70
     1
102
RTVSPost2010Prop54
  1
strokes_ogs.tif
102
RTVSPost2010PropOp54
 70
     1
102
RTVSPost2010Prop55
280
     0
102
RTVSPost2010PropOp55
 70
     1
102
RTVSPost2010Prop56
140
1.0
102
RTVSPost2010PropOp56
 70
     1
102
RTVSPost2010Prop57
140
1.0
102
RTVSPost2010PropOp57
 70
     1
102
RTVSPropertyOp0
 70
     1
102
RTVSPropertyOp1
 70
     1
102
RTVSPropertyOp2
 70
     1
102
RTVSPropertyOp3
 70
     1
102
RTVSPropertyOp4
 70
     1
102
RTVSPropertyOp5
 70
     1
102
RTVSPropertyOp6
 70
     1
102
RTVSPropertyOp7
 70
     1
102
RTVSPropertyOp8
 70
     1
102
RTVSPropertyOp9
 70
     1
102
RTVSPropertyOp10
 70
     1
102
RTVSPropertyOp11
 70
     1
102
RTVSPropertyOp12
 70
     1
102
RTVSPropertyOp13
 70
     1
102
RTVSPropertyOp14
 70
     1
102
RTVSPropertyOp15
 70
     1
102
RTVSPropertyOp16
 70
     1
102
RTVSPropertyOp17
 70
     1
102
RTVSPropertyOp18
 70
     1
102
RTVSPropertyOp19
 70
     1
102
RTVSPropertyOp20
 70
     1
102
RTVSPropertyOp21
 70
     1
102
RTVSPropertyOp22
 70
     1
102
RTVSPropertyOp23
 70
     1
102
RTVSPropertyOp24
 70
     1
102
RTVSPropertyOp25
 70
     1
102
RTVSPropertyOp26
 70
     1
102
RTVSPropertyOp27
 70
     1
102
RTVSPropertyOp28
 70
     1
102
RTVSPropertyOp29
 70
     1
102
RTVSPropertyOp30
 70
     1
102
RTVSPropertyOp31
 70
     1
102
RTVSPropertyOp32
 70
     1
102
RTVSPropertyOp33
 70
     1
102
RTVSPropertyOp34
 70
     1
102
RTVSPropertyOp35
 70
     1
102
RTVSPropertyOp36
 70
     1
102
RTVSPropertyOp37
 70
     1
102
RTVSPropertyOp38
 70
     1
102
RTVSPropertyOp39
 70
     1
102
RTVSPropertyOp40
 70
     1
102
RTVSPropertyOp41
 70
     1
102
RTVSPropertyOp42
 70
     1
102
RTVSPropertyOp43
 70
     1
102
RTVSPropertyOp44
 70
     1
102
RTVSPropertyOp45
 70
     1
102
RTVSPropertyOp46
 70
     1
102
RTVSPropertyOp47
 70
     1
102
RTVSPropertyOp48
 70
     1
102
RTVSPropertyOp49
 70
     1
102
RTVSPropertyOp50
 70
     1
102
RTVSPropertyOp51
 70
     0
102
RTVSPropertyOp52
 70
     0
102
RTVSPropertyOp53
 70
     1
102
RTVSPropertyOp54
 70
     1
102
RTVSPropertyOp55
 70
     1
102
RTVSPropertyOp56
 70
     1
102
RTVSPropertyOp57
 70
     1
102
RTVSPropertyOp58
 70
     1
102
RTVSPropertyOp59
 70
     1
102
RTVSPropertyOp60
 70
     1
102
RTVSPropertyOp61
 70
     1
102
RTVSPropertyOp62
 70
     1
  0
XRECORD
  5
45A
102
{ACAD_REACTORS
330
459
102
}
330
459
100
AcDbXrecord
280
     1
102
RTVSPost2010Prop28
280
     0
102
RTVSPost2010PropOp28
 70
     1
102
RTVSPost2010Prop29
280
     1
102
RTVSPost2010PropOp29
 70
     1
102
RTVSPost2010Prop30
280
     1
102
RTVSPost2010PropOp30
 70
     1
102
RTVSPost2010Prop31
280
     0
102
RTVSPost2010PropOp31
 70
     1
102
RTVSPost2010Prop32
280
     0
102
RTVSPost2010PropOp32
 70
     1
102
RTVSPost2010Prop33
280
     0
102
RTVSPost2010PropOp33
 70
     1
102
RTVSPost2010Prop34
280
     0
102
RTVSPost2010PropOp34
 70
     1
102
RTVSPost2010Prop35
280
     0
102
RTVSPost2010PropOp35
 70
     1
102
RTVSPost2010Prop36
280
     0
102
RTVSPost2010PropOp36
 70
     1
102
RTVSPost2010Prop37
 90
       50
102
RTVSPost2010PropOp37
 70
     1
102
RTVSPost2010Prop38
140
0.0
102
RTVSPost2010PropOp38
 70
     1
102
RTVSPost2010Prop39
140
1.0
102
RTVSPost2010PropOp39
 70
     1
102
RTVSPost2010Prop40
 90
        0
102
RTVSPost2010PropOp40
 70
     1
102
RTVSPost2010Prop41ColorIndex
 90
       18
102
RTVSPost2010Prop41ColorRGB
 90
        0
102
RTVSPost2010PropOp41
 70
     1
102
RTVSPost2010Prop42
 90
       50
102
RTVSPost2010PropOp42
 70
     1
102
RTVSPost2010Prop43
 90
        3
102
RTVSPost2010PropOp43
 70
     1
102
RTVSPost2010Prop44ColorIndex
 90
        5
102
RTVSPost2010Prop44ColorRGB
 90
      255
102
RTVSPost2010PropOp44
 70
     1
102
RTVSPost2010Prop45
280
     0
102
RTVSPost2010PropOp45
 70
     1
102
RTVSPost2010Prop46
 90
       50
102
RTVSPost2010PropOp46
 70
     1
102
RTVSPost2010Prop47
 90
       50
102
RTVSPost2010PropOp47
 70
     1
102
RTVSPost2010Prop48
 90
       50
102
RTVSPost2010PropOp48
 70
     1
102
RTVSPost2010Prop49
280
     0
102
RTVSPost2010PropOp49
 70
     1
102
RTVSPost2010Prop50
 90
       50
102
RTVSPost2010PropOp50
 70
     1
102
RTVSPost2010Prop51ColorIndex
 90
      256
102
RTVSPost2010Prop51ColorRGB
 90
-16777216
102
RTVSPost2010PropOp51
 70
     0
102
RTVSPost2010Prop52
140
1.0
102
RTVSPost2010PropOp52
 70
     0
102
RTVSPost2010Prop53
 90
        2
102
RTVSPost2010PropOp53
 70
     1
102
RTVSPost2010Prop54
  1
strokes_ogs.tif
102
RTVSPost2010PropOp54
 70
     1
102
RTVSPost2010Prop55
280
     0
102
RTVSPost2010PropOp55
 70
     1
102
RTVSPost2010Prop56
140
1.0
102
RTVSPost2010PropOp56
 70
     1
102
RTVSPost2010Prop57
140
1.0
102
RTVSPost2010PropOp57
 70
     1
102
RTVSPropertyOp0
 70
     0
102
RTVSPropertyOp1
 70
     0
102
RTVSPropertyOp2
 70
     0
102
RTVSPropertyOp3
 70
     0
102
RTVSPropertyOp4
 70
     0
102
RTVSPropertyOp5
 70
     0
102
RTVSPropertyOp6
 70
     0
102
RTVSPropertyOp7
 70
     0
102
RTVSPropertyOp8
 70
     0
102
RTVSPropertyOp9
 70
     0
102
RTVSPropertyOp10
 70
     0
102
RTVSPropertyOp11
 70
     0
102
RTVSPropertyOp12
 70
     0
102
RTVSPropertyOp13
 70
     0
102
RTVSPropertyOp14
 70
     2
102
RTVSPropertyOp15
 70
     0
102
RTVSPropertyOp16
 70
     0
102
RTVSPropertyOp17
 70
     0
102
RTVSPropertyOp18
 70
     0
102
RTVSPropertyOp19
 70
     0
102
RTVSPropertyOp20
 70
     0
102
RTVSPropertyOp21
 70
     0
102
RTVSPropertyOp22
 70
     0
102
RTVSPropertyOp23
 70
     0
102
RTVSPropertyOp24
 70
     0
102
RTVSPropertyOp25
 70
     0
102
RTVSPropertyOp26
 70
     0
102
RTVSPropertyOp27
 70
     0
102
RTVSPropertyOp28
 70
     1
102
RTVSPropertyOp29
 70
     1
102
RTVSPropertyOp30
 70
     1
102
RTVSPropertyOp31
 70
     1
102
RTVSPropertyOp32
 70
     1
102
RTVSPropertyOp33
 70
     1
102
RTVSPropertyOp34
 70
     1
102
RTVSPropertyOp35
 70
     1
102
RTVSPropertyOp36
 70
     1
102
RTVSPropertyOp37
 70
     1
102
RTVSPropertyOp38
 70
     1
102
RTVSPropertyOp39
 70
     1
102
RTVSPropertyOp40
 70
     1
102
RTVSPropertyOp41
 70
     1
102
RTVSPropertyOp42
 70
     1
102
RTVSPropertyOp43
 70
     1
102
RTVSPropertyOp44
 70
     1
102
RTVSPropertyOp45
 70
     1
102
RTVSPropertyOp46
 70
     1
102
RTVSPropertyOp47
 70
     1
102
RTVSPropertyOp48
 70
     1
102
RTVSPropertyOp49
 70
     1
102
RTVSPropertyOp50
 70
     1
102
RTVSPropertyOp51
 70
     0
102
RTVSPropertyOp52
 70
     0
102
RTVSPropertyOp53
 70
     1
102
RTVSPropertyOp54
 70
     1
102
RTVSPropertyOp55
 70
     1
102
RTVSPropertyOp56
 70
     1
102
RTVSPropertyOp57
 70
     1
102
RTVSPropertyOp58
 70
     1
102
RTVSPropertyOp59
 70
     1
102
RTVSPropertyOp60
 70
     1
102
RTVSPropertyOp61
 70
     1
102
RTVSPropertyOp62
 70
     1
  0
XRECORD
  5
452
102
{ACAD_REACTORS
330
451
102
}
330
451
100
AcDbXrecord
280
     1
102
RTVSPost2010Prop28
280
     0
102
RTVSPost2010PropOp28
 70
     1
102
RTVSPost2010Prop29
280
     1
102
RTVSPost2010PropOp29
 70
     1
102
RTVSPost2010Prop30
280
     1
102
RTVSPost2010PropOp30
 70
     1
102
RTVSPost2010Prop31
280
     0
102
RTVSPost2010PropOp31
 70
     1
102
RTVSPost2010Prop32
280
     0
102
RTVSPost2010PropOp32
 70
     1
102
RTVSPost2010Prop33
280
     0
102
RTVSPost2010PropOp33
 70
     1
102
RTVSPost2010Prop34
280
     0
102
RTVSPost2010PropOp34
 70
     1
102
RTVSPost2010Prop35
280
     0
102
RTVSPost2010PropOp35
 70
     1
102
RTVSPost2010Prop36
280
     0
102
RTVSPost2010PropOp36
 70
     1
102
RTVSPost2010Prop37
 90
       50
102
RTVSPost2010PropOp37
 70
     1
102
RTVSPost2010Prop38
140
0.0
102
RTVSPost2010PropOp38
 70
     1
102
RTVSPost2010Prop39
140
1.0
102
RTVSPost2010PropOp39
 70
     1
102
RTVSPost2010Prop40
 90
        0
102
RTVSPost2010PropOp40
 70
     1
102
RTVSPost2010Prop41ColorIndex
 90
       18
102
RTVSPost2010Prop41ColorRGB
 90
        0
102
RTVSPost2010PropOp41
 70
     1
102
RTVSPost2010Prop42
 90
       50
102
RTVSPost2010PropOp42
 70
     1
102
RTVSPost2010Prop43
 90
        3
102
RTVSPost2010PropOp43
 70
     1
102
RTVSPost2010Prop44ColorIndex
 90
        5
102
RTVSPost2010Prop44ColorRGB
 90
      255
102
RTVSPost2010PropOp44
 70
     1
102
RTVSPost2010Prop45
280
     0
102
RTVSPost2010PropOp45
 70
     1
102
RTVSPost2010Prop46
 90
       50
102
RTVSPost2010PropOp46
 70
     1
102
RTVSPost2010Prop47
 90
       50
102
RTVSPost2010PropOp47
 70
     1
102
RTVSPost2010Prop48
 90
       50
102
RTVSPost2010PropOp48
 70
     1
102
RTVSPost2010Prop49
280
     0
102
RTVSPost2010PropOp49
 70
     1
102
RTVSPost2010Prop50
 90
       50
102
RTVSPost2010PropOp50
 70
     1
102
RTVSPost2010Prop51ColorIndex
 90
      256
102
RTVSPost2010Prop51ColorRGB
 90
-16777216
102
RTVSPost2010PropOp51
 70
     0
102
RTVSPost2010Prop52
140
1.0
102
RTVSPost2010PropOp52
 70
     0
102
RTVSPost2010Prop53
 90
        2
102
RTVSPost2010PropOp53
 70
     1
102
RTVSPost2010Prop54
  1
strokes_ogs.tif
102
RTVSPost2010PropOp54
 70
     1
102
RTVSPost2010Prop55
280
     0
102
RTVSPost2010PropOp55
 70
     1
102
RTVSPost2010Prop56
140
1.0
102
RTVSPost2010PropOp56
 70
     1
102
RTVSPost2010Prop57
140
1.0
102
RTVSPost2010PropOp57
 70
     1
102
RTVSPropertyOp0
 70
     1
102
RTVSPropertyOp1
 70
     1
102
RTVSPropertyOp2
 70
     1
102
RTVSPropertyOp3
 70
     1
102
RTVSPropertyOp4
 70
     1
102
RTVSPropertyOp5
 70
     1
102
RTVSPropertyOp6
 70
     1
102
RTVSPropertyOp7
 70
     1
102
RTVSPropertyOp8
 70
     1
102
RTVSPropertyOp9
 70
     1
102
RTVSPropertyOp10
 70
     1
102
RTVSPropertyOp11
 70
     1
102
RTVSPropertyOp12
 70
     1
102
RTVSPropertyOp13
 70
     1
102
RTVSPropertyOp14
 70
     1
102
RTVSPropertyOp15
 70
     1
102
RTVSPropertyOp16
 70
     1
102
RTVSPropertyOp17
 70
     1
102
RTVSPropertyOp18
 70
     1
102
RTVSPropertyOp19
 70
     1
102
RTVSPropertyOp20
 70
     1
102
RTVSPropertyOp21
 70
     1
102
RTVSPropertyOp22
 70
     1
102
RTVSPropertyOp23
 70
     1
102
RTVSPropertyOp24
 70
     1
102
RTVSPropertyOp25
 70
     1
102
RTVSPropertyOp26
 70
     1
102
RTVSPropertyOp27
 70
     1
102
RTVSPropertyOp28
 70
     1
102
RTVSPropertyOp29
 70
     1
102
RTVSPropertyOp30
 70
     1
102
RTVSPropertyOp31
 70
     1
102
RTVSPropertyOp32
 70
     1
102
RTVSPropertyOp33
 70
     1
102
RTVSPropertyOp34
 70
     1
102
RTVSPropertyOp35
 70
     1
102
RTVSPropertyOp36
 70
     1
102
RTVSPropertyOp37
 70
     1
102
RTVSPropertyOp38
 70
     1
102
RTVSPropertyOp39
 70
     1
102
RTVSPropertyOp40
 70
     1
102
RTVSPropertyOp41
 70
     1
102
RTVSPropertyOp42
 70
     1
102
RTVSPropertyOp43
 70
     1
102
RTVSPropertyOp44
 70
     1
102
RTVSPropertyOp45
 70
     1
102
RTVSPropertyOp46
 70
     1
102
RTVSPropertyOp47
 70
     1
102
RTVSPropertyOp48
 70
     1
102
RTVSPropertyOp49
 70
     1
102
RTVSPropertyOp50
 70
     1
102
RTVSPropertyOp51
 70
     0
102
RTVSPropertyOp52
 70
     0
102
RTVSPropertyOp53
 70
     1
102
RTVSPropertyOp54
 70
     1
102
RTVSPropertyOp55
 70
     1
102
RTVSPropertyOp56
 70
     1
102
RTVSPropertyOp57
 70
     1
102
RTVSPropertyOp58
 70
     1
102
RTVSPropertyOp59
 70
     1
102
RTVSPropertyOp60
 70
     1
102
RTVSPropertyOp61
 70
     1
102
RTVSPropertyOp62
 70
     1
  0
XRECORD
  5
436
102
{ACAD_REACTORS
330
435
102
}
330
435
100
AcDbXrecord
280
     1
102
RTVSPost2010Prop28
280
     0
102
RTVSPost2010PropOp28
 70
     1
102
RTVSPost2010Prop29
280
     1
102
RTVSPost2010PropOp29
 70
     1
102
RTVSPost2010Prop30
280
     1
102
RTVSPost2010PropOp30
 70
     1
102
RTVSPost2010Prop31
280
     0
102
RTVSPost2010PropOp31
 70
     1
102
RTVSPost2010Prop32
280
     0
102
RTVSPost2010PropOp32
 70
     1
102
RTVSPost2010Prop33
280
     0
102
RTVSPost2010PropOp33
 70
     1
102
RTVSPost2010Prop34
280
     0
102
RTVSPost2010PropOp34
 70
     1
102
RTVSPost2010Prop35
280
     0
102
RTVSPost2010PropOp35
 70
     1
102
RTVSPost2010Prop36
280
     0
102
RTVSPost2010PropOp36
 70
     1
102
RTVSPost2010Prop37
 90
       50
102
RTVSPost2010PropOp37
 70
     1
102
RTVSPost2010Prop38
140
0.0
102
RTVSPost2010PropOp38
 70
     1
102
RTVSPost2010Prop39
140
1.0
102
RTVSPost2010PropOp39
 70
     1
102
RTVSPost2010Prop40
 90
        0
102
RTVSPost2010PropOp40
 70
     1
102
RTVSPost2010Prop41ColorIndex
 90
       18
102
RTVSPost2010Prop41ColorRGB
 90
        0
102
RTVSPost2010PropOp41
 70
     1
102
RTVSPost2010Prop42
 90
       50
102
RTVSPost2010PropOp42
 70
     1
102
RTVSPost2010Prop43
 90
        3
102
RTVSPost2010PropOp43
 70
     1
102
RTVSPost2010Prop44ColorIndex
 90
        5
102
RTVSPost2010Prop44ColorRGB
 90
      255
102
RTVSPost2010PropOp44
 70
     1
102
RTVSPost2010Prop45
280
     0
102
RTVSPost2010PropOp45
 70
     1
102
RTVSPost2010Prop46
 90
       50
102
RTVSPost2010PropOp46
 70
     1
102
RTVSPost2010Prop47
 90
       50
102
RTVSPost2010PropOp47
 70
     1
102
RTVSPost2010Prop48
 90
       50
102
RTVSPost2010PropOp48
 70
     1
102
RTVSPost2010Prop49
280
     0
102
RTVSPost2010PropOp49
 70
     1
102
RTVSPost2010Prop50
 90
       50
102
RTVSPost2010PropOp50
 70
     1
102
RTVSPost2010Prop51ColorIndex
 90
      256
102
RTVSPost2010Prop51ColorRGB
 90
-16777216
102
RTVSPost2010PropOp51
 70
     0
102
RTVSPost2010Prop52
140
1.0
102
RTVSPost2010PropOp52
 70
     0
102
RTVSPost2010Prop53
 90
        2
102
RTVSPost2010PropOp53
 70
     1
102
RTVSPost2010Prop54
  1
strokes_ogs.tif
102
RTVSPost2010PropOp54
 70
     1
102
RTVSPost2010Prop55
280
     0
102
RTVSPost2010PropOp55
 70
     1
102
RTVSPost2010Prop56
140
1.0
102
RTVSPost2010PropOp56
 70
     1
102
RTVSPost2010Prop57
140
1.0
102
RTVSPost2010PropOp57
 70
     1
102
RTVSPropertyOp0
 70
     1
102
RTVSPropertyOp1
 70
     1
102
RTVSPropertyOp2
 70
     1
102
RTVSPropertyOp3
 70
     1
102
RTVSPropertyOp4
 70
     1
102
RTVSPropertyOp5
 70
     1
102
RTVSPropertyOp6
 70
     1
102
RTVSPropertyOp7
 70
     1
102
RTVSPropertyOp8
 70
     1
102
RTVSPropertyOp9
 70
     1
102
RTVSPropertyOp10
 70
     1
102
RTVSPropertyOp11
 70
     1
102
RTVSPropertyOp12
 70
     1
102
RTVSPropertyOp13
 70
     1
102
RTVSPropertyOp14
 70
     1
102
RTVSPropertyOp15
 70
     1
102
RTVSPropertyOp16
 70
     1
102
RTVSPropertyOp17
 70
     1
102
RTVSPropertyOp18
 70
     1
102
RTVSPropertyOp19
 70
     1
102
RTVSPropertyOp20
 70
     1
102
RTVSPropertyOp21
 70
     1
102
RTVSPropertyOp22
 70
     1
102
RTVSPropertyOp23
 70
     1
102
RTVSPropertyOp24
 70
     1
102
RTVSPropertyOp25
 70
     1
102
RTVSPropertyOp26
 70
     1
102
RTVSPropertyOp27
 70
     1
102
RTVSPropertyOp28
 70
     1
102
RTVSPropertyOp29
 70
     1
102
RTVSPropertyOp30
 70
     1
102
RTVSPropertyOp31
 70
     1
102
RTVSPropertyOp32
 70
     1
102
RTVSPropertyOp33
 70
     1
102
RTVSPropertyOp34
 70
     1
102
RTVSPropertyOp35
 70
     1
102
RTVSPropertyOp36
 70
     1
102
RTVSPropertyOp37
 70
     1
102
RTVSPropertyOp38
 70
     1
102
RTVSPropertyOp39
 70
     1
102
RTVSPropertyOp40
 70
     1
102
RTVSPropertyOp41
 70
     1
102
RTVSPropertyOp42
 70
     1
102
RTVSPropertyOp43
 70
     1
102
RTVSPropertyOp44
 70
     1
102
RTVSPropertyOp45
 70
     1
102
RTVSPropertyOp46
 70
     1
102
RTVSPropertyOp47
 70
     1
102
RTVSPropertyOp48
 70
     1
102
RTVSPropertyOp49
 70
     1
102
RTVSPropertyOp50
 70
     1
102
RTVSPropertyOp51
 70
     0
102
RTVSPropertyOp52
 70
     0
102
RTVSPropertyOp53
 70
     1
102
RTVSPropertyOp54
 70
     1
102
RTVSPropertyOp55
 70
     1
102
RTVSPropertyOp56
 70
     1
102
RTVSPropertyOp57
 70
     1
102
RTVSPropertyOp58
 70
     1
102
RTVSPropertyOp59
 70
     1
102
RTVSPropertyOp60
 70
     1
102
RTVSPropertyOp61
 70
     1
102
RTVSPropertyOp62
 70
     1
  0
XRECORD
  5
438
102
{ACAD_REACTORS
330
437
102
}
330
437
100
AcDbXrecord
280
     1
102
RTVSPost2010Prop28
280
     0
102
RTVSPost2010PropOp28
 70
     1
102
RTVSPost2010Prop29
280
     1
102
RTVSPost2010PropOp29
 70
     1
102
RTVSPost2010Prop30
280
     1
102
RTVSPost2010PropOp30
 70
     1
102
RTVSPost2010Prop31
280
     0
102
RTVSPost2010PropOp31
 70
     1
102
RTVSPost2010Prop32
280
     0
102
RTVSPost2010PropOp32
 70
     1
102
RTVSPost2010Prop33
280
     0
102
RTVSPost2010PropOp33
 70
     1
102
RTVSPost2010Prop34
280
     0
102
RTVSPost2010PropOp34
 70
     1
102
RTVSPost2010Prop35
280
     0
102
RTVSPost2010PropOp35
 70
     1
102
RTVSPost2010Prop36
280
     0
102
RTVSPost2010PropOp36
 70
     1
102
RTVSPost2010Prop37
 90
       50
102
RTVSPost2010PropOp37
 70
     1
102
RTVSPost2010Prop38
140
0.0
102
RTVSPost2010PropOp38
 70
     1
102
RTVSPost2010Prop39
140
1.0
102
RTVSPost2010PropOp39
 70
     1
102
RTVSPost2010Prop40
 90
        0
102
RTVSPost2010PropOp40
 70
     1
102
RTVSPost2010Prop41ColorIndex
 90
       18
102
RTVSPost2010Prop41ColorRGB
 90
        0
102
RTVSPost2010PropOp41
 70
     1
102
RTVSPost2010Prop42
 90
       50
102
RTVSPost2010PropOp42
 70
     1
102
RTVSPost2010Prop43
 90
        3
102
RTVSPost2010PropOp43
 70
     1
102
RTVSPost2010Prop44ColorIndex
 90
        5
102
RTVSPost2010Prop44ColorRGB
 90
      255
102
RTVSPost2010PropOp44
 70
     1
102
RTVSPost2010Prop45
280
     0
102
RTVSPost2010PropOp45
 70
     1
102
RTVSPost2010Prop46
 90
       50
102
RTVSPost2010PropOp46
 70
     1
102
RTVSPost2010Prop47
 90
       50
102
RTVSPost2010PropOp47
 70
     1
102
RTVSPost2010Prop48
 90
       50
102
RTVSPost2010PropOp48
 70
     1
102
RTVSPost2010Prop49
280
     0
102
RTVSPost2010PropOp49
 70
     1
102
RTVSPost2010Prop50
 90
       50
102
RTVSPost2010PropOp50
 70
     1
102
RTVSPost2010Prop51ColorIndex
 90
      256
102
RTVSPost2010Prop51ColorRGB
 90
-16777216
102
RTVSPost2010PropOp51
 70
     0
102
RTVSPost2010Prop52
140
1.0
102
RTVSPost2010PropOp52
 70
     0
102
RTVSPost2010Prop53
 90
        2
102
RTVSPost2010PropOp53
 70
     1
102
RTVSPost2010Prop54
  1
strokes_ogs.tif
102
RTVSPost2010PropOp54
 70
     1
102
RTVSPost2010Prop55
280
     0
102
RTVSPost2010PropOp55
 70
     1
102
RTVSPost2010Prop56
140
1.0
102
RTVSPost2010PropOp56
 70
     1
102
RTVSPost2010Prop57
140
1.0
102
RTVSPost2010PropOp57
 70
     1
102
RTVSPropertyOp0
 70
     1
102
RTVSPropertyOp1
 70
     1
102
RTVSPropertyOp2
 70
     1
102
RTVSPropertyOp3
 70
     1
102
RTVSPropertyOp4
 70
     1
102
RTVSPropertyOp5
 70
     1
102
RTVSPropertyOp6
 70
     1
102
RTVSPropertyOp7
 70
     1
102
RTVSPropertyOp8
 70
     1
102
RTVSPropertyOp9
 70
     1
102
RTVSPropertyOp10
 70
     1
102
RTVSPropertyOp11
 70
     1
102
RTVSPropertyOp12
 70
     1
102
RTVSPropertyOp13
 70
     1
102
RTVSPropertyOp14
 70
     1
102
RTVSPropertyOp15
 70
     1
102
RTVSPropertyOp16
 70
     1
102
RTVSPropertyOp17
 70
     1
102
RTVSPropertyOp18
 70
     1
102
RTVSPropertyOp19
 70
     1
102
RTVSPropertyOp20
 70
     1
102
RTVSPropertyOp21
 70
     1
102
RTVSPropertyOp22
 70
     1
102
RTVSPropertyOp23
 70
     1
102
RTVSPropertyOp24
 70
     1
102
RTVSPropertyOp25
 70
     1
102
RTVSPropertyOp26
 70
     1
102
RTVSPropertyOp27
 70
     1
102
RTVSPropertyOp28
 70
     1
102
RTVSPropertyOp29
 70
     1
102
RTVSPropertyOp30
 70
     1
102
RTVSPropertyOp31
 70
     1
102
RTVSPropertyOp32
 70
     1
102
RTVSPropertyOp33
 70
     1
102
RTVSPropertyOp34
 70
     1
102
RTVSPropertyOp35
 70
     1
102
RTVSPropertyOp36
 70
     1
102
RTVSPropertyOp37
 70
     1
102
RTVSPropertyOp38
 70
     1
102
RTVSPropertyOp39
 70
     1
102
RTVSPropertyOp40
 70
     1
102
RTVSPropertyOp41
 70
     1
102
RTVSPropertyOp42
 70
     1
102
RTVSPropertyOp43
 70
     1
102
RTVSPropertyOp44
 70
     1
102
RTVSPropertyOp45
 70
     1
102
RTVSPropertyOp46
 70
     1
102
RTVSPropertyOp47
 70
     1
102
RTVSPropertyOp48
 70
     1
102
RTVSPropertyOp49
 70
     1
102
RTVSPropertyOp50
 70
     1
102
RTVSPropertyOp51
 70
     0
102
RTVSPropertyOp52
 70
     0
102
RTVSPropertyOp53
 70
     1
102
RTVSPropertyOp54
 70
     1
102
RTVSPropertyOp55
 70
     1
102
RTVSPropertyOp56
 70
     1
102
RTVSPropertyOp57
 70
     1
102
RTVSPropertyOp58
 70
     1
102
RTVSPropertyOp59
 70
     1
102
RTVSPropertyOp60
 70
     1
102
RTVSPropertyOp61
 70
     1
102
RTVSPropertyOp62
 70
     1
  0
XRECORD
  5
43A
102
{ACAD_REACTORS
330
439
102
}
330
439
100
AcDbXrecord
280
     1
102
RTVSPost2010Prop28
280
     0
102
RTVSPost2010PropOp28
 70
     1
102
RTVSPost2010Prop29
280
     1
102
RTVSPost2010PropOp29
 70
     1
102
RTVSPost2010Prop30
280
     1
102
RTVSPost2010PropOp30
 70
     1
102
RTVSPost2010Prop31
280
     0
102
RTVSPost2010PropOp31
 70
     1
102
RTVSPost2010Prop32
280
     0
102
RTVSPost2010PropOp32
 70
     1
102
RTVSPost2010Prop33
280
     0
102
RTVSPost2010PropOp33
 70
     1
102
RTVSPost2010Prop34
280
     0
102
RTVSPost2010PropOp34
 70
     1
102
RTVSPost2010Prop35
280
     0
102
RTVSPost2010PropOp35
 70
     1
102
RTVSPost2010Prop36
280
     0
102
RTVSPost2010PropOp36
 70
     1
102
RTVSPost2010Prop37
 90
       50
102
RTVSPost2010PropOp37
 70
     1
102
RTVSPost2010Prop38
140
0.0
102
RTVSPost2010PropOp38
 70
     1
102
RTVSPost2010Prop39
140
1.0
102
RTVSPost2010PropOp39
 70
     1
102
RTVSPost2010Prop40
 90
        0
102
RTVSPost2010PropOp40
 70
     1
102
RTVSPost2010Prop41ColorIndex
 90
       18
102
RTVSPost2010Prop41ColorRGB
 90
        0
102
RTVSPost2010PropOp41
 70
     1
102
RTVSPost2010Prop42
 90
       50
102
RTVSPost2010PropOp42
 70
     1
102
RTVSPost2010Prop43
 90
        3
102
RTVSPost2010PropOp43
 70
     1
102
RTVSPost2010Prop44ColorIndex
 90
        5
102
RTVSPost2010Prop44ColorRGB
 90
      255
102
RTVSPost2010PropOp44
 70
     1
102
RTVSPost2010Prop45
280
     0
102
RTVSPost2010PropOp45
 70
     1
102
RTVSPost2010Prop46
 90
       50
102
RTVSPost2010PropOp46
 70
     1
102
RTVSPost2010Prop47
 90
       50
102
RTVSPost2010PropOp47
 70
     1
102
RTVSPost2010Prop48
 90
       50
102
RTVSPost2010PropOp48
 70
     1
102
RTVSPost2010Prop49
280
     0
102
RTVSPost2010PropOp49
 70
     1
102
RTVSPost2010Prop50
 90
       50
102
RTVSPost2010PropOp50
 70
     1
102
RTVSPost2010Prop51ColorIndex
 90
      256
102
RTVSPost2010Prop51ColorRGB
 90
-16777216
102
RTVSPost2010PropOp51
 70
     0
102
RTVSPost2010Prop52
140
1.0
102
RTVSPost2010PropOp52
 70
     0
102
RTVSPost2010Prop53
 90
        2
102
RTVSPost2010PropOp53
 70
     1
102
RTVSPost2010Prop54
  1
strokes_ogs.tif
102
RTVSPost2010PropOp54
 70
     1
102
RTVSPost2010Prop55
280
     0
102
RTVSPost2010PropOp55
 70
     1
102
RTVSPost2010Prop56
140
1.0
102
RTVSPost2010PropOp56
 70
     1
102
RTVSPost2010Prop57
140
1.0
102
RTVSPost2010PropOp57
 70
     1
102
RTVSPropertyOp0
 70
     1
102
RTVSPropertyOp1
 70
     1
102
RTVSPropertyOp2
 70
     1
102
RTVSPropertyOp3
 70
     1
102
RTVSPropertyOp4
 70
     1
102
RTVSPropertyOp5
 70
     1
102
RTVSPropertyOp6
 70
     1
102
RTVSPropertyOp7
 70
     1
102
RTVSPropertyOp8
 70
     1
102
RTVSPropertyOp9
 70
     1
102
RTVSPropertyOp10
 70
     1
102
RTVSPropertyOp11
 70
     1
102
RTVSPropertyOp12
 70
     1
102
RTVSPropertyOp13
 70
     1
102
RTVSPropertyOp14
 70
     1
102
RTVSPropertyOp15
 70
     1
102
RTVSPropertyOp16
 70
     1
102
RTVSPropertyOp17
 70
     1
102
RTVSPropertyOp18
 70
     1
102
RTVSPropertyOp19
 70
     1
102
RTVSPropertyOp20
 70
     1
102
RTVSPropertyOp21
 70
     1
102
RTVSPropertyOp22
 70
     1
102
RTVSPropertyOp23
 70
     1
102
RTVSPropertyOp24
 70
     1
102
RTVSPropertyOp25
 70
     1
102
RTVSPropertyOp26
 70
     1
102
RTVSPropertyOp27
 70
     1
102
RTVSPropertyOp28
 70
     1
102
RTVSPropertyOp29
 70
     1
102
RTVSPropertyOp30
 70
     1
102
RTVSPropertyOp31
 70
     1
102
RTVSPropertyOp32
 70
     1
102
RTVSPropertyOp33
 70
     1
102
RTVSPropertyOp34
 70
     1
102
RTVSPropertyOp35
 70
     1
102
RTVSPropertyOp36
 70
     1
102
RTVSPropertyOp37
 70
     1
102
RTVSPropertyOp38
 70
     1
102
RTVSPropertyOp39
 70
     1
102
RTVSPropertyOp40
 70
     1
102
RTVSPropertyOp41
 70
     1
102
RTVSPropertyOp42
 70
     1
102
RTVSPropertyOp43
 70
     1
102
RTVSPropertyOp44
 70
     1
102
RTVSPropertyOp45
 70
     1
102
RTVSPropertyOp46
 70
     1
102
RTVSPropertyOp47
 70
     1
102
RTVSPropertyOp48
 70
     1
102
RTVSPropertyOp49
 70
     1
102
RTVSPropertyOp50
 70
     1
102
RTVSPropertyOp51
 70
     0
102
RTVSPropertyOp52
 70
     0
102
RTVSPropertyOp53
 70
     1
102
RTVSPropertyOp54
 70
     1
102
RTVSPropertyOp55
 70
     1
102
RTVSPropertyOp56
 70
     1
102
RTVSPropertyOp57
 70
     1
102
RTVSPropertyOp58
 70
     1
102
RTVSPropertyOp59
 70
     1
102
RTVSPropertyOp60
 70
     1
102
RTVSPropertyOp61
 70
     1
102
RTVSPropertyOp62
 70
     1
  0
XRECORD
  5
43C
102
{ACAD_REACTORS
330
43B
102
}
330
43B
100
AcDbXrecord
280
     1
102
RTVSPost2010Prop28
280
     0
102
RTVSPost2010PropOp28
 70
     1
102
RTVSPost2010Prop29
280
     1
102
RTVSPost2010PropOp29
 70
     1
102
RTVSPost2010Prop30
280
     1
102
RTVSPost2010PropOp30
 70
     1
102
RTVSPost2010Prop31
280
     0
102
RTVSPost2010PropOp31
 70
     1
102
RTVSPost2010Prop32
280
     0
102
RTVSPost2010PropOp32
 70
     1
102
RTVSPost2010Prop33
280
     0
102
RTVSPost2010PropOp33
 70
     1
102
RTVSPost2010Prop34
280
     0
102
RTVSPost2010PropOp34
 70
     1
102
RTVSPost2010Prop35
280
     0
102
RTVSPost2010PropOp35
 70
     1
102
RTVSPost2010Prop36
280
     0
102
RTVSPost2010PropOp36
 70
     1
102
RTVSPost2010Prop37
 90
       50
102
RTVSPost2010PropOp37
 70
     1
102
RTVSPost2010Prop38
140
0.0
102
RTVSPost2010PropOp38
 70
     1
102
RTVSPost2010Prop39
140
1.0
102
RTVSPost2010PropOp39
 70
     1
102
RTVSPost2010Prop40
 90
        0
102
RTVSPost2010PropOp40
 70
     1
102
RTVSPost2010Prop41ColorIndex
 90
       18
102
RTVSPost2010Prop41ColorRGB
 90
        0
102
RTVSPost2010PropOp41
 70
     1
102
RTVSPost2010Prop42
 90
       50
102
RTVSPost2010PropOp42
 70
     1
102
RTVSPost2010Prop43
 90
        3
102
RTVSPost2010PropOp43
 70
     1
102
RTVSPost2010Prop44ColorIndex
 90
        5
102
RTVSPost2010Prop44ColorRGB
 90
      255
102
RTVSPost2010PropOp44
 70
     1
102
RTVSPost2010Prop45
280
     0
102
RTVSPost2010PropOp45
 70
     1
102
RTVSPost2010Prop46
 90
       50
102
RTVSPost2010PropOp46
 70
     1
102
RTVSPost2010Prop47
 90
       50
102
RTVSPost2010PropOp47
 70
     1
102
RTVSPost2010Prop48
 90
       50
102
RTVSPost2010PropOp48
 70
     1
102
RTVSPost2010Prop49
280
     0
102
RTVSPost2010PropOp49
 70
     1
102
RTVSPost2010Prop50
 90
       50
102
RTVSPost2010PropOp50
 70
     1
102
RTVSPost2010Prop51ColorIndex
 90
      256
102
RTVSPost2010Prop51ColorRGB
 90
-16777216
102
RTVSPost2010PropOp51
 70
     0
102
RTVSPost2010Prop52
140
1.0
102
RTVSPost2010PropOp52
 70
     0
102
RTVSPost2010Prop53
 90
        2
102
RTVSPost2010PropOp53
 70
     1
102
RTVSPost2010Prop54
  1
strokes_ogs.tif
102
RTVSPost2010PropOp54
 70
     1
102
RTVSPost2010Prop55
280
     0
102
RTVSPost2010PropOp55
 70
     1
102
RTVSPost2010Prop56
140
1.0
102
RTVSPost2010PropOp56
 70
     1
102
RTVSPost2010Prop57
140
1.0
102
RTVSPost2010PropOp57
 70
     1
102
RTVSPropertyOp0
 70
     1
102
RTVSPropertyOp1
 70
     1
102
RTVSPropertyOp2
 70
     1
102
RTVSPropertyOp3
 70
     1
102
RTVSPropertyOp4
 70
     1
102
RTVSPropertyOp5
 70
     1
102
RTVSPropertyOp6
 70
     1
102
RTVSPropertyOp7
 70
     1
102
RTVSPropertyOp8
 70
     1
102
RTVSPropertyOp9
 70
     1
102
RTVSPropertyOp10
 70
     1
102
RTVSPropertyOp11
 70
     1
102
RTVSPropertyOp12
 70
     1
102
RTVSPropertyOp13
 70
     1
102
RTVSPropertyOp14
 70
     1
102
RTVSPropertyOp15
 70
     1
102
RTVSPropertyOp16
 70
     1
102
RTVSPropertyOp17
 70
     1
102
RTVSPropertyOp18
 70
     1
102
RTVSPropertyOp19
 70
     1
102
RTVSPropertyOp20
 70
     1
102
RTVSPropertyOp21
 70
     1
102
RTVSPropertyOp22
 70
     1
102
RTVSPropertyOp23
 70
     1
102
RTVSPropertyOp24
 70
     1
102
RTVSPropertyOp25
 70
     1
102
RTVSPropertyOp26
 70
     1
102
RTVSPropertyOp27
 70
     1
102
RTVSPropertyOp28
 70
     1
102
RTVSPropertyOp29
 70
     1
102
RTVSPropertyOp30
 70
     1
102
RTVSPropertyOp31
 70
     1
102
RTVSPropertyOp32
 70
     1
102
RTVSPropertyOp33
 70
     1
102
RTVSPropertyOp34
 70
     1
102
RTVSPropertyOp35
 70
     1
102
RTVSPropertyOp36
 70
     1
102
RTVSPropertyOp37
 70
     1
102
RTVSPropertyOp38
 70
     1
102
RTVSPropertyOp39
 70
     1
102
RTVSPropertyOp40
 70
     1
102
RTVSPropertyOp41
 70
     1
102
RTVSPropertyOp42
 70
     1
102
RTVSPropertyOp43
 70
     1
102
RTVSPropertyOp44
 70
     1
102
RTVSPropertyOp45
 70
     1
102
RTVSPropertyOp46
 70
     1
102
RTVSPropertyOp47
 70
     1
102
RTVSPropertyOp48
 70
     1
102
RTVSPropertyOp49
 70
     1
102
RTVSPropertyOp50
 70
     1
102
RTVSPropertyOp51
 70
     0
102
RTVSPropertyOp52
 70
     0
102
RTVSPropertyOp53
 70
     1
102
RTVSPropertyOp54
 70
     1
102
RTVSPropertyOp55
 70
     1
102
RTVSPropertyOp56
 70
     1
102
RTVSPropertyOp57
 70
     1
102
RTVSPropertyOp58
 70
     1
102
RTVSPropertyOp59
 70
     1
102
RTVSPropertyOp60
 70
     1
102
RTVSPropertyOp61
 70
     1
102
RTVSPropertyOp62
 70
     1
  0
XRECORD
  5
444
102
{ACAD_REACTORS
330
443
102
}
330
443
100
AcDbXrecord
280
     1
102
RTVSPost2010Prop28
280
     0
102
RTVSPost2010PropOp28
 70
     1
102
RTVSPost2010Prop29
280
     1
102
RTVSPost2010PropOp29
 70
     1
102
RTVSPost2010Prop30
280
     1
102
RTVSPost2010PropOp30
 70
     1
102
RTVSPost2010Prop31
280
     0
102
RTVSPost2010PropOp31
 70
     1
102
RTVSPost2010Prop32
280
     0
102
RTVSPost2010PropOp32
 70
     1
102
RTVSPost2010Prop33
280
     0
102
RTVSPost2010PropOp33
 70
     1
102
RTVSPost2010Prop34
280
     0
102
RTVSPost2010PropOp34
 70
     1
102
RTVSPost2010Prop35
280
     0
102
RTVSPost2010PropOp35
 70
     1
102
RTVSPost2010Prop36
280
     0
102
RTVSPost2010PropOp36
 70
     1
102
RTVSPost2010Prop37
 90
       50
102
RTVSPost2010PropOp37
 70
     1
102
RTVSPost2010Prop38
140
0.0
102
RTVSPost2010PropOp38
 70
     1
102
RTVSPost2010Prop39
140
1.0
102
RTVSPost2010PropOp39
 70
     1
102
RTVSPost2010Prop40
 90
        0
102
RTVSPost2010PropOp40
 70
     1
102
RTVSPost2010Prop41ColorIndex
 90
       18
102
RTVSPost2010Prop41ColorRGB
 90
        0
102
RTVSPost2010PropOp41
 70
     1
102
RTVSPost2010Prop42
 90
       50
102
RTVSPost2010PropOp42
 70
     1
102
RTVSPost2010Prop43
 90
        3
102
RTVSPost2010PropOp43
 70
     1
102
RTVSPost2010Prop44ColorIndex
 90
        5
102
RTVSPost2010Prop44ColorRGB
 90
      255
102
RTVSPost2010PropOp44
 70
     1
102
RTVSPost2010Prop45
280
     0
102
RTVSPost2010PropOp45
 70
     1
102
RTVSPost2010Prop46
 90
       50
102
RTVSPost2010PropOp46
 70
     1
102
RTVSPost2010Prop47
 90
       50
102
RTVSPost2010PropOp47
 70
     1
102
RTVSPost2010Prop48
 90
       50
102
RTVSPost2010PropOp48
 70
     1
102
RTVSPost2010Prop49
280
     0
102
RTVSPost2010PropOp49
 70
     1
102
RTVSPost2010Prop50
 90
       50
102
RTVSPost2010PropOp50
 70
     1
102
RTVSPost2010Prop51ColorIndex
 90
      256
102
RTVSPost2010Prop51ColorRGB
 90
-16777216
102
RTVSPost2010PropOp51
 70
     0
102
RTVSPost2010Prop52
140
1.0
102
RTVSPost2010PropOp52
 70
     0
102
RTVSPost2010Prop53
 90
        2
102
RTVSPost2010PropOp53
 70
     1
102
RTVSPost2010Prop54
  1
strokes_ogs.tif
102
RTVSPost2010PropOp54
 70
     1
102
RTVSPost2010Prop55
280
     0
102
RTVSPost2010PropOp55
 70
     1
102
RTVSPost2010Prop56
140
1.0
102
RTVSPost2010PropOp56
 70
     1
102
RTVSPost2010Prop57
140
1.0
102
RTVSPost2010PropOp57
 70
     1
102
RTVSPropertyOp0
 70
     1
102
RTVSPropertyOp1
 70
     1
102
RTVSPropertyOp2
 70
     1
102
RTVSPropertyOp3
 70
     1
102
RTVSPropertyOp4
 70
     1
102
RTVSPropertyOp5
 70
     1
102
RTVSPropertyOp6
 70
     1
102
RTVSPropertyOp7
 70
     1
102
RTVSPropertyOp8
 70
     1
102
RTVSPropertyOp9
 70
     1
102
RTVSPropertyOp10
 70
     1
102
RTVSPropertyOp11
 70
     1
102
RTVSPropertyOp12
 70
     1
102
RTVSPropertyOp13
 70
     1
102
RTVSPropertyOp14
 70
     1
102
RTVSPropertyOp15
 70
     1
102
RTVSPropertyOp16
 70
     1
102
RTVSPropertyOp17
 70
     1
102
RTVSPropertyOp18
 70
     1
102
RTVSPropertyOp19
 70
     1
102
RTVSPropertyOp20
 70
     1
102
RTVSPropertyOp21
 70
     1
102
RTVSPropertyOp22
 70
     1
102
RTVSPropertyOp23
 70
     1
102
RTVSPropertyOp24
 70
     1
102
RTVSPropertyOp25
 70
     1
102
RTVSPropertyOp26
 70
     1
102
RTVSPropertyOp27
 70
     1
102
RTVSPropertyOp28
 70
     1
102
RTVSPropertyOp29
 70
     1
102
RTVSPropertyOp30
 70
     1
102
RTVSPropertyOp31
 70
     1
102
RTVSPropertyOp32
 70
     1
102
RTVSPropertyOp33
 70
     1
102
RTVSPropertyOp34
 70
     1
102
RTVSPropertyOp35
 70
     1
102
RTVSPropertyOp36
 70
     1
102
RTVSPropertyOp37
 70
     1
102
RTVSPropertyOp38
 70
     1
102
RTVSPropertyOp39
 70
     1
102
RTVSPropertyOp40
 70
     1
102
RTVSPropertyOp41
 70
     1
102
RTVSPropertyOp42
 70
     1
102
RTVSPropertyOp43
 70
     1
102
RTVSPropertyOp44
 70
     1
102
RTVSPropertyOp45
 70
     1
102
RTVSPropertyOp46
 70
     1
102
RTVSPropertyOp47
 70
     1
102
RTVSPropertyOp48
 70
     1
102
RTVSPropertyOp49
 70
     1
102
RTVSPropertyOp50
 70
     1
102
RTVSPropertyOp51
 70
     0
102
RTVSPropertyOp52
 70
     0
102
RTVSPropertyOp53
 70
     1
102
RTVSPropertyOp54
 70
     1
102
RTVSPropertyOp55
 70
     1
102
RTVSPropertyOp56
 70
     1
102
RTVSPropertyOp57
 70
     1
102
RTVSPropertyOp58
 70
     1
102
RTVSPropertyOp59
 70
     1
102
RTVSPropertyOp60
 70
     1
102
RTVSPropertyOp61
 70
     1
102
RTVSPropertyOp62
 70
     1
  0
XRECORD
  5
456
102
{ACAD_REACTORS
330
455
102
}
330
455
100
AcDbXrecord
280
     1
102
RTVSPost2010Prop28
280
     0
102
RTVSPost2010PropOp28
 70
     1
102
RTVSPost2010Prop29
280
     1
102
RTVSPost2010PropOp29
 70
     1
102
RTVSPost2010Prop30
280
     1
102
RTVSPost2010PropOp30
 70
     1
102
RTVSPost2010Prop31
280
     0
102
RTVSPost2010PropOp31
 70
     1
102
RTVSPost2010Prop32
280
     0
102
RTVSPost2010PropOp32
 70
     1
102
RTVSPost2010Prop33
280
     0
102
RTVSPost2010PropOp33
 70
     1
102
RTVSPost2010Prop34
280
     0
102
RTVSPost2010PropOp34
 70
     1
102
RTVSPost2010Prop35
280
     0
102
RTVSPost2010PropOp35
 70
     1
102
RTVSPost2010Prop36
280
     0
102
RTVSPost2010PropOp36
 70
     1
102
RTVSPost2010Prop37
 90
       50
102
RTVSPost2010PropOp37
 70
     1
102
RTVSPost2010Prop38
140
0.0
102
RTVSPost2010PropOp38
 70
     1
102
RTVSPost2010Prop39
140
1.0
102
RTVSPost2010PropOp39
 70
     1
102
RTVSPost2010Prop40
 90
        0
102
RTVSPost2010PropOp40
 70
     1
102
RTVSPost2010Prop41ColorIndex
 90
       18
102
RTVSPost2010Prop41ColorRGB
 90
        0
102
RTVSPost2010PropOp41
 70
     1
102
RTVSPost2010Prop42
 90
       50
102
RTVSPost2010PropOp42
 70
     1
102
RTVSPost2010Prop43
 90
        3
102
RTVSPost2010PropOp43
 70
     1
102
RTVSPost2010Prop44ColorIndex
 90
        5
102
RTVSPost2010Prop44ColorRGB
 90
      255
102
RTVSPost2010PropOp44
 70
     1
102
RTVSPost2010Prop45
280
     0
102
RTVSPost2010PropOp45
 70
     1
102
RTVSPost2010Prop46
 90
       50
102
RTVSPost2010PropOp46
 70
     1
102
RTVSPost2010Prop47
 90
       50
102
RTVSPost2010PropOp47
 70
     1
102
RTVSPost2010Prop48
 90
       50
102
RTVSPost2010PropOp48
 70
     1
102
RTVSPost2010Prop49
280
     0
102
RTVSPost2010PropOp49
 70
     1
102
RTVSPost2010Prop50
 90
       50
102
RTVSPost2010PropOp50
 70
     1
102
RTVSPost2010Prop51ColorIndex
 90
      256
102
RTVSPost2010Prop51ColorRGB
 90
-16777216
102
RTVSPost2010PropOp51
 70
     0
102
RTVSPost2010Prop52
140
1.0
102
RTVSPost2010PropOp52
 70
     0
102
RTVSPost2010Prop53
 90
        2
102
RTVSPost2010PropOp53
 70
     1
102
RTVSPost2010Prop54
  1
strokes_ogs.tif
102
RTVSPost2010PropOp54
 70
     1
102
RTVSPost2010Prop55
280
     0
102
RTVSPost2010PropOp55
 70
     1
102
RTVSPost2010Prop56
140
1.0
102
RTVSPost2010PropOp56
 70
     1
102
RTVSPost2010Prop57
140
1.0
102
RTVSPost2010PropOp57
 70
     1
102
RTVSPropertyOp0
 70
     0
102
RTVSPropertyOp1
 70
     0
102
RTVSPropertyOp2
 70
     0
102
RTVSPropertyOp3
 70
     0
102
RTVSPropertyOp4
 70
     0
102
RTVSPropertyOp5
 70
     0
102
RTVSPropertyOp6
 70
     0
102
RTVSPropertyOp7
 70
     0
102
RTVSPropertyOp8
 70
     0
102
RTVSPropertyOp9
 70
     0
102
RTVSPropertyOp10
 70
     0
102
RTVSPropertyOp11
 70
     0
102
RTVSPropertyOp12
 70
     0
102
RTVSPropertyOp13
 70
     0
102
RTVSPropertyOp14
 70
     2
102
RTVSPropertyOp15
 70
     0
102
RTVSPropertyOp16
 70
     0
102
RTVSPropertyOp17
 70
     0
102
RTVSPropertyOp18
 70
     0
102
RTVSPropertyOp19
 70
     0
102
RTVSPropertyOp20
 70
     0
102
RTVSPropertyOp21
 70
     0
102
RTVSPropertyOp22
 70
     0
102
RTVSPropertyOp23
 70
     0
102
RTVSPropertyOp24
 70
     0
102
RTVSPropertyOp25
 70
     0
102
RTVSPropertyOp26
 70
     0
102
RTVSPropertyOp27
 70
     0
102
RTVSPropertyOp28
 70
     1
102
RTVSPropertyOp29
 70
     1
102
RTVSPropertyOp30
 70
     1
102
RTVSPropertyOp31
 70
     1
102
RTVSPropertyOp32
 70
     1
102
RTVSPropertyOp33
 70
     1
102
RTVSPropertyOp34
 70
     1
102
RTVSPropertyOp35
 70
     1
102
RTVSPropertyOp36
 70
     1
102
RTVSPropertyOp37
 70
     1
102
RTVSPropertyOp38
 70
     1
102
RTVSPropertyOp39
 70
     1
102
RTVSPropertyOp40
 70
     1
102
RTVSPropertyOp41
 70
     1
102
RTVSPropertyOp42
 70
     1
102
RTVSPropertyOp43
 70
     1
102
RTVSPropertyOp44
 70
     1
102
RTVSPropertyOp45
 70
     1
102
RTVSPropertyOp46
 70
     1
102
RTVSPropertyOp47
 70
     1
102
RTVSPropertyOp48
 70
     1
102
RTVSPropertyOp49
 70
     1
102
RTVSPropertyOp50
 70
     1
102
RTVSPropertyOp51
 70
     0
102
RTVSPropertyOp52
 70
     0
102
RTVSPropertyOp53
 70
     1
102
RTVSPropertyOp54
 70
     1
102
RTVSPropertyOp55
 70
     1
102
RTVSPropertyOp56
 70
     1
102
RTVSPropertyOp57
 70
     1
102
RTVSPropertyOp58
 70
     1
102
RTVSPropertyOp59
 70
     1
102
RTVSPropertyOp60
 70
     1
102
RTVSPropertyOp61
 70
     1
102
RTVSPropertyOp62
 70
     1
  0
XRECORD
  5
450
102
{ACAD_REACTORS
330
44F
102
}
330
44F
100
AcDbXrecord
280
     1
102
RTVSPost2010Prop28
280
     0
102
RTVSPost2010PropOp28
 70
     1
102
RTVSPost2010Prop29
280
     1
102
RTVSPost2010PropOp29
 70
     1
102
RTVSPost2010Prop30
280
     1
102
RTVSPost2010PropOp30
 70
     1
102
RTVSPost2010Prop31
280
     0
102
RTVSPost2010PropOp31
 70
     1
102
RTVSPost2010Prop32
280
     0
102
RTVSPost2010PropOp32
 70
     1
102
RTVSPost2010Prop33
280
     0
102
RTVSPost2010PropOp33
 70
     1
102
RTVSPost2010Prop34
280
     0
102
RTVSPost2010PropOp34
 70
     1
102
RTVSPost2010Prop35
280
     0
102
RTVSPost2010PropOp35
 70
     1
102
RTVSPost2010Prop36
280
     0
102
RTVSPost2010PropOp36
 70
     1
102
RTVSPost2010Prop37
 90
       50
102
RTVSPost2010PropOp37
 70
     1
102
RTVSPost2010Prop38
140
0.0
102
RTVSPost2010PropOp38
 70
     1
102
RTVSPost2010Prop39
140
1.0
102
RTVSPost2010PropOp39
 70
     1
102
RTVSPost2010Prop40
 90
        0
102
RTVSPost2010PropOp40
 70
     1
102
RTVSPost2010Prop41ColorIndex
 90
       18
102
RTVSPost2010Prop41ColorRGB
 90
        0
102
RTVSPost2010PropOp41
 70
     1
102
RTVSPost2010Prop42
 90
       50
102
RTVSPost2010PropOp42
 70
     1
102
RTVSPost2010Prop43
 90
        3
102
RTVSPost2010PropOp43
 70
     1
102
RTVSPost2010Prop44ColorIndex
 90
        5
102
RTVSPost2010Prop44ColorRGB
 90
      255
102
RTVSPost2010PropOp44
 70
     1
102
RTVSPost2010Prop45
280
     0
102
RTVSPost2010PropOp45
 70
     1
102
RTVSPost2010Prop46
 90
       50
102
RTVSPost2010PropOp46
 70
     1
102
RTVSPost2010Prop47
 90
       50
102
RTVSPost2010PropOp47
 70
     1
102
RTVSPost2010Prop48
 90
       50
102
RTVSPost2010PropOp48
 70
     1
102
RTVSPost2010Prop49
280
     0
102
RTVSPost2010PropOp49
 70
     1
102
RTVSPost2010Prop50
 90
       50
102
RTVSPost2010PropOp50
 70
     1
102
RTVSPost2010Prop51ColorIndex
 90
      256
102
RTVSPost2010Prop51ColorRGB
 90
-16777216
102
RTVSPost2010PropOp51
 70
     0
102
RTVSPost2010Prop52
140
1.0
102
RTVSPost2010PropOp52
 70
     0
102
RTVSPost2010Prop53
 90
        2
102
RTVSPost2010PropOp53
 70
     1
102
RTVSPost2010Prop54
  1
strokes_ogs.tif
102
RTVSPost2010PropOp54
 70
     1
102
RTVSPost2010Prop55
280
     0
102
RTVSPost2010PropOp55
 70
     1
102
RTVSPost2010Prop56
140
1.0
102
RTVSPost2010PropOp56
 70
     1
102
RTVSPost2010Prop57
140
1.0
102
RTVSPost2010PropOp57
 70
     1
102
RTVSPropertyOp0
 70
     1
102
RTVSPropertyOp1
 70
     1
102
RTVSPropertyOp2
 70
     1
102
RTVSPropertyOp3
 70
     1
102
RTVSPropertyOp4
 70
     1
102
RTVSPropertyOp5
 70
     1
102
RTVSPropertyOp6
 70
     1
102
RTVSPropertyOp7
 70
     1
102
RTVSPropertyOp8
 70
     1
102
RTVSPropertyOp9
 70
     1
102
RTVSPropertyOp10
 70
     1
102
RTVSPropertyOp11
 70
     1
102
RTVSPropertyOp12
 70
     1
102
RTVSPropertyOp13
 70
     1
102
RTVSPropertyOp14
 70
     1
102
RTVSPropertyOp15
 70
     1
102
RTVSPropertyOp16
 70
     1
102
RTVSPropertyOp17
 70
     1
102
RTVSPropertyOp18
 70
     1
102
RTVSPropertyOp19
 70
     1
102
RTVSPropertyOp20
 70
     1
102
RTVSPropertyOp21
 70
     1
102
RTVSPropertyOp22
 70
     1
102
RTVSPropertyOp23
 70
     1
102
RTVSPropertyOp24
 70
     1
102
RTVSPropertyOp25
 70
     1
102
RTVSPropertyOp26
 70
     1
102
RTVSPropertyOp27
 70
     1
102
RTVSPropertyOp28
 70
     1
102
RTVSPropertyOp29
 70
     1
102
RTVSPropertyOp30
 70
     1
102
RTVSPropertyOp31
 70
     1
102
RTVSPropertyOp32
 70
     1
102
RTVSPropertyOp33
 70
     1
102
RTVSPropertyOp34
 70
     1
102
RTVSPropertyOp35
 70
     1
102
RTVSPropertyOp36
 70
     1
102
RTVSPropertyOp37
 70
     1
102
RTVSPropertyOp38
 70
     1
102
RTVSPropertyOp39
 70
     1
102
RTVSPropertyOp40
 70
     1
102
RTVSPropertyOp41
 70
     1
102
RTVSPropertyOp42
 70
     1
102
RTVSPropertyOp43
 70
     1
102
RTVSPropertyOp44
 70
     1
102
RTVSPropertyOp45
 70
     1
102
RTVSPropertyOp46
 70
     1
102
RTVSPropertyOp47
 70
     1
102
RTVSPropertyOp48
 70
     1
102
RTVSPropertyOp49
 70
     1
102
RTVSPropertyOp50
 70
     1
102
RTVSPropertyOp51
 70
     0
102
RTVSPropertyOp52
 70
     0
102
RTVSPropertyOp53
 70
     1
102
RTVSPropertyOp54
 70
     1
102
RTVSPropertyOp55
 70
     1
102
RTVSPropertyOp56
 70
     1
102
RTVSPropertyOp57
 70
     1
102
RTVSPropertyOp58
 70
     1
102
RTVSPropertyOp59
 70
     1
102
RTVSPropertyOp60
 70
     1
102
RTVSPropertyOp61
 70
     1
102
RTVSPropertyOp62
 70
     1
  0
XRECORD
  5
458
102
{ACAD_REACTORS
330
457
102
}
330
457
100
AcDbXrecord
280
     1
102
RTVSPost2010Prop28
280
     0
102
RTVSPost2010PropOp28
 70
     1
102
RTVSPost2010Prop29
280
     1
102
RTVSPost2010PropOp29
 70
     1
102
RTVSPost2010Prop30
280
     1
102
RTVSPost2010PropOp30
 70
     1
102
RTVSPost2010Prop31
280
     0
102
RTVSPost2010PropOp31
 70
     1
102
RTVSPost2010Prop32
280
     0
102
RTVSPost2010PropOp32
 70
     1
102
RTVSPost2010Prop33
280
     0
102
RTVSPost2010PropOp33
 70
     1
102
RTVSPost2010Prop34
280
     0
102
RTVSPost2010PropOp34
 70
     1
102
RTVSPost2010Prop35
280
     0
102
RTVSPost2010PropOp35
 70
     1
102
RTVSPost2010Prop36
280
     0
102
RTVSPost2010PropOp36
 70
     1
102
RTVSPost2010Prop37
 90
       50
102
RTVSPost2010PropOp37
 70
     1
102
RTVSPost2010Prop38
140
0.0
102
RTVSPost2010PropOp38
 70
     1
102
RTVSPost2010Prop39
140
1.0
102
RTVSPost2010PropOp39
 70
     1
102
RTVSPost2010Prop40
 90
        0
102
RTVSPost2010PropOp40
 70
     1
102
RTVSPost2010Prop41ColorIndex
 90
       18
102
RTVSPost2010Prop41ColorRGB
 90
        0
102
RTVSPost2010PropOp41
 70
     1
102
RTVSPost2010Prop42
 90
       50
102
RTVSPost2010PropOp42
 70
     1
102
RTVSPost2010Prop43
 90
        3
102
RTVSPost2010PropOp43
 70
     1
102
RTVSPost2010Prop44ColorIndex
 90
        5
102
RTVSPost2010Prop44ColorRGB
 90
      255
102
RTVSPost2010PropOp44
 70
     1
102
RTVSPost2010Prop45
280
     0
102
RTVSPost2010PropOp45
 70
     1
102
RTVSPost2010Prop46
 90
       50
102
RTVSPost2010PropOp46
 70
     1
102
RTVSPost2010Prop47
 90
       50
102
RTVSPost2010PropOp47
 70
     1
102
RTVSPost2010Prop48
 90
       50
102
RTVSPost2010PropOp48
 70
     1
102
RTVSPost2010Prop49
280
     0
102
RTVSPost2010PropOp49
 70
     1
102
RTVSPost2010Prop50
 90
       50
102
RTVSPost2010PropOp50
 70
     1
102
RTVSPost2010Prop51ColorIndex
 90
      256
102
RTVSPost2010Prop51ColorRGB
 90
-16777216
102
RTVSPost2010PropOp51
 70
     0
102
RTVSPost2010Prop52
140
1.0
102
RTVSPost2010PropOp52
 70
     0
102
RTVSPost2010Prop53
 90
        2
102
RTVSPost2010PropOp53
 70
     1
102
RTVSPost2010Prop54
  1
strokes_ogs.tif
102
RTVSPost2010PropOp54
 70
     1
102
RTVSPost2010Prop55
280
     0
102
RTVSPost2010PropOp55
 70
     1
102
RTVSPost2010Prop56
140
1.0
102
RTVSPost2010PropOp56
 70
     1
102
RTVSPost2010Prop57
140
1.0
102
RTVSPost2010PropOp57
 70
     1
102
RTVSPropertyOp0
 70
     0
102
RTVSPropertyOp1
 70
     0
102
RTVSPropertyOp2
 70
     0
102
RTVSPropertyOp3
 70
     0
102
RTVSPropertyOp4
 70
     0
102
RTVSPropertyOp5
 70
     0
102
RTVSPropertyOp6
 70
     0
102
RTVSPropertyOp7
 70
     0
102
RTVSPropertyOp8
 70
     0
102
RTVSPropertyOp9
 70
     0
102
RTVSPropertyOp10
 70
     0
102
RTVSPropertyOp11
 70
     0
102
RTVSPropertyOp12
 70
     0
102
RTVSPropertyOp13
 70
     0
102
RTVSPropertyOp14
 70
     2
102
RTVSPropertyOp15
 70
     0
102
RTVSPropertyOp16
 70
     0
102
RTVSPropertyOp17
 70
     0
102
RTVSPropertyOp18
 70
     0
102
RTVSPropertyOp19
 70
     0
102
RTVSPropertyOp20
 70
     0
102
RTVSPropertyOp21
 70
     0
102
RTVSPropertyOp22
 70
     0
102
RTVSPropertyOp23
 70
     0
102
RTVSPropertyOp24
 70
     0
102
RTVSPropertyOp25
 70
     0
102
RTVSPropertyOp26
 70
     0
102
RTVSPropertyOp27
 70
     0
102
RTVSPropertyOp28
 70
     1
102
RTVSPropertyOp29
 70
     1
102
RTVSPropertyOp30
 70
     1
102
RTVSPropertyOp31
 70
     1
102
RTVSPropertyOp32
 70
     1
102
RTVSPropertyOp33
 70
     1
102
RTVSPropertyOp34
 70
     1
102
RTVSPropertyOp35
 70
     1
102
RTVSPropertyOp36
 70
     1
102
RTVSPropertyOp37
 70
     1
102
RTVSPropertyOp38
 70
     1
102
RTVSPropertyOp39
 70
     1
102
RTVSPropertyOp40
 70
     1
102
RTVSPropertyOp41
 70
     1
102
RTVSPropertyOp42
 70
     1
102
RTVSPropertyOp43
 70
     1
102
RTVSPropertyOp44
 70
     1
102
RTVSPropertyOp45
 70
     1
102
RTVSPropertyOp46
 70
     1
102
RTVSPropertyOp47
 70
     1
102
RTVSPropertyOp48
 70
     1
102
RTVSPropertyOp49
 70
     1
102
RTVSPropertyOp50
 70
     1
102
RTVSPropertyOp51
 70
     0
102
RTVSPropertyOp52
 70
     0
102
RTVSPropertyOp53
 70
     1
102
RTVSPropertyOp54
 70
     1
102
RTVSPropertyOp55
 70
     1
102
RTVSPropertyOp56
 70
     1
102
RTVSPropertyOp57
 70
     1
102
RTVSPropertyOp58
 70
     1
102
RTVSPropertyOp59
 70
     1
102
RTVSPropertyOp60
 70
     1
102
RTVSPropertyOp61
 70
     1
102
RTVSPropertyOp62
 70
     1
  0
XRECORD
  5
448
102
{ACAD_REACTORS
330
447
102
}
330
447
100
AcDbXrecord
280
     1
102
RTVSPost2010Prop28
280
     0
102
RTVSPost2010PropOp28
 70
     1
102
RTVSPost2010Prop29
280
     1
102
RTVSPost2010PropOp29
 70
     1
102
RTVSPost2010Prop30
280
     1
102
RTVSPost2010PropOp30
 70
     1
102
RTVSPost2010Prop31
280
     0
102
RTVSPost2010PropOp31
 70
     1
102
RTVSPost2010Prop32
280
     0
102
RTVSPost2010PropOp32
 70
     1
102
RTVSPost2010Prop33
280
     0
102
RTVSPost2010PropOp33
 70
     1
102
RTVSPost2010Prop34
280
     0
102
RTVSPost2010PropOp34
 70
     1
102
RTVSPost2010Prop35
280
     0
102
RTVSPost2010PropOp35
 70
     1
102
RTVSPost2010Prop36
280
     0
102
RTVSPost2010PropOp36
 70
     1
102
RTVSPost2010Prop37
 90
       50
102
RTVSPost2010PropOp37
 70
     1
102
RTVSPost2010Prop38
140
0.0
102
RTVSPost2010PropOp38
 70
     1
102
RTVSPost2010Prop39
140
1.0
102
RTVSPost2010PropOp39
 70
     1
102
RTVSPost2010Prop40
 90
        0
102
RTVSPost2010PropOp40
 70
     1
102
RTVSPost2010Prop41ColorIndex
 90
       18
102
RTVSPost2010Prop41ColorRGB
 90
        0
102
RTVSPost2010PropOp41
 70
     1
102
RTVSPost2010Prop42
 90
       50
102
RTVSPost2010PropOp42
 70
     1
102
RTVSPost2010Prop43
 90
        3
102
RTVSPost2010PropOp43
 70
     1
102
RTVSPost2010Prop44ColorIndex
 90
        5
102
RTVSPost2010Prop44ColorRGB
 90
      255
102
RTVSPost2010PropOp44
 70
     1
102
RTVSPost2010Prop45
280
     0
102
RTVSPost2010PropOp45
 70
     1
102
RTVSPost2010Prop46
 90
       50
102
RTVSPost2010PropOp46
 70
     1
102
RTVSPost2010Prop47
 90
       50
102
RTVSPost2010PropOp47
 70
     1
102
RTVSPost2010Prop48
 90
       50
102
RTVSPost2010PropOp48
 70
     1
102
RTVSPost2010Prop49
280
     0
102
RTVSPost2010PropOp49
 70
     1
102
RTVSPost2010Prop50
 90
       50
102
RTVSPost2010PropOp50
 70
     1
102
RTVSPost2010Prop51ColorIndex
 90
      256
102
RTVSPost2010Prop51ColorRGB
 90
-16777216
102
RTVSPost2010PropOp51
 70
     0
102
RTVSPost2010Prop52
140
1.0
102
RTVSPost2010PropOp52
 70
     0
102
RTVSPost2010Prop53
 90
        2
102
RTVSPost2010PropOp53
 70
     1
102
RTVSPost2010Prop54
  1
strokes_ogs.tif
102
RTVSPost2010PropOp54
 70
     1
102
RTVSPost2010Prop55
280
     0
102
RTVSPost2010PropOp55
 70
     1
102
RTVSPost2010Prop56
140
1.0
102
RTVSPost2010PropOp56
 70
     1
102
RTVSPost2010Prop57
140
1.0
102
RTVSPost2010PropOp57
 70
     1
102
RTVSPropertyOp0
 70
     1
102
RTVSPropertyOp1
 70
     1
102
RTVSPropertyOp2
 70
     1
102
RTVSPropertyOp3
 70
     1
102
RTVSPropertyOp4
 70
     1
102
RTVSPropertyOp5
 70
     1
102
RTVSPropertyOp6
 70
     1
102
RTVSPropertyOp7
 70
     1
102
RTVSPropertyOp8
 70
     1
102
RTVSPropertyOp9
 70
     1
102
RTVSPropertyOp10
 70
     1
102
RTVSPropertyOp11
 70
     1
102
RTVSPropertyOp12
 70
     1
102
RTVSPropertyOp13
 70
     1
102
RTVSPropertyOp14
 70
     1
102
RTVSPropertyOp15
 70
     1
102
RTVSPropertyOp16
 70
     1
102
RTVSPropertyOp17
 70
     1
102
RTVSPropertyOp18
 70
     1
102
RTVSPropertyOp19
 70
     1
102
RTVSPropertyOp20
 70
     1
102
RTVSPropertyOp21
 70
     1
102
RTVSPropertyOp22
 70
     1
102
RTVSPropertyOp23
 70
     1
102
RTVSPropertyOp24
 70
     1
102
RTVSPropertyOp25
 70
     1
102
RTVSPropertyOp26
 70
     1
102
RTVSPropertyOp27
 70
     1
102
RTVSPropertyOp28
 70
     1
102
RTVSPropertyOp29
 70
     1
102
RTVSPropertyOp30
 70
     1
102
RTVSPropertyOp31
 70
     1
102
RTVSPropertyOp32
 70
     1
102
RTVSPropertyOp33
 70
     1
102
RTVSPropertyOp34
 70
     1
102
RTVSPropertyOp35
 70
     1
102
RTVSPropertyOp36
 70
     1
102
RTVSPropertyOp37
 70
     1
102
RTVSPropertyOp38
 70
     1
102
RTVSPropertyOp39
 70
     1
102
RTVSPropertyOp40
 70
     1
102
RTVSPropertyOp41
 70
     1
102
RTVSPropertyOp42
 70
     1
102
RTVSPropertyOp43
 70
     1
102
RTVSPropertyOp44
 70
     1
102
RTVSPropertyOp45
 70
     1
102
RTVSPropertyOp46
 70
     1
102
RTVSPropertyOp47
 70
     1
102
RTVSPropertyOp48
 70
     1
102
RTVSPropertyOp49
 70
     1
102
RTVSPropertyOp50
 70
     1
102
RTVSPropertyOp51
 70
     0
102
RTVSPropertyOp52
 70
     0
102
RTVSPropertyOp53
 70
     1
102
RTVSPropertyOp54
 70
     1
102
RTVSPropertyOp55
 70
     1
102
RTVSPropertyOp56
 70
     1
102
RTVSPropertyOp57
 70
     1
102
RTVSPropertyOp58
 70
     1
102
RTVSPropertyOp59
 70
     1
102
RTVSPropertyOp60
 70
     1
102
RTVSPropertyOp61
 70
     1
102
RTVSPropertyOp62
 70
     1
  0
XRECORD
  5
464
102
{ACAD_REACTORS
330
463
102
}
330
463
100
AcDbXrecord
280
     1
102
RTVSPost2010Prop28
280
     0
102
RTVSPost2010PropOp28
 70
     1
102
RTVSPost2010Prop29
280
     1
102
RTVSPost2010PropOp29
 70
     1
102
RTVSPost2010Prop30
280
     1
102
RTVSPost2010PropOp30
 70
     1
102
RTVSPost2010Prop31
280
     0
102
RTVSPost2010PropOp31
 70
     1
102
RTVSPost2010Prop32
280
     0
102
RTVSPost2010PropOp32
 70
     1
102
RTVSPost2010Prop33
280
     0
102
RTVSPost2010PropOp33
 70
     1
102
RTVSPost2010Prop34
280
     0
102
RTVSPost2010PropOp34
 70
     1
102
RTVSPost2010Prop35
280
     0
102
RTVSPost2010PropOp35
 70
     1
102
RTVSPost2010Prop36
280
     0
102
RTVSPost2010PropOp36
 70
     1
102
RTVSPost2010Prop37
 90
       50
102
RTVSPost2010PropOp37
 70
     1
102
RTVSPost2010Prop38
140
0.0
102
RTVSPost2010PropOp38
 70
     1
102
RTVSPost2010Prop39
140
1.0
102
RTVSPost2010PropOp39
 70
     1
102
RTVSPost2010Prop40
 90
        0
102
RTVSPost2010PropOp40
 70
     1
102
RTVSPost2010Prop41ColorIndex
 90
       18
102
RTVSPost2010Prop41ColorRGB
 90
        0
102
RTVSPost2010PropOp41
 70
     1
102
RTVSPost2010Prop42
 90
       50
102
RTVSPost2010PropOp42
 70
     1
102
RTVSPost2010Prop43
 90
        3
102
RTVSPost2010PropOp43
 70
     1
102
RTVSPost2010Prop44ColorIndex
 90
        5
102
RTVSPost2010Prop44ColorRGB
 90
      255
102
RTVSPost2010PropOp44
 70
     1
102
RTVSPost2010Prop45
280
     0
102
RTVSPost2010PropOp45
 70
     1
102
RTVSPost2010Prop46
 90
       50
102
RTVSPost2010PropOp46
 70
     1
102
RTVSPost2010Prop47
 90
       50
102
RTVSPost2010PropOp47
 70
     1
102
RTVSPost2010Prop48
 90
       50
102
RTVSPost2010PropOp48
 70
     1
102
RTVSPost2010Prop49
280
     0
102
RTVSPost2010PropOp49
 70
     1
102
RTVSPost2010Prop50
 90
       50
102
RTVSPost2010PropOp50
 70
     1
102
RTVSPost2010Prop51ColorIndex
 90
      256
102
RTVSPost2010Prop51ColorRGB
 90
-16777216
102
RTVSPost2010PropOp51
 70
     0
102
RTVSPost2010Prop52
140
1.0
102
RTVSPost2010PropOp52
 70
     0
102
RTVSPost2010Prop53
 90
        2
102
RTVSPost2010PropOp53
 70
     1
102
RTVSPost2010Prop54
  1
strokes_ogs.tif
102
RTVSPost2010PropOp54
 70
     1
102
RTVSPost2010Prop55
280
     0
102
RTVSPost2010PropOp55
 70
     1
102
RTVSPost2010Prop56
140
1.0
102
RTVSPost2010PropOp56
 70
     1
102
RTVSPost2010Prop57
140
1.0
102
RTVSPost2010PropOp57
 70
     1
102
RTVSPropertyOp0
 70
     1
102
RTVSPropertyOp1
 70
     1
102
RTVSPropertyOp2
 70
     1
102
RTVSPropertyOp3
 70
     1
102
RTVSPropertyOp4
 70
     1
102
RTVSPropertyOp5
 70
     1
102
RTVSPropertyOp6
 70
     1
102
RTVSPropertyOp7
 70
     1
102
RTVSPropertyOp8
 70
     1
102
RTVSPropertyOp9
 70
     1
102
RTVSPropertyOp10
 70
     1
102
RTVSPropertyOp11
 70
     1
102
RTVSPropertyOp12
 70
     1
102
RTVSPropertyOp13
 70
     1
102
RTVSPropertyOp14
 70
     1
102
RTVSPropertyOp15
 70
     1
102
RTVSPropertyOp16
 70
     1
102
RTVSPropertyOp17
 70
     1
102
RTVSPropertyOp18
 70
     1
102
RTVSPropertyOp19
 70
     1
102
RTVSPropertyOp20
 70
     1
102
RTVSPropertyOp21
 70
     1
102
RTVSPropertyOp22
 70
     1
102
RTVSPropertyOp23
 70
     1
102
RTVSPropertyOp24
 70
     1
102
RTVSPropertyOp25
 70
     1
102
RTVSPropertyOp26
 70
     1
102
RTVSPropertyOp27
 70
     1
102
RTVSPropertyOp28
 70
     1
102
RTVSPropertyOp29
 70
     1
102
RTVSPropertyOp30
 70
     1
102
RTVSPropertyOp31
 70
     1
102
RTVSPropertyOp32
 70
     1
102
RTVSPropertyOp33
 70
     1
102
RTVSPropertyOp34
 70
     1
102
RTVSPropertyOp35
 70
     1
102
RTVSPropertyOp36
 70
     1
102
RTVSPropertyOp37
 70
     1
102
RTVSPropertyOp38
 70
     1
102
RTVSPropertyOp39
 70
     1
102
RTVSPropertyOp40
 70
     1
102
RTVSPropertyOp41
 70
     1
102
RTVSPropertyOp42
 70
     1
102
RTVSPropertyOp43
 70
     1
102
RTVSPropertyOp44
 70
     1
102
RTVSPropertyOp45
 70
     1
102
RTVSPropertyOp46
 70
     1
102
RTVSPropertyOp47
 70
     1
102
RTVSPropertyOp48
 70
     1
102
RTVSPropertyOp49
 70
     1
102
RTVSPropertyOp50
 70
     1
102
RTVSPropertyOp51
 70
     0
102
RTVSPropertyOp52
 70
     0
102
RTVSPropertyOp53
 70
     1
102
RTVSPropertyOp54
 70
     1
102
RTVSPropertyOp55
 70
     1
102
RTVSPropertyOp56
 70
     1
102
RTVSPropertyOp57
 70
     1
102
RTVSPropertyOp58
 70
     1
102
RTVSPropertyOp59
 70
     1
102
RTVSPropertyOp60
 70
     1
102
RTVSPropertyOp61
 70
     1
102
RTVSPropertyOp62
 70
     1
  0
XRECORD
  5
462
102
{ACAD_REACTORS
330
461
102
}
330
461
100
AcDbXrecord
280
     1
102
RTVSPost2010Prop28
280
     0
102
RTVSPost2010PropOp28
 70
     1
102
RTVSPost2010Prop29
280
     1
102
RTVSPost2010PropOp29
 70
     1
102
RTVSPost2010Prop30
280
     1
102
RTVSPost2010PropOp30
 70
     1
102
RTVSPost2010Prop31
280
     0
102
RTVSPost2010PropOp31
 70
     1
102
RTVSPost2010Prop32
280
     0
102
RTVSPost2010PropOp32
 70
     1
102
RTVSPost2010Prop33
280
     0
102
RTVSPost2010PropOp33
 70
     1
102
RTVSPost2010Prop34
280
     0
102
RTVSPost2010PropOp34
 70
     1
102
RTVSPost2010Prop35
280
     0
102
RTVSPost2010PropOp35
 70
     1
102
RTVSPost2010Prop36
280
     0
102
RTVSPost2010PropOp36
 70
     1
102
RTVSPost2010Prop37
 90
       50
102
RTVSPost2010PropOp37
 70
     1
102
RTVSPost2010Prop38
140
0.0
102
RTVSPost2010PropOp38
 70
     1
102
RTVSPost2010Prop39
140
1.0
102
RTVSPost2010PropOp39
 70
     1
102
RTVSPost2010Prop40
 90
        0
102
RTVSPost2010PropOp40
 70
     1
102
RTVSPost2010Prop41ColorIndex
 90
       18
102
RTVSPost2010Prop41ColorRGB
 90
        0
102
RTVSPost2010PropOp41
 70
     1
102
RTVSPost2010Prop42
 90
       50
102
RTVSPost2010PropOp42
 70
     1
102
RTVSPost2010Prop43
 90
        3
102
RTVSPost2010PropOp43
 70
     1
102
RTVSPost2010Prop44ColorIndex
 90
        5
102
RTVSPost2010Prop44ColorRGB
 90
      255
102
RTVSPost2010PropOp44
 70
     1
102
RTVSPost2010Prop45
280
     0
102
RTVSPost2010PropOp45
 70
     1
102
RTVSPost2010Prop46
 90
       50
102
RTVSPost2010PropOp46
 70
     1
102
RTVSPost2010Prop47
 90
       50
102
RTVSPost2010PropOp47
 70
     1
102
RTVSPost2010Prop48
 90
       50
102
RTVSPost2010PropOp48
 70
     1
102
RTVSPost2010Prop49
280
     0
102
RTVSPost2010PropOp49
 70
     1
102
RTVSPost2010Prop50
 90
       50
102
RTVSPost2010PropOp50
 70
     1
102
RTVSPost2010Prop51ColorIndex
 90
      256
102
RTVSPost2010Prop51ColorRGB
 90
-16777216
102
RTVSPost2010PropOp51
 70
     0
102
RTVSPost2010Prop52
140
1.0
102
RTVSPost2010PropOp52
 70
     0
102
RTVSPost2010Prop53
 90
        2
102
RTVSPost2010PropOp53
 70
     1
102
RTVSPost2010Prop54
  1
strokes_ogs.tif
102
RTVSPost2010PropOp54
 70
     1
102
RTVSPost2010Prop55
280
     0
102
RTVSPost2010PropOp55
 70
     1
102
RTVSPost2010Prop56
140
1.0
102
RTVSPost2010PropOp56
 70
     1
102
RTVSPost2010Prop57
140
1.0
102
RTVSPost2010PropOp57
 70
     1
102
RTVSPropertyOp0
 70
     1
102
RTVSPropertyOp1
 70
     1
102
RTVSPropertyOp2
 70
     1
102
RTVSPropertyOp3
 70
     1
102
RTVSPropertyOp4
 70
     1
102
RTVSPropertyOp5
 70
     1
102
RTVSPropertyOp6
 70
     1
102
RTVSPropertyOp7
 70
     1
102
RTVSPropertyOp8
 70
     1
102
RTVSPropertyOp9
 70
     1
102
RTVSPropertyOp10
 70
     1
102
RTVSPropertyOp11
 70
     1
102
RTVSPropertyOp12
 70
     1
102
RTVSPropertyOp13
 70
     1
102
RTVSPropertyOp14
 70
     1
102
RTVSPropertyOp15
 70
     1
102
RTVSPropertyOp16
 70
     1
102
RTVSPropertyOp17
 70
     1
102
RTVSPropertyOp18
 70
     1
102
RTVSPropertyOp19
 70
     1
102
RTVSPropertyOp20
 70
     1
102
RTVSPropertyOp21
 70
     1
102
RTVSPropertyOp22
 70
     1
102
RTVSPropertyOp23
 70
     1
102
RTVSPropertyOp24
 70
     1
102
RTVSPropertyOp25
 70
     1
102
RTVSPropertyOp26
 70
     1
102
RTVSPropertyOp27
 70
     1
102
RTVSPropertyOp28
 70
     1
102
RTVSPropertyOp29
 70
     1
102
RTVSPropertyOp30
 70
     1
102
RTVSPropertyOp31
 70
     1
102
RTVSPropertyOp32
 70
     1
102
RTVSPropertyOp33
 70
     1
102
RTVSPropertyOp34
 70
     1
102
RTVSPropertyOp35
 70
     1
102
RTVSPropertyOp36
 70
     1
102
RTVSPropertyOp37
 70
     1
102
RTVSPropertyOp38
 70
     1
102
RTVSPropertyOp39
 70
     1
102
RTVSPropertyOp40
 70
     1
102
RTVSPropertyOp41
 70
     1
102
RTVSPropertyOp42
 70
     1
102
RTVSPropertyOp43
 70
     1
102
RTVSPropertyOp44
 70
     1
102
RTVSPropertyOp45
 70
     1
102
RTVSPropertyOp46
 70
     1
102
RTVSPropertyOp47
 70
     1
102
RTVSPropertyOp48
 70
     1
102
RTVSPropertyOp49
 70
     1
102
RTVSPropertyOp50
 70
     1
102
RTVSPropertyOp51
 70
     0
102
RTVSPropertyOp52
 70
     0
102
RTVSPropertyOp53
 70
     1
102
RTVSPropertyOp54
 70
     1
102
RTVSPropertyOp55
 70
     1
102
RTVSPropertyOp56
 70
     1
102
RTVSPropertyOp57
 70
     1
102
RTVSPropertyOp58
 70
     1
102
RTVSPropertyOp59
 70
     1
102
RTVSPropertyOp60
 70
     1
102
RTVSPropertyOp61
 70
     1
102
RTVSPropertyOp62
 70
     1
  0
XRECORD
  5
45C
102
{ACAD_REACTORS
330
45B
102
}
330
45B
100
AcDbXrecord
280
     1
102
RTVSPost2010Prop28
280
     0
102
RTVSPost2010PropOp28
 70
     1
102
RTVSPost2010Prop29
280
     1
102
RTVSPost2010PropOp29
 70
     1
102
RTVSPost2010Prop30
280
     1
102
RTVSPost2010PropOp30
 70
     1
102
RTVSPost2010Prop31
280
     0
102
RTVSPost2010PropOp31
 70
     1
102
RTVSPost2010Prop32
280
     0
102
RTVSPost2010PropOp32
 70
     1
102
RTVSPost2010Prop33
280
     0
102
RTVSPost2010PropOp33
 70
     1
102
RTVSPost2010Prop34
280
     0
102
RTVSPost2010PropOp34
 70
     1
102
RTVSPost2010Prop35
280
     0
102
RTVSPost2010PropOp35
 70
     1
102
RTVSPost2010Prop36
280
     0
102
RTVSPost2010PropOp36
 70
     1
102
RTVSPost2010Prop37
 90
       50
102
RTVSPost2010PropOp37
 70
     1
102
RTVSPost2010Prop38
140
0.0
102
RTVSPost2010PropOp38
 70
     1
102
RTVSPost2010Prop39
140
1.0
102
RTVSPost2010PropOp39
 70
     1
102
RTVSPost2010Prop40
 90
        0
102
RTVSPost2010PropOp40
 70
     1
102
RTVSPost2010Prop41ColorIndex
 90
       18
102
RTVSPost2010Prop41ColorRGB
 90
        0
102
RTVSPost2010PropOp41
 70
     1
102
RTVSPost2010Prop42
 90
       50
102
RTVSPost2010PropOp42
 70
     1
102
RTVSPost2010Prop43
 90
        3
102
RTVSPost2010PropOp43
 70
     1
102
RTVSPost2010Prop44ColorIndex
 90
        5
102
RTVSPost2010Prop44ColorRGB
 90
      255
102
RTVSPost2010PropOp44
 70
     1
102
RTVSPost2010Prop45
280
     0
102
RTVSPost2010PropOp45
 70
     1
102
RTVSPost2010Prop46
 90
       50
102
RTVSPost2010PropOp46
 70
     1
102
RTVSPost2010Prop47
 90
       50
102
RTVSPost2010PropOp47
 70
     1
102
RTVSPost2010Prop48
 90
       50
102
RTVSPost2010PropOp48
 70
     1
102
RTVSPost2010Prop49
280
     0
102
RTVSPost2010PropOp49
 70
     1
102
RTVSPost2010Prop50
 90
       50
102
RTVSPost2010PropOp50
 70
     1
102
RTVSPost2010Prop51ColorIndex
 90
      256
102
RTVSPost2010Prop51ColorRGB
 90
-16777216
102
RTVSPost2010PropOp51
 70
     0
102
RTVSPost2010Prop52
140
1.0
102
RTVSPost2010PropOp52
 70
     0
102
RTVSPost2010Prop53
 90
        2
102
RTVSPost2010PropOp53
 70
     1
102
RTVSPost2010Prop54
  1
strokes_ogs.tif
102
RTVSPost2010PropOp54
 70
     1
102
RTVSPost2010Prop55
280
     0
102
RTVSPost2010PropOp55
 70
     1
102
RTVSPost2010Prop56
140
1.0
102
RTVSPost2010PropOp56
 70
     1
102
RTVSPost2010Prop57
140
1.0
102
RTVSPost2010PropOp57
 70
     1
102
RTVSPropertyOp0
 70
     1
102
RTVSPropertyOp1
 70
     1
102
RTVSPropertyOp2
 70
     1
102
RTVSPropertyOp3
 70
     1
102
RTVSPropertyOp4
 70
     1
102
RTVSPropertyOp5
 70
     1
102
RTVSPropertyOp6
 70
     1
102
RTVSPropertyOp7
 70
     1
102
RTVSPropertyOp8
 70
     1
102
RTVSPropertyOp9
 70
     1
102
RTVSPropertyOp10
 70
     1
102
RTVSPropertyOp11
 70
     1
102
RTVSPropertyOp12
 70
     1
102
RTVSPropertyOp13
 70
     1
102
RTVSPropertyOp14
 70
     1
102
RTVSPropertyOp15
 70
     1
102
RTVSPropertyOp16
 70
     1
102
RTVSPropertyOp17
 70
     1
102
RTVSPropertyOp18
 70
     1
102
RTVSPropertyOp19
 70
     1
102
RTVSPropertyOp20
 70
     1
102
RTVSPropertyOp21
 70
     1
102
RTVSPropertyOp22
 70
     1
102
RTVSPropertyOp23
 70
     1
102
RTVSPropertyOp24
 70
     1
102
RTVSPropertyOp25
 70
     1
102
RTVSPropertyOp26
 70
     1
102
RTVSPropertyOp27
 70
     1
102
RTVSPropertyOp28
 70
     1
102
RTVSPropertyOp29
 70
     1
102
RTVSPropertyOp30
 70
     1
102
RTVSPropertyOp31
 70
     1
102
RTVSPropertyOp32
 70
     1
102
RTVSPropertyOp33
 70
     1
102
RTVSPropertyOp34
 70
     1
102
RTVSPropertyOp35
 70
     1
102
RTVSPropertyOp36
 70
     1
102
RTVSPropertyOp37
 70
     1
102
RTVSPropertyOp38
 70
     1
102
RTVSPropertyOp39
 70
     1
102
RTVSPropertyOp40
 70
     1
102
RTVSPropertyOp41
 70
     1
102
RTVSPropertyOp42
 70
     1
102
RTVSPropertyOp43
 70
     1
102
RTVSPropertyOp44
 70
     1
102
RTVSPropertyOp45
 70
     1
102
RTVSPropertyOp46
 70
     1
102
RTVSPropertyOp47
 70
     1
102
RTVSPropertyOp48
 70
     1
102
RTVSPropertyOp49
 70
     1
102
RTVSPropertyOp50
 70
     1
102
RTVSPropertyOp51
 70
     0
102
RTVSPropertyOp52
 70
     0
102
RTVSPropertyOp53
 70
     1
102
RTVSPropertyOp54
 70
     1
102
RTVSPropertyOp55
 70
     1
102
RTVSPropertyOp56
 70
     1
102
RTVSPropertyOp57
 70
     1
102
RTVSPropertyOp58
 70
     1
102
RTVSPropertyOp59
 70
     1
102
RTVSPropertyOp60
 70
     1
102
RTVSPropertyOp61
 70
     1
102
RTVSPropertyOp62
 70
     1
  0
XRECORD
  5
45E
102
{ACAD_REACTORS
330
45D
102
}
330
45D
100
AcDbXrecord
280
     1
102
RTVSPost2010Prop28
280
     0
102
RTVSPost2010PropOp28
 70
     1
102
RTVSPost2010Prop29
280
     1
102
RTVSPost2010PropOp29
 70
     1
102
RTVSPost2010Prop30
280
     1
102
RTVSPost2010PropOp30
 70
     1
102
RTVSPost2010Prop31
280
     0
102
RTVSPost2010PropOp31
 70
     1
102
RTVSPost2010Prop32
280
     0
102
RTVSPost2010PropOp32
 70
     1
102
RTVSPost2010Prop33
280
     0
102
RTVSPost2010PropOp33
 70
     1
102
RTVSPost2010Prop34
280
     0
102
RTVSPost2010PropOp34
 70
     1
102
RTVSPost2010Prop35
280
     0
102
RTVSPost2010PropOp35
 70
     1
102
RTVSPost2010Prop36
280
     0
102
RTVSPost2010PropOp36
 70
     1
102
RTVSPost2010Prop37
 90
       50
102
RTVSPost2010PropOp37
 70
     1
102
RTVSPost2010Prop38
140
0.0
102
RTVSPost2010PropOp38
 70
     1
102
RTVSPost2010Prop39
140
1.0
102
RTVSPost2010PropOp39
 70
     1
102
RTVSPost2010Prop40
 90
        0
102
RTVSPost2010PropOp40
 70
     1
102
RTVSPost2010Prop41ColorIndex
 90
       18
102
RTVSPost2010Prop41ColorRGB
 90
        0
102
RTVSPost2010PropOp41
 70
     1
102
RTVSPost2010Prop42
 90
       50
102
RTVSPost2010PropOp42
 70
     1
102
RTVSPost2010Prop43
 90
        3
102
RTVSPost2010PropOp43
 70
     1
102
RTVSPost2010Prop44ColorIndex
 90
        5
102
RTVSPost2010Prop44ColorRGB
 90
      255
102
RTVSPost2010PropOp44
 70
     1
102
RTVSPost2010Prop45
280
     0
102
RTVSPost2010PropOp45
 70
     1
102
RTVSPost2010Prop46
 90
       50
102
RTVSPost2010PropOp46
 70
     1
102
RTVSPost2010Prop47
 90
       50
102
RTVSPost2010PropOp47
 70
     1
102
RTVSPost2010Prop48
 90
       50
102
RTVSPost2010PropOp48
 70
     1
102
RTVSPost2010Prop49
280
     0
102
RTVSPost2010PropOp49
 70
     1
102
RTVSPost2010Prop50
 90
       50
102
RTVSPost2010PropOp50
 70
     1
102
RTVSPost2010Prop51ColorIndex
 90
      256
102
RTVSPost2010Prop51ColorRGB
 90
-16777216
102
RTVSPost2010PropOp51
 70
     0
102
RTVSPost2010Prop52
140
1.0
102
RTVSPost2010PropOp52
 70
     0
102
RTVSPost2010Prop53
 90
        2
102
RTVSPost2010PropOp53
 70
     1
102
RTVSPost2010Prop54
  1
strokes_ogs.tif
102
RTVSPost2010PropOp54
 70
     1
102
RTVSPost2010Prop55
280
     0
102
RTVSPost2010PropOp55
 70
     1
102
RTVSPost2010Prop56
140
1.0
102
RTVSPost2010PropOp56
 70
     1
102
RTVSPost2010Prop57
140
1.0
102
RTVSPost2010PropOp57
 70
     1
102
RTVSPropertyOp0
 70
     1
102
RTVSPropertyOp1
 70
     1
102
RTVSPropertyOp2
 70
     1
102
RTVSPropertyOp3
 70
     1
102
RTVSPropertyOp4
 70
     1
102
RTVSPropertyOp5
 70
     1
102
RTVSPropertyOp6
 70
     1
102
RTVSPropertyOp7
 70
     1
102
RTVSPropertyOp8
 70
     1
102
RTVSPropertyOp9
 70
     1
102
RTVSPropertyOp10
 70
     1
102
RTVSPropertyOp11
 70
     1
102
RTVSPropertyOp12
 70
     1
102
RTVSPropertyOp13
 70
     1
102
RTVSPropertyOp14
 70
     1
102
RTVSPropertyOp15
 70
     1
102
RTVSPropertyOp16
 70
     1
102
RTVSPropertyOp17
 70
     1
102
RTVSPropertyOp18
 70
     1
102
RTVSPropertyOp19
 70
     1
102
RTVSPropertyOp20
 70
     1
102
RTVSPropertyOp21
 70
     1
102
RTVSPropertyOp22
 70
     1
102
RTVSPropertyOp23
 70
     1
102
RTVSPropertyOp24
 70
     1
102
RTVSPropertyOp25
 70
     1
102
RTVSPropertyOp26
 70
     1
102
RTVSPropertyOp27
 70
     1
102
RTVSPropertyOp28
 70
     1
102
RTVSPropertyOp29
 70
     1
102
RTVSPropertyOp30
 70
     1
102
RTVSPropertyOp31
 70
     1
102
RTVSPropertyOp32
 70
     1
102
RTVSPropertyOp33
 70
     1
102
RTVSPropertyOp34
 70
     1
102
RTVSPropertyOp35
 70
     1
102
RTVSPropertyOp36
 70
     1
102
RTVSPropertyOp37
 70
     1
102
RTVSPropertyOp38
 70
     1
102
RTVSPropertyOp39
 70
     1
102
RTVSPropertyOp40
 70
     1
102
RTVSPropertyOp41
 70
     1
102
RTVSPropertyOp42
 70
     1
102
RTVSPropertyOp43
 70
     1
102
RTVSPropertyOp44
 70
     1
102
RTVSPropertyOp45
 70
     1
102
RTVSPropertyOp46
 70
     1
102
RTVSPropertyOp47
 70
     1
102
RTVSPropertyOp48
 70
     1
102
RTVSPropertyOp49
 70
     1
102
RTVSPropertyOp50
 70
     1
102
RTVSPropertyOp51
 70
     0
102
RTVSPropertyOp52
 70
     0
102
RTVSPropertyOp53
 70
     1
102
RTVSPropertyOp54
 70
     1
102
RTVSPropertyOp55
 70
     1
102
RTVSPropertyOp56
 70
     1
102
RTVSPropertyOp57
 70
     1
102
RTVSPropertyOp58
 70
     1
102
RTVSPropertyOp59
 70
     1
102
RTVSPropertyOp60
 70
     1
102
RTVSPropertyOp61
 70
     1
102
RTVSPropertyOp62
 70
     1
  0
XRECORD
  5
44E
102
{ACAD_REACTORS
330
44D
102
}
330
44D
100
AcDbXrecord
280
     1
102
RTVSPost2010Prop28
280
     0
102
RTVSPost2010PropOp28
 70
     1
102
RTVSPost2010Prop29
280
     1
102
RTVSPost2010PropOp29
 70
     1
102
RTVSPost2010Prop30
280
     1
102
RTVSPost2010PropOp30
 70
     1
102
RTVSPost2010Prop31
280
     0
102
RTVSPost2010PropOp31
 70
     1
102
RTVSPost2010Prop32
280
     0
102
RTVSPost2010PropOp32
 70
     1
102
RTVSPost2010Prop33
280
     0
102
RTVSPost2010PropOp33
 70
     1
102
RTVSPost2010Prop34
280
     0
102
RTVSPost2010PropOp34
 70
     1
102
RTVSPost2010Prop35
280
     0
102
RTVSPost2010PropOp35
 70
     1
102
RTVSPost2010Prop36
280
     0
102
RTVSPost2010PropOp36
 70
     1
102
RTVSPost2010Prop37
 90
       50
102
RTVSPost2010PropOp37
 70
     1
102
RTVSPost2010Prop38
140
0.0
102
RTVSPost2010PropOp38
 70
     1
102
RTVSPost2010Prop39
140
1.0
102
RTVSPost2010PropOp39
 70
     1
102
RTVSPost2010Prop40
 90
        0
102
RTVSPost2010PropOp40
 70
     1
102
RTVSPost2010Prop41ColorIndex
 90
       18
102
RTVSPost2010Prop41ColorRGB
 90
        0
102
RTVSPost2010PropOp41
 70
     1
102
RTVSPost2010Prop42
 90
       50
102
RTVSPost2010PropOp42
 70
     1
102
RTVSPost2010Prop43
 90
        3
102
RTVSPost2010PropOp43
 70
     1
102
RTVSPost2010Prop44ColorIndex
 90
        5
102
RTVSPost2010Prop44ColorRGB
 90
      255
102
RTVSPost2010PropOp44
 70
     1
102
RTVSPost2010Prop45
280
     0
102
RTVSPost2010PropOp45
 70
     1
102
RTVSPost2010Prop46
 90
       50
102
RTVSPost2010PropOp46
 70
     1
102
RTVSPost2010Prop47
 90
       50
102
RTVSPost2010PropOp47
 70
     1
102
RTVSPost2010Prop48
 90
       50
102
RTVSPost2010PropOp48
 70
     1
102
RTVSPost2010Prop49
280
     0
102
RTVSPost2010PropOp49
 70
     1
102
RTVSPost2010Prop50
 90
       50
102
RTVSPost2010PropOp50
 70
     1
102
RTVSPost2010Prop51ColorIndex
 90
      256
102
RTVSPost2010Prop51ColorRGB
 90
-16777216
102
RTVSPost2010PropOp51
 70
     0
102
RTVSPost2010Prop52
140
1.0
102
RTVSPost2010PropOp52
 70
     0
102
RTVSPost2010Prop53
 90
        2
102
RTVSPost2010PropOp53
 70
     1
102
RTVSPost2010Prop54
  1
strokes_ogs.tif
102
RTVSPost2010PropOp54
 70
     1
102
RTVSPost2010Prop55
280
     0
102
RTVSPost2010PropOp55
 70
     1
102
RTVSPost2010Prop56
140
1.0
102
RTVSPost2010PropOp56
 70
     1
102
RTVSPost2010Prop57
140
1.0
102
RTVSPost2010PropOp57
 70
     1
102
RTVSPropertyOp0
 70
     1
102
RTVSPropertyOp1
 70
     1
102
RTVSPropertyOp2
 70
     1
102
RTVSPropertyOp3
 70
     1
102
RTVSPropertyOp4
 70
     1
102
RTVSPropertyOp5
 70
     1
102
RTVSPropertyOp6
 70
     1
102
RTVSPropertyOp7
 70
     1
102
RTVSPropertyOp8
 70
     1
102
RTVSPropertyOp9
 70
     1
102
RTVSPropertyOp10
 70
     1
102
RTVSPropertyOp11
 70
     1
102
RTVSPropertyOp12
 70
     1
102
RTVSPropertyOp13
 70
     1
102
RTVSPropertyOp14
 70
     1
102
RTVSPropertyOp15
 70
     1
102
RTVSPropertyOp16
 70
     1
102
RTVSPropertyOp17
 70
     1
102
RTVSPropertyOp18
 70
     1
102
RTVSPropertyOp19
 70
     1
102
RTVSPropertyOp20
 70
     1
102
RTVSPropertyOp21
 70
     1
102
RTVSPropertyOp22
 70
     1
102
RTVSPropertyOp23
 70
     1
102
RTVSPropertyOp24
 70
     1
102
RTVSPropertyOp25
 70
     1
102
RTVSPropertyOp26
 70
     1
102
RTVSPropertyOp27
 70
     1
102
RTVSPropertyOp28
 70
     1
102
RTVSPropertyOp29
 70
     1
102
RTVSPropertyOp30
 70
     1
102
RTVSPropertyOp31
 70
     1
102
RTVSPropertyOp32
 70
     1
102
RTVSPropertyOp33
 70
     1
102
RTVSPropertyOp34
 70
     1
102
RTVSPropertyOp35
 70
     1
102
RTVSPropertyOp36
 70
     1
102
RTVSPropertyOp37
 70
     1
102
RTVSPropertyOp38
 70
     1
102
RTVSPropertyOp39
 70
     1
102
RTVSPropertyOp40
 70
     1
102
RTVSPropertyOp41
 70
     1
102
RTVSPropertyOp42
 70
     1
102
RTVSPropertyOp43
 70
     1
102
RTVSPropertyOp44
 70
     1
102
RTVSPropertyOp45
 70
     1
102
RTVSPropertyOp46
 70
     1
102
RTVSPropertyOp47
 70
     1
102
RTVSPropertyOp48
 70
     1
102
RTVSPropertyOp49
 70
     1
102
RTVSPropertyOp50
 70
     1
102
RTVSPropertyOp51
 70
     0
102
RTVSPropertyOp52
 70
     0
102
RTVSPropertyOp53
 70
     1
102
RTVSPropertyOp54
 70
     1
102
RTVSPropertyOp55
 70
     1
102
RTVSPropertyOp56
 70
     1
102
RTVSPropertyOp57
 70
     1
102
RTVSPropertyOp58
 70
     1
102
RTVSPropertyOp59
 70
     1
102
RTVSPropertyOp60
 70
     1
102
RTVSPropertyOp61
 70
     1
102
RTVSPropertyOp62
 70
     1
  0
XRECORD
  5
442
102
{ACAD_REACTORS
330
441
102
}
330
441
100
AcDbXrecord
280
     1
102
RTVSPost2010Prop28
280
     0
102
RTVSPost2010PropOp28
 70
     1
102
RTVSPost2010Prop29
280
     1
102
RTVSPost2010PropOp29
 70
     1
102
RTVSPost2010Prop30
280
     1
102
RTVSPost2010PropOp30
 70
     1
102
RTVSPost2010Prop31
280
     0
102
RTVSPost2010PropOp31
 70
     1
102
RTVSPost2010Prop32
280
     0
102
RTVSPost2010PropOp32
 70
     1
102
RTVSPost2010Prop33
280
     0
102
RTVSPost2010PropOp33
 70
     1
102
RTVSPost2010Prop34
280
     0
102
RTVSPost2010PropOp34
 70
     1
102
RTVSPost2010Prop35
280
     0
102
RTVSPost2010PropOp35
 70
     1
102
RTVSPost2010Prop36
280
     0
102
RTVSPost2010PropOp36
 70
     1
102
RTVSPost2010Prop37
 90
       50
102
RTVSPost2010PropOp37
 70
     1
102
RTVSPost2010Prop38
140
0.0
102
RTVSPost2010PropOp38
 70
     1
102
RTVSPost2010Prop39
140
1.0
102
RTVSPost2010PropOp39
 70
     1
102
RTVSPost2010Prop40
 90
        0
102
RTVSPost2010PropOp40
 70
     1
102
RTVSPost2010Prop41ColorIndex
 90
       18
102
RTVSPost2010Prop41ColorRGB
 90
        0
102
RTVSPost2010PropOp41
 70
     1
102
RTVSPost2010Prop42
 90
       50
102
RTVSPost2010PropOp42
 70
     1
102
RTVSPost2010Prop43
 90
        3
102
RTVSPost2010PropOp43
 70
     1
102
RTVSPost2010Prop44ColorIndex
 90
        5
102
RTVSPost2010Prop44ColorRGB
 90
      255
102
RTVSPost2010PropOp44
 70
     1
102
RTVSPost2010Prop45
280
     0
102
RTVSPost2010PropOp45
 70
     1
102
RTVSPost2010Prop46
 90
       50
102
RTVSPost2010PropOp46
 70
     1
102
RTVSPost2010Prop47
 90
       50
102
RTVSPost2010PropOp47
 70
     1
102
RTVSPost2010Prop48
 90
       50
102
RTVSPost2010PropOp48
 70
     1
102
RTVSPost2010Prop49
280
     0
102
RTVSPost2010PropOp49
 70
     1
102
RTVSPost2010Prop50
 90
       50
102
RTVSPost2010PropOp50
 70
     1
102
RTVSPost2010Prop51ColorIndex
 90
      256
102
RTVSPost2010Prop51ColorRGB
 90
-16777216
102
RTVSPost2010PropOp51
 70
     0
102
RTVSPost2010Prop52
140
1.0
102
RTVSPost2010PropOp52
 70
     0
102
RTVSPost2010Prop53
 90
        2
102
RTVSPost2010PropOp53
 70
     1
102
RTVSPost2010Prop54
  1
strokes_ogs.tif
102
RTVSPost2010PropOp54
 70
     1
102
RTVSPost2010Prop55
280
     0
102
RTVSPost2010PropOp55
 70
     1
102
RTVSPost2010Prop56
140
1.0
102
RTVSPost2010PropOp56
 70
     1
102
RTVSPost2010Prop57
140
1.0
102
RTVSPost2010PropOp57
 70
     1
102
RTVSPropertyOp0
 70
     1
102
RTVSPropertyOp1
 70
     1
102
RTVSPropertyOp2
 70
     1
102
RTVSPropertyOp3
 70
     1
102
RTVSPropertyOp4
 70
     1
102
RTVSPropertyOp5
 70
     1
102
RTVSPropertyOp6
 70
     1
102
RTVSPropertyOp7
 70
     1
102
RTVSPropertyOp8
 70
     1
102
RTVSPropertyOp9
 70
     1
102
RTVSPropertyOp10
 70
     1
102
RTVSPropertyOp11
 70
     1
102
RTVSPropertyOp12
 70
     1
102
RTVSPropertyOp13
 70
     1
102
RTVSPropertyOp14
 70
     1
102
RTVSPropertyOp15
 70
     1
102
RTVSPropertyOp16
 70
     1
102
RTVSPropertyOp17
 70
     1
102
RTVSPropertyOp18
 70
     1
102
RTVSPropertyOp19
 70
     1
102
RTVSPropertyOp20
 70
     1
102
RTVSPropertyOp21
 70
     1
102
RTVSPropertyOp22
 70
     1
102
RTVSPropertyOp23
 70
     1
102
RTVSPropertyOp24
 70
     1
102
RTVSPropertyOp25
 70
     1
102
RTVSPropertyOp26
 70
     1
102
RTVSPropertyOp27
 70
     1
102
RTVSPropertyOp28
 70
     1
102
RTVSPropertyOp29
 70
     1
102
RTVSPropertyOp30
 70
     1
102
RTVSPropertyOp31
 70
     1
102
RTVSPropertyOp32
 70
     1
102
RTVSPropertyOp33
 70
     1
102
RTVSPropertyOp34
 70
     1
102
RTVSPropertyOp35
 70
     1
102
RTVSPropertyOp36
 70
     1
102
RTVSPropertyOp37
 70
     1
102
RTVSPropertyOp38
 70
     1
102
RTVSPropertyOp39
 70
     1
102
RTVSPropertyOp40
 70
     1
102
RTVSPropertyOp41
 70
     1
102
RTVSPropertyOp42
 70
     1
102
RTVSPropertyOp43
 70
     1
102
RTVSPropertyOp44
 70
     1
102
RTVSPropertyOp45
 70
     1
102
RTVSPropertyOp46
 70
     1
102
RTVSPropertyOp47
 70
     1
102
RTVSPropertyOp48
 70
     1
102
RTVSPropertyOp49
 70
     1
102
RTVSPropertyOp50
 70
     1
102
RTVSPropertyOp51
 70
     0
102
RTVSPropertyOp52
 70
     0
102
RTVSPropertyOp53
 70
     1
102
RTVSPropertyOp54
 70
     1
102
RTVSPropertyOp55
 70
     1
102
RTVSPropertyOp56
 70
     1
102
RTVSPropertyOp57
 70
     1
102
RTVSPropertyOp58
 70
     1
102
RTVSPropertyOp59
 70
     1
102
RTVSPropertyOp60
 70
     1
102
RTVSPropertyOp61
 70
     1
102
RTVSPropertyOp62
 70
     1
  0
XRECORD
  5
460
102
{ACAD_REACTORS
330
45F
102
}
330
45F
100
AcDbXrecord
280
     1
102
RTVSPost2010Prop28
280
     0
102
RTVSPost2010PropOp28
 70
     1
102
RTVSPost2010Prop29
280
     1
102
RTVSPost2010PropOp29
 70
     1
102
RTVSPost2010Prop30
280
     1
102
RTVSPost2010PropOp30
 70
     1
102
RTVSPost2010Prop31
280
     0
102
RTVSPost2010PropOp31
 70
     1
102
RTVSPost2010Prop32
280
     0
102
RTVSPost2010PropOp32
 70
     1
102
RTVSPost2010Prop33
280
     0
102
RTVSPost2010PropOp33
 70
     1
102
RTVSPost2010Prop34
280
     0
102
RTVSPost2010PropOp34
 70
     1
102
RTVSPost2010Prop35
280
     0
102
RTVSPost2010PropOp35
 70
     1
102
RTVSPost2010Prop36
280
     0
102
RTVSPost2010PropOp36
 70
     1
102
RTVSPost2010Prop37
 90
       50
102
RTVSPost2010PropOp37
 70
     1
102
RTVSPost2010Prop38
140
0.0
102
RTVSPost2010PropOp38
 70
     1
102
RTVSPost2010Prop39
140
1.0
102
RTVSPost2010PropOp39
 70
     1
102
RTVSPost2010Prop40
 90
        0
102
RTVSPost2010PropOp40
 70
     1
102
RTVSPost2010Prop41ColorIndex
 90
       18
102
RTVSPost2010Prop41ColorRGB
 90
        0
102
RTVSPost2010PropOp41
 70
     1
102
RTVSPost2010Prop42
 90
       50
102
RTVSPost2010PropOp42
 70
     1
102
RTVSPost2010Prop43
 90
        3
102
RTVSPost2010PropOp43
 70
     1
102
RTVSPost2010Prop44ColorIndex
 90
        5
102
RTVSPost2010Prop44ColorRGB
 90
      255
102
RTVSPost2010PropOp44
 70
     1
102
RTVSPost2010Prop45
280
     0
102
RTVSPost2010PropOp45
 70
     1
102
RTVSPost2010Prop46
 90
       50
102
RTVSPost2010PropOp46
 70
     1
102
RTVSPost2010Prop47
 90
       50
102
RTVSPost2010PropOp47
 70
     1
102
RTVSPost2010Prop48
 90
       50
102
RTVSPost2010PropOp48
 70
     1
102
RTVSPost2010Prop49
280
     0
102
RTVSPost2010PropOp49
 70
     1
102
RTVSPost2010Prop50
 90
       50
102
RTVSPost2010PropOp50
 70
     1
102
RTVSPost2010Prop51ColorIndex
 90
      256
102
RTVSPost2010Prop51ColorRGB
 90
-16777216
102
RTVSPost2010PropOp51
 70
     0
102
RTVSPost2010Prop52
140
1.0
102
RTVSPost2010PropOp52
 70
     0
102
RTVSPost2010Prop53
 90
        2
102
RTVSPost2010PropOp53
 70
     1
102
RTVSPost2010Prop54
  1
strokes_ogs.tif
102
RTVSPost2010PropOp54
 70
     1
102
RTVSPost2010Prop55
280
     0
102
RTVSPost2010PropOp55
 70
     1
102
RTVSPost2010Prop56
140
1.0
102
RTVSPost2010PropOp56
 70
     1
102
RTVSPost2010Prop57
140
1.0
102
RTVSPost2010PropOp57
 70
     1
102
RTVSPropertyOp0
 70
     1
102
RTVSPropertyOp1
 70
     1
102
RTVSPropertyOp2
 70
     1
102
RTVSPropertyOp3
 70
     1
102
RTVSPropertyOp4
 70
     1
102
RTVSPropertyOp5
 70
     1
102
RTVSPropertyOp6
 70
     1
102
RTVSPropertyOp7
 70
     1
102
RTVSPropertyOp8
 70
     1
102
RTVSPropertyOp9
 70
     1
102
RTVSPropertyOp10
 70
     1
102
RTVSPropertyOp11
 70
     1
102
RTVSPropertyOp12
 70
     1
102
RTVSPropertyOp13
 70
     1
102
RTVSPropertyOp14
 70
     1
102
RTVSPropertyOp15
 70
     1
102
RTVSPropertyOp16
 70
     1
102
RTVSPropertyOp17
 70
     1
102
RTVSPropertyOp18
 70
     1
102
RTVSPropertyOp19
 70
     1
102
RTVSPropertyOp20
 70
     1
102
RTVSPropertyOp21
 70
     1
102
RTVSPropertyOp22
 70
     1
102
RTVSPropertyOp23
 70
     1
102
RTVSPropertyOp24
 70
     1
102
RTVSPropertyOp25
 70
     1
102
RTVSPropertyOp26
 70
     1
102
RTVSPropertyOp27
 70
     1
102
RTVSPropertyOp28
 70
     1
102
RTVSPropertyOp29
 70
     1
102
RTVSPropertyOp30
 70
     1
102
RTVSPropertyOp31
 70
     1
102
RTVSPropertyOp32
 70
     1
102
RTVSPropertyOp33
 70
     1
102
RTVSPropertyOp34
 70
     1
102
RTVSPropertyOp35
 70
     1
102
RTVSPropertyOp36
 70
     1
102
RTVSPropertyOp37
 70
     1
102
RTVSPropertyOp38
 70
     1
102
RTVSPropertyOp39
 70
     1
102
RTVSPropertyOp40
 70
     1
102
RTVSPropertyOp41
 70
     1
102
RTVSPropertyOp42
 70
     1
102
RTVSPropertyOp43
 70
     1
102
RTVSPropertyOp44
 70
     1
102
RTVSPropertyOp45
 70
     1
102
RTVSPropertyOp46
 70
     1
102
RTVSPropertyOp47
 70
     1
102
RTVSPropertyOp48
 70
     1
102
RTVSPropertyOp49
 70
     1
102
RTVSPropertyOp50
 70
     1
102
RTVSPropertyOp51
 70
     0
102
RTVSPropertyOp52
 70
     0
102
RTVSPropertyOp53
 70
     1
102
RTVSPropertyOp54
 70
     1
102
RTVSPropertyOp55
 70
     1
102
RTVSPropertyOp56
 70
     1
102
RTVSPropertyOp57
 70
     1
102
RTVSPropertyOp58
 70
     1
102
RTVSPropertyOp59
 70
     1
102
RTVSPropertyOp60
 70
     1
102
RTVSPropertyOp61
 70
     1
102
RTVSPropertyOp62
 70
     1
  0
ENDSEC
  0
EOF
