  0
SECTION
  2
HEADER
  9
$ACADVER
  1
AC1009
  9
$EXTMIN
 10
0.46429283
 20
-0.74282938
 30
0.0
  9
$EXTMAX
 10
18.35489864
 20
0.75717062
 30
0.0
  0
ENDSEC
  0
SECTION
  2
TABLES
  0
TABLE
  2
LAYER
 70
1
 0
LAYER
 2
VECTOR_LAYER_1
 70
0
 62
18
 6
CONTINUOUS
 0
ENDTAB
 0
ENDSEC
  0
SECTION
  2
ENTITIES
  0
POLYLINE
  8
VECTOR_LAYER_1
 62
256
 66
   1
 39
0.000000
 70
    0
  0
VERTEX
  8
0
 10
2.99256983
 20
0.47592062
  0
VERTEX
  8
0
 10
3.00348684
 20
0.42821628
  0
VERTEX
  8
0
 10
3.01231469
 20
0.38040738
  0
VERTEX
  8
0
 10
3.01909529
 20
0.33260010
  0
VERTEX
  8
0
 10
3.02387053
 20
0.28490059
  0
VERTEX
  8
0
 10
3.02668234
 20
0.23741505
  0
VERTEX
  8
0
 10
3.02757261
 20
0.19024963
  0
VERTEX
  8
0
 10
3.02658326
 20
0.14351051
  0
VERTEX
  8
0
 10
3.02375618
 20
0.09730387
  0
VERTEX
  8
0
 10
3.01913329
 20
0.05173587
  0
VERTEX
  8
0
 10
3.01275650
 20
0.00691269
  0
VERTEX
  8
0
 10
3.00466770
 20
-0.03705951
  0
VERTEX
  8
0
 10
2.99490881
 20
-0.08007454
  0
VERTEX
  8
0
 10
2.98352173
 20
-0.12202624
  0
VERTEX
  8
0
 10
2.97054837
 20
-0.16280844
  0
VERTEX
  8
0
 10
2.95603063
 20
-0.20231496
  0
VERTEX
  8
0
 10
2.94001043
 20
-0.24043963
  0
VERTEX
  8
0
 10
2.92252967
 20
-0.27707627
  0
VERTEX
  8
0
 10
2.90363025
 20
-0.31211873
  0
VERTEX
  8
0
 10
2.88335409
 20
-0.34546082
  0
VERTEX
  8
0
 10
2.86174308
 20
-0.37699637
  0
VERTEX
  8
0
 10
2.83883914
 20
-0.40661922
  0
VERTEX
  8
0
 10
2.81468418
 20
-0.43422318
  0
VERTEX
  8
0
 10
2.78932009
 20
-0.45970209
  0
VERTEX
  8
0
 10
2.76278879
 20
-0.48294978
  0
VERTEX
  8
0
 10
2.73513218
 20
-0.50386007
  0
VERTEX
  8
0
 10
2.70639217
 20
-0.52232679
  0
VERTEX
  8
0
 10
2.67661066
 20
-0.53824376
  0
VERTEX
  8
0
 10
2.64582957
 20
-0.55150483
  0
VERTEX
  8
0
 10
2.61409080
 20
-0.56200381
  0
VERTEX
  8
0
 10
2.59787538
 20
-0.56618434
  0
VERTEX
  8
0
 10
2.58143625
 20
-0.56963453
  0
VERTEX
  8
0
 10
2.56477866
 20
-0.57234112
  0
VERTEX
  8
0
 10
2.54790784
 20
-0.57429082
  0
VERTEX
  8
0
 10
2.53082903
 20
-0.57547038
  0
VERTEX
  8
0
 10
2.51354746
 20
-0.57586652
  0
VERTEX
  8
0
 10
2.49626590
 20
-0.57547038
  0
VERTEX
  8
0
 10
2.47918709
 20
-0.57429082
  0
VERTEX
  8
0
 10
2.46231627
 20
-0.57234112
  0
VERTEX
  8
0
 10
2.44565867
 20
-0.56963453
  0
VERTEX
  8
0
 10
2.42921955
 20
-0.56618434
  0
VERTEX
  8
0
 10
2.41300412
 20
-0.56200381
  0
VERTEX
  8
0
 10
2.38126535
 20
-0.55150483
  0
VERTEX
  8
0
 10
2.35048426
 20
-0.53824376
  0
VERTEX
  8
0
 10
2.32070276
 20
-0.52232679
  0
VERTEX
  8
0
 10
2.29196275
 20
-0.50386007
  0
VERTEX
  8
0
 10
2.26430614
 20
-0.48294978
  0
VERTEX
  8
0
 10
2.23777483
 20
-0.45970209
  0
VERTEX
  8
0
 10
2.21241075
 20
-0.43422318
  0
VERTEX
  8
0
 10
2.18825578
 20
-0.40661922
  0
VERTEX
  8
0
 10
2.16535184
 20
-0.37699637
  0
VERTEX
  8
0
 10
2.14374084
 20
-0.34546082
  0
VERTEX
  8
0
 10
2.12346467
 20
-0.31211873
  0
VERTEX
  8
0
 10
2.10456525
 20
-0.27707627
  0
VERTEX
  8
0
 10
2.08708449
 20
-0.24043963
  0
VERTEX
  8
0
 10
2.07106429
 20
-0.20231496
  0
VERTEX
  8
0
 10
2.05654656
 20
-0.16280844
  0
VERTEX
  8
0
 10
2.04357320
 20
-0.12202624
  0
VERTEX
  8
0
 10
2.03218612
 20
-0.08007454
  0
VERTEX
  8
0
 10
2.02242723
 20
-0.03705951
  0
VERTEX
  8
0
 10
2.01433843
 20
0.00691269
  0
VERTEX
  8
0
 10
2.00796163
 20
0.05173587
  0
VERTEX
  8
0
 10
2.00333874
 20
0.09730387
  0
VERTEX
  8
0
 10
2.00051167
 20
0.14351051
  0
VERTEX
  8
0
 10
1.99952231
 20
0.19024963
  0
VERTEX
  8
0
 10
2.00041258
 20
0.23741505
  0
VERTEX
  8
0
 10
2.00322439
 20
0.28490059
  0
VERTEX
  8
0
 10
2.00799964
 20
0.33260010
  0
VERTEX
  8
0
 10
2.01478023
 20
0.38040738
  0
VERTEX
  8
0
 10
2.02360808
 20
0.42821628
  0
VERTEX
  8
0
 10
2.03452509
 20
0.47592062
  0
SEQEND
  0
POLYLINE
  8
VECTOR_LAYER_1
 62
256
 66
   1
 39
0.000000
 70
    0
  0
VERTEX
  8
0
 10
5.11256983
 20
0.47592062
  0
VERTEX
  8
0
 10
5.12348684
 20
0.42821628
  0
VERTEX
  8
0
 10
5.13231469
 20
0.38040738
  0
VERTEX
  8
0
 10
5.13909529
 20
0.33260010
  0
VERTEX
  8
0
 10
5.14387053
 20
0.28490059
  0
VERTEX
  8
0
 10
5.14668234
 20
0.23741505
  0
VERTEX
  8
0
 10
5.14757261
 20
0.19024963
  0
VERTEX
  8
0
 10
5.14658326
 20
0.14351051
  0
VERTEX
  8
0
 10
5.14375618
 20
0.09730387
  0
VERTEX
  8
0
 10
5.13913329
 20
0.05173587
  0
VERTEX
  8
0
 10
5.13275650
 20
0.00691269
  0
VERTEX
  8
0
 10
5.12466770
 20
-0.03705951
  0
VERTEX
  8
0
 10
5.11490881
 20
-0.08007454
  0
VERTEX
  8
0
 10
5.10352173
 20
-0.12202624
  0
VERTEX
  8
0
 10
5.09054837
 20
-0.16280844
  0
VERTEX
  8
0
 10
5.07603063
 20
-0.20231496
  0
VERTEX
  8
0
 10
5.06001043
 20
-0.24043963
  0
VERTEX
  8
0
 10
5.04252967
 20
-0.27707627
  0
VERTEX
  8
0
 10
5.02363025
 20
-0.31211873
  0
VERTEX
  8
0
 10
5.00335409
 20
-0.34546082
  0
VERTEX
  8
0
 10
4.98174308
 20
-0.37699637
  0
VERTEX
  8
0
 10
4.95883914
 20
-0.40661922
  0
VERTEX
  8
0
 10
4.93468418
 20
-0.43422318
  0
VERTEX
  8
0
 10
4.90932009
 20
-0.45970209
  0
VERTEX
  8
0
 10
4.88278879
 20
-0.48294978
  0
VERTEX
  8
0
 10
4.85513218
 20
-0.50386007
  0
VERTEX
  8
0
 10
4.82639217
 20
-0.52232679
  0
VERTEX
  8
0
 10
4.79661066
 20
-0.53824376
  0
VERTEX
  8
0
 10
4.76582957
 20
-0.55150483
  0
VERTEX
  8
0
 10
4.73409080
 20
-0.56200381
  0
VERTEX
  8
0
 10
4.71787538
 20
-0.56618434
  0
VERTEX
  8
0
 10
4.70143625
 20
-0.56963453
  0
VERTEX
  8
0
 10
4.68477866
 20
-0.57234112
  0
VERTEX
  8
0
 10
4.66790784
 20
-0.57429082
  0
VERTEX
  8
0
 10
4.65082903
 20
-0.57547038
  0
VERTEX
  8
0
 10
4.63354746
 20
-0.57586652
  0
VERTEX
  8
0
 10
4.61626590
 20
-0.57547038
  0
VERTEX
  8
0
 10
4.59918709
 20
-0.57429082
  0
VERTEX
  8
0
 10
4.58231627
 20
-0.57234112
  0
VERTEX
  8
0
 10
4.56565867
 20
-0.56963453
  0
VERTEX
  8
0
 10
4.54921955
 20
-0.56618434
  0
VERTEX
  8
0
 10
4.53300412
 20
-0.56200381
  0
VERTEX
  8
0
 10
4.50126535
 20
-0.55150483
  0
VERTEX
  8
0
 10
4.47048426
 20
-0.53824376
  0
VERTEX
  8
0
 10
4.44070276
 20
-0.52232679
  0
VERTEX
  8
0
 10
4.41196275
 20
-0.50386007
  0
VERTEX
  8
0
 10
4.38430614
 20
-0.48294978
  0
VERTEX
  8
0
 10
4.35777483
 20
-0.45970209
  0
VERTEX
  8
0
 10
4.33241075
 20
-0.43422318
  0
VERTEX
  8
0
 10
4.30825578
 20
-0.40661922
  0
VERTEX
  8
0
 10
4.28535184
 20
-0.37699637
  0
VERTEX
  8
0
 10
4.26374084
 20
-0.34546082
  0
VERTEX
  8
0
 10
4.24346467
 20
-0.31211873
  0
VERTEX
  8
0
 10
4.22456525
 20
-0.27707627
  0
VERTEX
  8
0
 10
4.20708449
 20
-0.24043963
  0
VERTEX
  8
0
 10
4.19106429
 20
-0.20231496
  0
VERTEX
  8
0
 10
4.17654656
 20
-0.16280844
  0
VERTEX
  8
0
 10
4.16357320
 20
-0.12202624
  0
VERTEX
  8
0
 10
4.15218612
 20
-0.08007454
  0
VERTEX
  8
0
 10
4.14242723
 20
-0.03705951
  0
VERTEX
  8
0
 10
4.13433843
 20
0.00691269
  0
VERTEX
  8
0
 10
4.12796163
 20
0.05173587
  0
VERTEX
  8
0
 10
4.12333874
 20
0.09730387
  0
VERTEX
  8
0
 10
4.12051167
 20
0.14351051
  0
VERTEX
  8
0
 10
4.11952231
 20
0.19024963
  0
VERTEX
  8
0
 10
4.12041258
 20
0.23741505
  0
VERTEX
  8
0
 10
4.12322439
 20
0.28490059
  0
VERTEX
  8
0
 10
4.12799964
 20
0.33260010
  0
VERTEX
  8
0
 10
4.13478023
 20
0.38040738
  0
VERTEX
  8
0
 10
4.14360808
 20
0.42821628
  0
VERTEX
  8
0
 10
4.15452509
 20
0.47592062
  0
SEQEND
  0
POLYLINE
  8
VECTOR_LAYER_1
 62
256
 66
   1
 39
0.000000
 70
    0
  0
VERTEX
  8
0
 10
7.23256983
 20
0.47592062
  0
VERTEX
  8
0
 10
7.24348684
 20
0.42821628
  0
VERTEX
  8
0
 10
7.25231469
 20
0.38040738
  0
VERTEX
  8
0
 10
7.25909529
 20
0.33260010
  0
VERTEX
  8
0
 10
7.26387053
 20
0.28490059
  0
VERTEX
  8
0
 10
7.26668234
 20
0.23741505
  0
VERTEX
  8
0
 10
7.26757261
 20
0.19024963
  0
VERTEX
  8
0
 10
7.26658326
 20
0.14351051
  0
VERTEX
  8
0
 10
7.26375618
 20
0.09730387
  0
VERTEX
  8
0
 10
7.25913329
 20
0.05173587
  0
VERTEX
  8
0
 10
7.25275650
 20
0.00691269
  0
VERTEX
  8
0
 10
7.24466770
 20
-0.03705951
  0
VERTEX
  8
0
 10
7.23490881
 20
-0.08007454
  0
VERTEX
  8
0
 10
7.22352173
 20
-0.12202624
  0
VERTEX
  8
0
 10
7.21054837
 20
-0.16280844
  0
VERTEX
  8
0
 10
7.19603063
 20
-0.20231496
  0
VERTEX
  8
0
 10
7.18001043
 20
-0.24043963
  0
VERTEX
  8
0
 10
7.16252967
 20
-0.27707627
  0
VERTEX
  8
0
 10
7.14363025
 20
-0.31211873
  0
VERTEX
  8
0
 10
7.12335409
 20
-0.34546082
  0
VERTEX
  8
0
 10
7.10174308
 20
-0.37699637
  0
VERTEX
  8
0
 10
7.07883914
 20
-0.40661922
  0
VERTEX
  8
0
 10
7.05468418
 20
-0.43422318
  0
VERTEX
  8
0
 10
7.02932009
 20
-0.45970209
  0
VERTEX
  8
0
 10
7.00278879
 20
-0.48294978
  0
VERTEX
  8
0
 10
6.97513218
 20
-0.50386007
  0
VERTEX
  8
0
 10
6.94639217
 20
-0.52232679
  0
VERTEX
  8
0
 10
6.91661066
 20
-0.53824376
  0
VERTEX
  8
0
 10
6.88582957
 20
-0.55150483
  0
VERTEX
  8
0
 10
6.85409080
 20
-0.56200381
  0
VERTEX
  8
0
 10
6.83787538
 20
-0.56618434
  0
VERTEX
  8
0
 10
6.82143625
 20
-0.56963453
  0
VERTEX
  8
0
 10
6.80477866
 20
-0.57234112
  0
VERTEX
  8
0
 10
6.78790784
 20
-0.57429082
  0
VERTEX
  8
0
 10
6.77082903
 20
-0.57547038
  0
VERTEX
  8
0
 10
6.75354746
 20
-0.57586652
  0
VERTEX
  8
0
 10
6.73626590
 20
-0.57547038
  0
VERTEX
  8
0
 10
6.71918709
 20
-0.57429082
  0
VERTEX
  8
0
 10
6.70231627
 20
-0.57234112
  0
VERTEX
  8
0
 10
6.68565867
 20
-0.56963453
  0
VERTEX
  8
0
 10
6.66921955
 20
-0.56618434
  0
VERTEX
  8
0
 10
6.65300412
 20
-0.56200381
  0
VERTEX
  8
0
 10
6.62126535
 20
-0.55150483
  0
VERTEX
  8
0
 10
6.59048426
 20
-0.53824376
  0
VERTEX
  8
0
 10
6.56070276
 20
-0.52232679
  0
VERTEX
  8
0
 10
6.53196275
 20
-0.50386007
  0
VERTEX
  8
0
 10
6.50430614
 20
-0.48294978
  0
VERTEX
  8
0
 10
6.47777483
 20
-0.45970209
  0
VERTEX
  8
0
 10
6.45241075
 20
-0.43422318
  0
VERTEX
  8
0
 10
6.42825578
 20
-0.40661922
  0
VERTEX
  8
0
 10
6.40535184
 20
-0.37699637
  0
VERTEX
  8
0
 10
6.38374084
 20
-0.34546082
  0
VERTEX
  8
0
 10
6.36346467
 20
-0.31211873
  0
VERTEX
  8
0
 10
6.34456525
 20
-0.27707627
  0
VERTEX
  8
0
 10
6.32708449
 20
-0.24043963
  0
VERTEX
  8
0
 10
6.31106429
 20
-0.20231496
  0
VERTEX
  8
0
 10
6.29654656
 20
-0.16280844
  0
VERTEX
  8
0
 10
6.28357320
 20
-0.12202624
  0
VERTEX
  8
0
 10
6.27218612
 20
-0.08007454
  0
VERTEX
  8
0
 10
6.26242723
 20
-0.03705951
  0
VERTEX
  8
0
 10
6.25433843
 20
0.00691269
  0
VERTEX
  8
0
 10
6.24796163
 20
0.05173587
  0
VERTEX
  8
0
 10
6.24333874
 20
0.09730387
  0
VERTEX
  8
0
 10
6.24051167
 20
0.14351051
  0
VERTEX
  8
0
 10
6.23952231
 20
0.19024963
  0
VERTEX
  8
0
 10
6.24041258
 20
0.23741505
  0
VERTEX
  8
0
 10
6.24322439
 20
0.28490059
  0
VERTEX
  8
0
 10
6.24799964
 20
0.33260010
  0
VERTEX
  8
0
 10
6.25478023
 20
0.38040738
  0
VERTEX
  8
0
 10
6.26360808
 20
0.42821628
  0
VERTEX
  8
0
 10
6.27452509
 20
0.47592062
  0
SEQEND
  0
POLYLINE
  8
VECTOR_LAYER_1
 62
256
 66
   1
 39
0.000000
 70
    0
  0
VERTEX
  8
0
 10
9.35256983
 20
0.47592062
  0
VERTEX
  8
0
 10
9.36348684
 20
0.42821628
  0
VERTEX
  8
0
 10
9.37231469
 20
0.38040738
  0
VERTEX
  8
0
 10
9.37909529
 20
0.33260010
  0
VERTEX
  8
0
 10
9.38387053
 20
0.28490059
  0
VERTEX
  8
0
 10
9.38668234
 20
0.23741505
  0
VERTEX
  8
0
 10
9.38757261
 20
0.19024963
  0
VERTEX
  8
0
 10
9.38658326
 20
0.14351051
  0
VERTEX
  8
0
 10
9.38375618
 20
0.09730387
  0
VERTEX
  8
0
 10
9.37913329
 20
0.05173587
  0
VERTEX
  8
0
 10
9.37275650
 20
0.00691269
  0
VERTEX
  8
0
 10
9.36466770
 20
-0.03705951
  0
VERTEX
  8
0
 10
9.35490881
 20
-0.08007454
  0
VERTEX
  8
0
 10
9.34352173
 20
-0.12202624
  0
VERTEX
  8
0
 10
9.33054837
 20
-0.16280844
  0
VERTEX
  8
0
 10
9.31603063
 20
-0.20231496
  0
VERTEX
  8
0
 10
9.30001043
 20
-0.24043963
  0
VERTEX
  8
0
 10
9.28252967
 20
-0.27707627
  0
VERTEX
  8
0
 10
9.26363025
 20
-0.31211873
  0
VERTEX
  8
0
 10
9.24335409
 20
-0.34546082
  0
VERTEX
  8
0
 10
9.22174308
 20
-0.37699637
  0
VERTEX
  8
0
 10
9.19883914
 20
-0.40661922
  0
VERTEX
  8
0
 10
9.17468418
 20
-0.43422318
  0
VERTEX
  8
0
 10
9.14932009
 20
-0.45970209
  0
VERTEX
  8
0
 10
9.12278879
 20
-0.48294978
  0
VERTEX
  8
0
 10
9.09513218
 20
-0.50386007
  0
VERTEX
  8
0
 10
9.06639217
 20
-0.52232679
  0
VERTEX
  8
0
 10
9.03661066
 20
-0.53824376
  0
VERTEX
  8
0
 10
9.00582957
 20
-0.55150483
  0
VERTEX
  8
0
 10
8.97409080
 20
-0.56200381
  0
VERTEX
  8
0
 10
8.95787538
 20
-0.56618434
  0
VERTEX
  8
0
 10
8.94143625
 20
-0.56963453
  0
VERTEX
  8
0
 10
8.92477866
 20
-0.57234112
  0
VERTEX
  8
0
 10
8.90790784
 20
-0.57429082
  0
VERTEX
  8
0
 10
8.89082903
 20
-0.57547038
  0
VERTEX
  8
0
 10
8.87354746
 20
-0.57586652
  0
VERTEX
  8
0
 10
8.85626590
 20
-0.57547038
  0
VERTEX
  8
0
 10
8.83918709
 20
-0.57429082
  0
VERTEX
  8
0
 10
8.82231627
 20
-0.57234112
  0
VERTEX
  8
0
 10
8.80565867
 20
-0.56963453
  0
VERTEX
  8
0
 10
8.78921955
 20
-0.56618434
  0
VERTEX
  8
0
 10
8.77300412
 20
-0.56200381
  0
VERTEX
  8
0
 10
8.74126535
 20
-0.55150483
  0
VERTEX
  8
0
 10
8.71048426
 20
-0.53824376
  0
VERTEX
  8
0
 10
8.68070276
 20
-0.52232679
  0
VERTEX
  8
0
 10
8.65196275
 20
-0.50386007
  0
VERTEX
  8
0
 10
8.62430614
 20
-0.48294978
  0
VERTEX
  8
0
 10
8.59777483
 20
-0.45970209
  0
VERTEX
  8
0
 10
8.57241075
 20
-0.43422318
  0
VERTEX
  8
0
 10
8.54825578
 20
-0.40661922
  0
VERTEX
  8
0
 10
8.52535184
 20
-0.37699637
  0
VERTEX
  8
0
 10
8.50374084
 20
-0.34546082
  0
VERTEX
  8
0
 10
8.48346467
 20
-0.31211873
  0
VERTEX
  8
0
 10
8.46456525
 20
-0.27707627
  0
VERTEX
  8
0
 10
8.44708449
 20
-0.24043963
  0
VERTEX
  8
0
 10
8.43106429
 20
-0.20231496
  0
VERTEX
  8
0
 10
8.41654656
 20
-0.16280844
  0
VERTEX
  8
0
 10
8.40357320
 20
-0.12202624
  0
VERTEX
  8
0
 10
8.39218612
 20
-0.08007454
  0
VERTEX
  8
0
 10
8.38242723
 20
-0.03705951
  0
VERTEX
  8
0
 10
8.37433843
 20
0.00691269
  0
VERTEX
  8
0
 10
8.36796163
 20
0.05173587
  0
VERTEX
  8
0
 10
8.36333874
 20
0.09730387
  0
VERTEX
  8
0
 10
8.36051167
 20
0.14351051
  0
VERTEX
  8
0
 10
8.35952231
 20
0.19024963
  0
VERTEX
  8
0
 10
8.36041258
 20
0.23741505
  0
VERTEX
  8
0
 10
8.36322439
 20
0.28490059
  0
VERTEX
  8
0
 10
8.36799964
 20
0.33260010
  0
VERTEX
  8
0
 10
8.37478023
 20
0.38040738
  0
VERTEX
  8
0
 10
8.38360808
 20
0.42821628
  0
VERTEX
  8
0
 10
8.39452509
 20
0.47592062
  0
SEQEND
  0
POLYLINE
  8
VECTOR_LAYER_1
 62
256
 66
   1
 39
0.000000
 70
    0
  0
VERTEX
  8
0
 10
11.47256983
 20
0.47592062
  0
VERTEX
  8
0
 10
11.48348684
 20
0.42821628
  0
VERTEX
  8
0
 10
11.49231469
 20
0.38040738
  0
VERTEX
  8
0
 10
11.49909529
 20
0.33260010
  0
VERTEX
  8
0
 10
11.50387053
 20
0.28490059
  0
VERTEX
  8
0
 10
11.50668234
 20
0.23741505
  0
VERTEX
  8
0
 10
11.50757261
 20
0.19024963
  0
VERTEX
  8
0
 10
11.50658326
 20
0.14351051
  0
VERTEX
  8
0
 10
11.50375618
 20
0.09730387
  0
VERTEX
  8
0
 10
11.49913329
 20
0.05173587
  0
VERTEX
  8
0
 10
11.49275650
 20
0.00691269
  0
VERTEX
  8
0
 10
11.48466770
 20
-0.03705951
  0
VERTEX
  8
0
 10
11.47490881
 20
-0.08007454
  0
VERTEX
  8
0
 10
11.46352173
 20
-0.12202624
  0
VERTEX
  8
0
 10
11.45054837
 20
-0.16280844
  0
VERTEX
  8
0
 10
11.43603063
 20
-0.20231496
  0
VERTEX
  8
0
 10
11.42001043
 20
-0.24043963
  0
VERTEX
  8
0
 10
11.40252967
 20
-0.27707627
  0
VERTEX
  8
0
 10
11.38363025
 20
-0.31211873
  0
VERTEX
  8
0
 10
11.36335409
 20
-0.34546082
  0
VERTEX
  8
0
 10
11.34174308
 20
-0.37699637
  0
VERTEX
  8
0
 10
11.31883914
 20
-0.40661922
  0
VERTEX
  8
0
 10
11.29468418
 20
-0.43422318
  0
VERTEX
  8
0
 10
11.26932009
 20
-0.45970209
  0
VERTEX
  8
0
 10
11.24278879
 20
-0.48294978
  0
VERTEX
  8
0
 10
11.21513218
 20
-0.50386007
  0
VERTEX
  8
0
 10
11.18639217
 20
-0.52232679
  0
VERTEX
  8
0
 10
11.15661066
 20
-0.53824376
  0
VERTEX
  8
0
 10
11.12582957
 20
-0.55150483
  0
VERTEX
  8
0
 10
11.09409080
 20
-0.56200381
  0
VERTEX
  8
0
 10
11.07787538
 20
-0.56618434
  0
VERTEX
  8
0
 10
11.06143625
 20
-0.56963453
  0
VERTEX
  8
0
 10
11.04477866
 20
-0.57234112
  0
VERTEX
  8
0
 10
11.02790784
 20
-0.57429082
  0
VERTEX
  8
0
 10
11.01082903
 20
-0.57547038
  0
VERTEX
  8
0
 10
10.99354746
 20
-0.57586652
  0
VERTEX
  8
0
 10
10.97626590
 20
-0.57547038
  0
VERTEX
  8
0
 10
10.95918709
 20
-0.57429082
  0
VERTEX
  8
0
 10
10.94231627
 20
-0.57234112
  0
VERTEX
  8
0
 10
10.92565867
 20
-0.56963453
  0
VERTEX
  8
0
 10
10.90921955
 20
-0.56618434
  0
VERTEX
  8
0
 10
10.89300412
 20
-0.56200381
  0
VERTEX
  8
0
 10
10.86126535
 20
-0.55150483
  0
VERTEX
  8
0
 10
10.83048426
 20
-0.53824376
  0
VERTEX
  8
0
 10
10.80070276
 20
-0.52232679
  0
VERTEX
  8
0
 10
10.77196275
 20
-0.50386007
  0
VERTEX
  8
0
 10
10.74430614
 20
-0.48294978
  0
VERTEX
  8
0
 10
10.71777483
 20
-0.45970209
  0
VERTEX
  8
0
 10
10.69241075
 20
-0.43422318
  0
VERTEX
  8
0
 10
10.66825578
 20
-0.40661922
  0
VERTEX
  8
0
 10
10.64535184
 20
-0.37699637
  0
VERTEX
  8
0
 10
10.62374084
 20
-0.34546082
  0
VERTEX
  8
0
 10
10.60346467
 20
-0.31211873
  0
VERTEX
  8
0
 10
10.58456525
 20
-0.27707627
  0
VERTEX
  8
0
 10
10.56708449
 20
-0.24043963
  0
VERTEX
  8
0
 10
10.55106429
 20
-0.20231496
  0
VERTEX
  8
0
 10
10.53654656
 20
-0.16280844
  0
VERTEX
  8
0
 10
10.52357320
 20
-0.12202624
  0
VERTEX
  8
0
 10
10.51218612
 20
-0.08007454
  0
VERTEX
  8
0
 10
10.50242723
 20
-0.03705951
  0
VERTEX
  8
0
 10
10.49433843
 20
0.00691269
  0
VERTEX
  8
0
 10
10.48796163
 20
0.05173587
  0
VERTEX
  8
0
 10
10.48333874
 20
0.09730387
  0
VERTEX
  8
0
 10
10.48051167
 20
0.14351051
  0
VERTEX
  8
0
 10
10.47952231
 20
0.19024963
  0
VERTEX
  8
0
 10
10.48041258
 20
0.23741505
  0
VERTEX
  8
0
 10
10.48322439
 20
0.28490059
  0
VERTEX
  8
0
 10
10.48799964
 20
0.33260010
  0
VERTEX
  8
0
 10
10.49478023
 20
0.38040738
  0
VERTEX
  8
0
 10
10.50360808
 20
0.42821628
  0
VERTEX
  8
0
 10
10.51452509
 20
0.47592062
  0
SEQEND
  0
POLYLINE
  8
VECTOR_LAYER_1
 62
256
 66
   1
 39
0.000000
 70
    0
  0
VERTEX
  8
0
 10
13.59256983
 20
0.47592062
  0
VERTEX
  8
0
 10
13.60348684
 20
0.42821628
  0
VERTEX
  8
0
 10
13.61231469
 20
0.38040738
  0
VERTEX
  8
0
 10
13.61909529
 20
0.33260010
  0
VERTEX
  8
0
 10
13.62387053
 20
0.28490059
  0
VERTEX
  8
0
 10
13.62668234
 20
0.23741505
  0
VERTEX
  8
0
 10
13.62757261
 20
0.19024963
  0
VERTEX
  8
0
 10
13.62658326
 20
0.14351051
  0
VERTEX
  8
0
 10
13.62375618
 20
0.09730387
  0
VERTEX
  8
0
 10
13.61913329
 20
0.05173587
  0
VERTEX
  8
0
 10
13.61275650
 20
0.00691269
  0
VERTEX
  8
0
 10
13.60466770
 20
-0.03705951
  0
VERTEX
  8
0
 10
13.59490881
 20
-0.08007454
  0
VERTEX
  8
0
 10
13.58352173
 20
-0.12202624
  0
VERTEX
  8
0
 10
13.57054837
 20
-0.16280844
  0
VERTEX
  8
0
 10
13.55603063
 20
-0.20231496
  0
VERTEX
  8
0
 10
13.54001043
 20
-0.24043963
  0
VERTEX
  8
0
 10
13.52252967
 20
-0.27707627
  0
VERTEX
  8
0
 10
13.50363025
 20
-0.31211873
  0
VERTEX
  8
0
 10
13.48335409
 20
-0.34546082
  0
VERTEX
  8
0
 10
13.46174308
 20
-0.37699637
  0
VERTEX
  8
0
 10
13.43883914
 20
-0.40661922
  0
VERTEX
  8
0
 10
13.41468418
 20
-0.43422318
  0
VERTEX
  8
0
 10
13.38932009
 20
-0.45970209
  0
VERTEX
  8
0
 10
13.36278879
 20
-0.48294978
  0
VERTEX
  8
0
 10
13.33513218
 20
-0.50386007
  0
VERTEX
  8
0
 10
13.30639217
 20
-0.52232679
  0
VERTEX
  8
0
 10
13.27661066
 20
-0.53824376
  0
VERTEX
  8
0
 10
13.24582957
 20
-0.55150483
  0
VERTEX
  8
0
 10
13.21409080
 20
-0.56200381
  0
VERTEX
  8
0
 10
13.19787538
 20
-0.56618434
  0
VERTEX
  8
0
 10
13.18143625
 20
-0.56963453
  0
VERTEX
  8
0
 10
13.16477866
 20
-0.57234112
  0
VERTEX
  8
0
 10
13.14790784
 20
-0.57429082
  0
VERTEX
  8
0
 10
13.13082903
 20
-0.57547038
  0
VERTEX
  8
0
 10
13.11354746
 20
-0.57586652
  0
VERTEX
  8
0
 10
13.09626590
 20
-0.57547038
  0
VERTEX
  8
0
 10
13.07918709
 20
-0.57429082
  0
VERTEX
  8
0
 10
13.06231627
 20
-0.57234112
  0
VERTEX
  8
0
 10
13.04565867
 20
-0.56963453
  0
VERTEX
  8
0
 10
13.02921955
 20
-0.56618434
  0
VERTEX
  8
0
 10
13.01300412
 20
-0.56200381
  0
VERTEX
  8
0
 10
12.98126535
 20
-0.55150483
  0
VERTEX
  8
0
 10
12.95048426
 20
-0.53824376
  0
VERTEX
  8
0
 10
12.92070276
 20
-0.52232679
  0
VERTEX
  8
0
 10
12.89196275
 20
-0.50386007
  0
VERTEX
  8
0
 10
12.86430614
 20
-0.48294978
  0
VERTEX
  8
0
 10
12.83777483
 20
-0.45970209
  0
VERTEX
  8
0
 10
12.81241075
 20
-0.43422318
  0
VERTEX
  8
0
 10
12.78825578
 20
-0.40661922
  0
VERTEX
  8
0
 10
12.76535184
 20
-0.37699637
  0
VERTEX
  8
0
 10
12.74374084
 20
-0.34546082
  0
VERTEX
  8
0
 10
12.72346467
 20
-0.31211873
  0
VERTEX
  8
0
 10
12.70456525
 20
-0.27707627
  0
VERTEX
  8
0
 10
12.68708449
 20
-0.24043963
  0
VERTEX
  8
0
 10
12.67106429
 20
-0.20231496
  0
VERTEX
  8
0
 10
12.65654656
 20
-0.16280844
  0
VERTEX
  8
0
 10
12.64357320
 20
-0.12202624
  0
VERTEX
  8
0
 10
12.63218612
 20
-0.08007454
  0
VERTEX
  8
0
 10
12.62242723
 20
-0.03705951
  0
VERTEX
  8
0
 10
12.61433843
 20
0.00691269
  0
VERTEX
  8
0
 10
12.60796163
 20
0.05173587
  0
VERTEX
  8
0
 10
12.60333874
 20
0.09730387
  0
VERTEX
  8
0
 10
12.60051167
 20
0.14351051
  0
VERTEX
  8
0
 10
12.59952231
 20
0.19024963
  0
VERTEX
  8
0
 10
12.60041258
 20
0.23741505
  0
VERTEX
  8
0
 10
12.60322439
 20
0.28490059
  0
VERTEX
  8
0
 10
12.60799964
 20
0.33260010
  0
VERTEX
  8
0
 10
12.61478023
 20
0.38040738
  0
VERTEX
  8
0
 10
12.62360808
 20
0.42821628
  0
VERTEX
  8
0
 10
12.63452509
 20
0.47592062
  0
SEQEND
  0
POLYLINE
  8
VECTOR_LAYER_1
 62
256
 66
   1
 39
0.000000
 70
    0
  0
VERTEX
  8
0
 10
15.71256983
 20
0.47592062
  0
VERTEX
  8
0
 10
15.72348684
 20
0.42821628
  0
VERTEX
  8
0
 10
15.73231469
 20
0.38040738
  0
VERTEX
  8
0
 10
15.73909529
 20
0.33260010
  0
VERTEX
  8
0
 10
15.74387053
 20
0.28490059
  0
VERTEX
  8
0
 10
15.74668234
 20
0.23741505
  0
VERTEX
  8
0
 10
15.74757261
 20
0.19024963
  0
VERTEX
  8
0
 10
15.74658326
 20
0.14351051
  0
VERTEX
  8
0
 10
15.74375618
 20
0.09730387
  0
VERTEX
  8
0
 10
15.73913329
 20
0.05173587
  0
VERTEX
  8
0
 10
15.73275650
 20
0.00691269
  0
VERTEX
  8
0
 10
15.72466770
 20
-0.03705951
  0
VERTEX
  8
0
 10
15.71490881
 20
-0.08007454
  0
VERTEX
  8
0
 10
15.70352173
 20
-0.12202624
  0
VERTEX
  8
0
 10
15.69054837
 20
-0.16280844
  0
VERTEX
  8
0
 10
15.67603063
 20
-0.20231496
  0
VERTEX
  8
0
 10
15.66001043
 20
-0.24043963
  0
VERTEX
  8
0
 10
15.64252967
 20
-0.27707627
  0
VERTEX
  8
0
 10
15.62363025
 20
-0.31211873
  0
VERTEX
  8
0
 10
15.60335409
 20
-0.34546082
  0
VERTEX
  8
0
 10
15.58174308
 20
-0.37699637
  0
VERTEX
  8
0
 10
15.55883914
 20
-0.40661922
  0
VERTEX
  8
0
 10
15.53468418
 20
-0.43422318
  0
VERTEX
  8
0
 10
15.50932009
 20
-0.45970209
  0
VERTEX
  8
0
 10
15.48278879
 20
-0.48294978
  0
VERTEX
  8
0
 10
15.45513218
 20
-0.50386007
  0
VERTEX
  8
0
 10
15.42639217
 20
-0.52232679
  0
VERTEX
  8
0
 10
15.39661066
 20
-0.53824376
  0
VERTEX
  8
0
 10
15.36582957
 20
-0.55150483
  0
VERTEX
  8
0
 10
15.33409080
 20
-0.56200381
  0
VERTEX
  8
0
 10
15.31787538
 20
-0.56618434
  0
VERTEX
  8
0
 10
15.30143625
 20
-0.56963453
  0
VERTEX
  8
0
 10
15.28477866
 20
-0.57234112
  0
VERTEX
  8
0
 10
15.26790784
 20
-0.57429082
  0
VERTEX
  8
0
 10
15.25082903
 20
-0.57547038
  0
VERTEX
  8
0
 10
15.23354746
 20
-0.57586652
  0
VERTEX
  8
0
 10
15.21626590
 20
-0.57547038
  0
VERTEX
  8
0
 10
15.19918709
 20
-0.57429082
  0
VERTEX
  8
0
 10
15.18231627
 20
-0.57234112
  0
VERTEX
  8
0
 10
15.16565867
 20
-0.56963453
  0
VERTEX
  8
0
 10
15.14921955
 20
-0.56618434
  0
VERTEX
  8
0
 10
15.13300412
 20
-0.56200381
  0
VERTEX
  8
0
 10
15.10126535
 20
-0.55150483
  0
VERTEX
  8
0
 10
15.07048426
 20
-0.53824376
  0
VERTEX
  8
0
 10
15.04070276
 20
-0.52232679
  0
VERTEX
  8
0
 10
15.01196275
 20
-0.50386007
  0
VERTEX
  8
0
 10
14.98430614
 20
-0.48294978
  0
VERTEX
  8
0
 10
14.95777483
 20
-0.45970209
  0
VERTEX
  8
0
 10
14.93241075
 20
-0.43422318
  0
VERTEX
  8
0
 10
14.90825578
 20
-0.40661922
  0
VERTEX
  8
0
 10
14.88535184
 20
-0.37699637
  0
VERTEX
  8
0
 10
14.86374084
 20
-0.34546082
  0
VERTEX
  8
0
 10
14.84346467
 20
-0.31211873
  0
VERTEX
  8
0
 10
14.82456525
 20
-0.27707627
  0
VERTEX
  8
0
 10
14.80708449
 20
-0.24043963
  0
VERTEX
  8
0
 10
14.79106429
 20
-0.20231496
  0
VERTEX
  8
0
 10
14.77654656
 20
-0.16280844
  0
VERTEX
  8
0
 10
14.76357320
 20
-0.12202624
  0
VERTEX
  8
0
 10
14.75218612
 20
-0.08007454
  0
VERTEX
  8
0
 10
14.74242723
 20
-0.03705951
  0
VERTEX
  8
0
 10
14.73433843
 20
0.00691269
  0
VERTEX
  8
0
 10
14.72796163
 20
0.05173587
  0
VERTEX
  8
0
 10
14.72333874
 20
0.09730387
  0
VERTEX
  8
0
 10
14.72051167
 20
0.14351051
  0
VERTEX
  8
0
 10
14.71952231
 20
0.19024963
  0
VERTEX
  8
0
 10
14.72041258
 20
0.23741505
  0
VERTEX
  8
0
 10
14.72322439
 20
0.28490059
  0
VERTEX
  8
0
 10
14.72799964
 20
0.33260010
  0
VERTEX
  8
0
 10
14.73478023
 20
0.38040738
  0
VERTEX
  8
0
 10
14.74360808
 20
0.42821628
  0
VERTEX
  8
0
 10
14.75452509
 20
0.47592062
  0
SEQEND
  0
POLYLINE
  8
VECTOR_LAYER_1
 62
256
 66
   1
 39
0.000000
 70
    0
  0
VERTEX
  8
0
 10
17.83256983
 20
0.47592062
  0
VERTEX
  8
0
 10
17.84348684
 20
0.42821628
  0
VERTEX
  8
0
 10
17.85231469
 20
0.38040738
  0
VERTEX
  8
0
 10
17.85909529
 20
0.33260010
  0
VERTEX
  8
0
 10
17.86387053
 20
0.28490059
  0
VERTEX
  8
0
 10
17.86668234
 20
0.23741505
  0
VERTEX
  8
0
 10
17.86757261
 20
0.19024963
  0
VERTEX
  8
0
 10
17.86658326
 20
0.14351051
  0
VERTEX
  8
0
 10
17.86375618
 20
0.09730387
  0
VERTEX
  8
0
 10
17.85913329
 20
0.05173587
  0
VERTEX
  8
0
 10
17.85275650
 20
0.00691269
  0
VERTEX
  8
0
 10
17.84466770
 20
-0.03705951
  0
VERTEX
  8
0
 10
17.83490881
 20
-0.08007454
  0
VERTEX
  8
0
 10
17.82352173
 20
-0.12202624
  0
VERTEX
  8
0
 10
17.81054837
 20
-0.16280844
  0
VERTEX
  8
0
 10
17.79603063
 20
-0.20231496
  0
VERTEX
  8
0
 10
17.78001043
 20
-0.24043963
  0
VERTEX
  8
0
 10
17.76252967
 20
-0.27707627
  0
VERTEX
  8
0
 10
17.74363025
 20
-0.31211873
  0
VERTEX
  8
0
 10
17.72335409
 20
-0.34546082
  0
VERTEX
  8
0
 10
17.70174308
 20
-0.37699637
  0
VERTEX
  8
0
 10
17.67883914
 20
-0.40661922
  0
VERTEX
  8
0
 10
17.65468418
 20
-0.43422318
  0
VERTEX
  8
0
 10
17.62932009
 20
-0.45970209
  0
VERTEX
  8
0
 10
17.60278879
 20
-0.48294978
  0
VERTEX
  8
0
 10
17.57513218
 20
-0.50386007
  0
VERTEX
  8
0
 10
17.54639217
 20
-0.52232679
  0
VERTEX
  8
0
 10
17.51661066
 20
-0.53824376
  0
VERTEX
  8
0
 10
17.48582957
 20
-0.55150483
  0
VERTEX
  8
0
 10
17.45409080
 20
-0.56200381
  0
VERTEX
  8
0
 10
17.43787538
 20
-0.56618434
  0
VERTEX
  8
0
 10
17.42143625
 20
-0.56963453
  0
VERTEX
  8
0
 10
17.40477866
 20
-0.57234112
  0
VERTEX
  8
0
 10
17.38790784
 20
-0.57429082
  0
VERTEX
  8
0
 10
17.37082903
 20
-0.57547038
  0
VERTEX
  8
0
 10
17.35354746
 20
-0.57586652
  0
VERTEX
  8
0
 10
17.33626590
 20
-0.57547038
  0
VERTEX
  8
0
 10
17.31918709
 20
-0.57429082
  0
VERTEX
  8
0
 10
17.30231627
 20
-0.57234112
  0
VERTEX
  8
0
 10
17.28565867
 20
-0.56963453
  0
VERTEX
  8
0
 10
17.26921955
 20
-0.56618434
  0
VERTEX
  8
0
 10
17.25300412
 20
-0.56200381
  0
VERTEX
  8
0
 10
17.22126535
 20
-0.55150483
  0
VERTEX
  8
0
 10
17.19048426
 20
-0.53824376
  0
VERTEX
  8
0
 10
17.16070276
 20
-0.52232679
  0
VERTEX
  8
0
 10
17.13196275
 20
-0.50386007
  0
VERTEX
  8
0
 10
17.10430614
 20
-0.48294978
  0
VERTEX
  8
0
 10
17.07777483
 20
-0.45970209
  0
VERTEX
  8
0
 10
17.05241075
 20
-0.43422318
  0
VERTEX
  8
0
 10
17.02825578
 20
-0.40661922
  0
VERTEX
  8
0
 10
17.00535184
 20
-0.37699637
  0
VERTEX
  8
0
 10
16.98374084
 20
-0.34546082
  0
VERTEX
  8
0
 10
16.96346467
 20
-0.31211873
  0
VERTEX
  8
0
 10
16.94456525
 20
-0.27707627
  0
VERTEX
  8
0
 10
16.92708449
 20
-0.24043963
  0
VERTEX
  8
0
 10
16.91106429
 20
-0.20231496
  0
VERTEX
  8
0
 10
16.89654656
 20
-0.16280844
  0
VERTEX
  8
0
 10
16.88357320
 20
-0.12202624
  0
VERTEX
  8
0
 10
16.87218612
 20
-0.08007454
  0
VERTEX
  8
0
 10
16.86242723
 20
-0.03705951
  0
VERTEX
  8
0
 10
16.85433843
 20
0.00691269
  0
VERTEX
  8
0
 10
16.84796163
 20
0.05173587
  0
VERTEX
  8
0
 10
16.84333874
 20
0.09730387
  0
VERTEX
  8
0
 10
16.84051167
 20
0.14351051
  0
VERTEX
  8
0
 10
16.83952231
 20
0.19024963
  0
VERTEX
  8
0
 10
16.84041258
 20
0.23741505
  0
VERTEX
  8
0
 10
16.84322439
 20
0.28490059
  0
VERTEX
  8
0
 10
16.84799964
 20
0.33260010
  0
VERTEX
  8
0
 10
16.85478023
 20
0.38040738
  0
VERTEX
  8
0
 10
16.86360808
 20
0.42821628
  0
VERTEX
  8
0
 10
16.87452509
 20
0.47592062
  0
SEQEND
  0
POLYLINE
  8
VECTOR_LAYER_1
 62
256
 66
   1
 39
0.000000
 70
    0
  0
VERTEX
  8
0
 10
0.65193767
 20
0.47592062
  0
VERTEX
  8
0
 10
1.02693767
 20
0.47592062
  0
VERTEX
  8
0
 10
1.02693767
 20
0.75717062
  0
VERTEX
  8
0
 10
0.65193767
 20
0.75717062
  0
SEQEND
  0
POLYLINE
  8
VECTOR_LAYER_1
 62
256
 66
   1
 39
0.000000
 70
    0
  0
VERTEX
  8
0
 10
0.99612237
 20
0.47592062
  0
VERTEX
  8
0
 10
1.01838909
 20
0.41395924
  0
VERTEX
  8
0
 10
1.03762971
 20
0.35109607
  0
VERTEX
  8
0
 10
1.05316860
 20
0.28726396
  0
VERTEX
  8
0
 10
1.05933875
 20
0.25496357
  0
VERTEX
  8
0
 10
1.06433007
 20
0.22239578
  0
VERTEX
  8
0
 10
1.06951905
 20
0.17492039
  0
VERTEX
  8
0
 10
1.07245571
 20
0.12732827
  0
VERTEX
  8
0
 10
1.07320974
 20
0.07968643
  0
VERTEX
  8
0
 10
1.07185092
 20
0.03206182
  0
VERTEX
  8
0
 10
1.06844900
 20
-0.01547857
  0
VERTEX
  8
0
 10
1.06307370
 20
-0.06286775
  0
VERTEX
  8
0
 10
1.05579480
 20
-0.11003876
  0
VERTEX
  8
0
 10
1.04668202
 20
-0.15692459
  0
VERTEX
  8
0
 10
1.03721225
 20
-0.19644302
  0
VERTEX
  8
0
 10
1.02584660
 20
-0.23536408
  0
VERTEX
  8
0
 10
1.01258216
 20
-0.27361729
  0
VERTEX
  8
0
 10
0.99741600
 20
-0.31113218
  0
VERTEX
  8
0
 10
0.98034524
 20
-0.34783831
  0
VERTEX
  8
0
 10
0.96136692
 20
-0.38366521
  0
VERTEX
  8
0
 10
0.94047816
 20
-0.41854240
  0
VERTEX
  8
0
 10
0.91767603
 20
-0.45239942
  0
VERTEX
  8
0
 10
0.90149144
 20
-0.47309648
  0
VERTEX
  8
0
 10
0.88372772
 20
-0.49245584
  0
VERTEX
  8
0
 10
0.86459021
 20
-0.51030695
  0
VERTEX
  8
0
 10
0.84434273
 20
-0.52688095
  0
VERTEX
  8
0
 10
0.80658278
 20
-0.55313185
  0
VERTEX
  8
0
 10
0.76686906
 20
-0.57633578
  0
VERTEX
  8
0
 10
0.75566907
 20
-0.58231273
  0
SEQEND
  0
POLYLINE
  8
VECTOR_LAYER_1
 62
256
 66
   1
 39
0.000000
 70
    0
  0
VERTEX
  8
0
 10
0.65179283
 20
-0.74282938
  0
VERTEX
  8
0
 10
0.65519651
 20
-0.73376630
  0
VERTEX
  8
0
 10
0.66049458
 20
-0.72573674
  0
VERTEX
  8
0
 10
0.67301721
 20
-0.71057287
  0
VERTEX
  8
0
 10
0.69903045
 20
-0.67469659
  0
VERTEX
  8
0
 10
0.72328542
 20
-0.63782083
  0
VERTEX
  8
0
 10
0.74584341
 20
-0.60001550
  0
VERTEX
  8
0
 10
0.76676568
 20
-0.56135054
  0
VERTEX
  8
0
 10
0.78611352
 20
-0.52189586
  0
VERTEX
  8
0
 10
0.80394819
 20
-0.48172138
  0
VERTEX
  8
0
 10
0.82033100
 20
-0.44089699
  0
VERTEX
  8
0
 10
0.83532320
 20
-0.39949265
  0
VERTEX
  8
0
 10
0.84898607
 20
-0.35757826
  0
VERTEX
  8
0
 10
0.86138090
 20
-0.31522373
  0
VERTEX
  8
0
 10
0.87256895
 20
-0.27249899
  0
VERTEX
  8
0
 10
0.88261151
 20
-0.22947395
  0
VERTEX
  8
0
 10
0.89950524
 20
-0.14280266
  0
VERTEX
  8
0
 10
0.91255233
 20
-0.05576923
  0
VERTEX
  8
0
 10
0.91875576
 20
-0.00252254
  0
VERTEX
  8
0
 10
0.92348108
 20
0.05097665
  0
VERTEX
  8
0
 10
0.92655852
 20
0.10464458
  0
VERTEX
  8
0
 10
0.92781827
 20
0.15839747
  0
VERTEX
  8
0
 10
0.92709054
 20
0.21215153
  0
VERTEX
  8
0
 10
0.92420555
 20
0.26582296
  0
VERTEX
  8
0
 10
0.91899348
 20
0.31932799
  0
VERTEX
  8
0
 10
0.91128456
 20
0.37258283
  0
VERTEX
  8
0
 10
0.90152483
 20
0.42452366
  0
VERTEX
  8
0
 10
0.89008401
 20
0.47592062
  0
SEQEND
  0
POLYLINE
  8
VECTOR_LAYER_1
 62
256
 66
   1
 39
0.000000
 70
    1
  0
VERTEX
  8
0
 10
1.46409807
 20
-0.74282938
  0
VERTEX
  8
0
 10
18.35489864
 20
-0.74282938
  0
VERTEX
  8
0
 10
18.35489864
 20
0.75717062
  0
VERTEX
  8
0
 10
1.46409807
 20
0.75717062
  0
VERTEX
  8
0
 10
1.46409807
 20
-0.74282938
  0
SEQEND
  0
POLYLINE
  8
VECTOR_LAYER_1
 62
256
 66
   1
 39
0.000000
 70
    1
  0
VERTEX
  8
0
 10
1.46409807
 20
0.75717062
  0
VERTEX
  8
0
 10
18.35489864
 20
0.75717062
  0
VERTEX
  8
0
 10
18.35489864
 20
0.47592062
  0
VERTEX
  8
0
 10
1.46409807
 20
0.47592062
  0
VERTEX
  8
0
 10
1.46409807
 20
0.75717062
  0
SEQEND
  0
POLYLINE
  8
VECTOR_LAYER_1
 62
256
 66
   1
 39
0.000000
 70
    0
  0
VERTEX
  8
0
 10
1.58970222
 20
0.47592062
  0
VERTEX
  8
0
 10
1.58715450
 20
0.10197398
  0
VERTEX
  8
0
 10
1.58714973
 20
-0.21100669
  0
VERTEX
  8
0
 10
1.58731002
 20
-0.27476854
  0
VERTEX
  8
0
 10
1.58906754
 20
-0.30682945
  0
VERTEX
  8
0
 10
1.59292253
 20
-0.33939851
  0
VERTEX
  8
0
 10
1.60357067
 20
-0.32706070
  0
VERTEX
  8
0
 10
1.61644703
 20
-0.31479103
  0
VERTEX
  8
0
 10
1.64664240
 20
-0.29015245
  0
VERTEX
  8
0
 10
1.67902463
 20
-0.26487533
  0
VERTEX
  8
0
 10
1.69463457
 20
-0.25180751
  0
VERTEX
  8
0
 10
1.70910972
 20
-0.23835227
  0
VERTEX
  8
0
 10
1.72188960
 20
-0.22443368
  0
VERTEX
  8
0
 10
1.73241371
 20
-0.20997583
  0
VERTEX
  8
0
 10
1.74012152
 20
-0.19490276
  0
VERTEX
  8
0
 10
1.74445257
 20
-0.17913857
  0
VERTEX
  8
0
 10
1.74484634
 20
-0.16260731
  0
VERTEX
  8
0
 10
1.74339158
 20
-0.15403031
  0
VERTEX
  8
0
 10
1.74074232
 20
-0.14523308
  0
VERTEX
  8
0
 10
1.73158004
 20
-0.12693992
  0
VERTEX
  8
0
 10
1.71679898
 20
-0.10765192
  0
VERTEX
  8
0
 10
1.68684842
 20
-0.01863674
  0
VERTEX
  8
0
 10
1.67608920
 20
0.02374195
  0
VERTEX
  8
0
 10
1.66814586
 20
0.06671882
  0
VERTEX
  8
0
 10
1.66273799
 20
0.11010389
  0
VERTEX
  8
0
 10
1.65958509
 20
0.15370720
  0
VERTEX
  8
0
 10
1.65716142
 20
0.26840657
  0
VERTEX
  8
0
 10
1.65760949
 20
0.32048266
  0
VERTEX
  8
0
 10
1.65838848
 20
0.37274197
  0
VERTEX
  8
0
 10
1.65974445
 20
0.39879389
  0
VERTEX
  8
0
 10
1.66219401
 20
0.42471589
  0
VERTEX
  8
0
 10
1.66607411
 20
0.45044938
  0
VERTEX
  8
0
 10
1.67172170
 20
0.47593580
  0
SEQEND
  0
POLYLINE
  8
VECTOR_LAYER_1
 62
256
 66
   1
 39
0.000000
 70
    0
  0
VERTEX
  8
0
 10
3.36224121
 20
0.47592043
  0
VERTEX
  8
0
 10
3.36824906
 20
0.44943554
  0
VERTEX
  8
0
 10
3.37215957
 20
0.42266683
  0
VERTEX
  8
0
 10
3.37440387
 20
0.39568367
  0
VERTEX
  8
0
 10
3.37541310
 20
0.36855547
  0
VERTEX
  8
0
 10
3.37545086
 20
0.31414138
  0
VERTEX
  8
0
 10
3.37572191
 20
0.25997960
  0
VERTEX
  8
0
 10
3.37300922
 20
0.13737964
  0
VERTEX
  8
0
 10
3.36971342
 20
0.09286706
  0
VERTEX
  8
0
 10
3.36395460
 20
0.04859642
  0
VERTEX
  8
0
 10
3.35531153
 20
0.00482479
  0
VERTEX
  8
0
 10
3.34336299
 20
-0.03819079
  0
VERTEX
  8
0
 10
3.31034381
 20
-0.12730897
  0
VERTEX
  8
0
 10
3.28444904
 20
-0.19015933
  0
VERTEX
  8
0
 10
3.36378990
 20
-0.26424716
  0
VERTEX
  8
0
 10
3.38406762
 20
-0.28459606
  0
VERTEX
  8
0
 10
3.40527441
 20
-0.30321590
  0
VERTEX
  8
0
 10
3.44969721
 20
-0.33836660
  0
VERTEX
  8
0
 10
3.45110162
 20
-0.32877422
  0
VERTEX
  8
0
 10
3.45203951
 20
-0.31904630
  0
VERTEX
  8
0
 10
3.45470757
 20
-0.21555347
  0
VERTEX
  8
0
 10
3.45596708
 20
-0.00142853
  0
VERTEX
  8
0
 10
3.45496659
 20
0.21269809
  0
VERTEX
  8
0
 10
3.45350139
 20
0.34291829
  0
VERTEX
  8
0
 10
3.45022311
 20
0.47309897
  0
VERTEX
  8
0
 10
3.45011429
 20
0.47592062
  0
SEQEND
  0
POLYLINE
  8
VECTOR_LAYER_1
 62
256
 66
   1
 39
0.000000
 70
    0
  0
VERTEX
  8
0
 10
3.70072614
 20
0.47592062
  0
VERTEX
  8
0
 10
3.69730926
 20
0.41061104
  0
VERTEX
  8
0
 10
3.69483852
 20
0.30420982
  0
VERTEX
  8
0
 10
3.69236765
 20
0.02658959
  0
VERTEX
  8
0
 10
3.69346889
 20
-0.23241638
  0
VERTEX
  8
0
 10
3.69390693
 20
-0.28968005
  0
VERTEX
  8
0
 10
3.69846395
 20
-0.34676197
  0
VERTEX
  8
0
 10
3.74222924
 20
-0.30907703
  0
VERTEX
  8
0
 10
3.78310821
 20
-0.26827804
  0
VERTEX
  8
0
 10
3.86126580
 20
-0.18979409
  0
VERTEX
  8
0
 10
3.83531121
 20
-0.12497558
  0
VERTEX
  8
0
 10
3.80206485
 20
-0.03443137
  0
VERTEX
  8
0
 10
3.79041135
 20
0.00748538
  0
VERTEX
  8
0
 10
3.78223368
 20
0.05017987
  0
VERTEX
  8
0
 10
3.77702834
 20
0.09337123
  0
VERTEX
  8
0
 10
3.77429184
 20
0.13677860
  0
VERTEX
  8
0
 10
3.77216408
 20
0.26419309
  0
VERTEX
  8
0
 10
3.77241854
 20
0.31723151
  0
VERTEX
  8
0
 10
3.77213864
 20
0.37046092
  0
VERTEX
  8
0
 10
3.77277891
 20
0.39702370
  0
VERTEX
  8
0
 10
3.77446230
 20
0.42348602
  0
VERTEX
  8
0
 10
3.77758106
 20
0.44979844
  0
VERTEX
  8
0
 10
3.78252740
 20
0.47591155
  0
SEQEND
  0
POLYLINE
  8
VECTOR_LAYER_1
 62
256
 66
   1
 39
0.000000
 70
    0
  0
VERTEX
  8
0
 10
5.47382331
 20
0.47592062
  0
VERTEX
  8
0
 10
5.48147121
 20
0.43644808
  0
VERTEX
  8
0
 10
5.48648691
 20
0.39715207
  0
VERTEX
  8
0
 10
5.48969604
 20
0.35760446
  0
VERTEX
  8
0
 10
5.49192416
 20
0.31737718
  0
VERTEX
  8
0
 10
5.49287135
 20
0.22270084
  0
VERTEX
  8
0
 10
5.49031763
 20
0.17004931
  0
VERTEX
  8
0
 10
5.48511600
 20
0.11755151
  0
VERTEX
  8
0
 10
5.47722737
 20
0.06537793
  0
VERTEX
  8
0
 10
5.46661256
 20
0.01369904
  0
VERTEX
  8
0
 10
5.45323242
 20
-0.03731470
  0
VERTEX
  8
0
 10
5.43704783
 20
-0.08749280
  0
VERTEX
  8
0
 10
5.41801962
 20
-0.13666480
  0
VERTEX
  8
0
 10
5.39610867
 20
-0.18466021
  0
VERTEX
  8
0
 10
5.47778709
 20
-0.26600140
  0
VERTEX
  8
0
 10
5.49911910
 20
-0.28556369
  0
VERTEX
  8
0
 10
5.51989662
 20
-0.30583298
  0
VERTEX
  8
0
 10
5.54148692
 20
-0.32503886
  0
VERTEX
  8
0
 10
5.55301413
 20
-0.33368978
  0
VERTEX
  8
0
 10
5.56525725
 20
-0.34141096
  0
VERTEX
  8
0
 10
5.56720991
 20
-0.32384467
  0
VERTEX
  8
0
 10
5.56835588
 20
-0.30646909
  0
VERTEX
  8
0
 10
5.57078463
 20
-0.16151660
  0
VERTEX
  8
0
 10
5.57081990
 20
0.09741599
  0
VERTEX
  8
0
 10
5.56760202
 20
0.35632906
  0
VERTEX
  8
0
 10
5.56475295
 20
0.45226615
  0
VERTEX
  8
0
 10
5.56345832
 20
0.47592062
  0
SEQEND
  0
POLYLINE
  8
VECTOR_LAYER_1
 62
256
 66
   1
 39
0.000000
 70
    0
  0
VERTEX
  8
0
 10
5.81409917
 20
0.47592062
  0
VERTEX
  8
0
 10
5.81053169
 20
0.40616045
  0
VERTEX
  8
0
 10
5.80881770
 20
0.33632746
  0
VERTEX
  8
0
 10
5.80714583
 20
0.06084205
  0
VERTEX
  8
0
 10
5.80929809
 20
-0.23872142
  0
VERTEX
  8
0
 10
5.80877025
 20
-0.26372398
  0
VERTEX
  8
0
 10
5.80967646
 20
-0.28871642
  0
VERTEX
  8
0
 10
5.81201216
 20
-0.31361560
  0
VERTEX
  8
0
 10
5.81577279
 20
-0.33833833
  0
VERTEX
  8
0
 10
5.83933560
 20
-0.32091305
  0
VERTEX
  8
0
 10
5.86205483
 20
-0.30212254
  0
VERTEX
  8
0
 10
5.88372528
 20
-0.28220503
  0
VERTEX
  8
0
 10
5.90414174
 20
-0.26139877
  0
VERTEX
  8
0
 10
5.92053863
 20
-0.24536954
  0
VERTEX
  8
0
 10
5.93727611
 20
-0.22938506
  0
VERTEX
  8
0
 10
5.95195326
 20
-0.21191804
  0
VERTEX
  8
0
 10
5.95776894
 20
-0.20215132
  0
VERTEX
  8
0
 10
5.96216921
 20
-0.19144124
  0
VERTEX
  8
0
 10
5.96278646
 20
-0.18230042
  0
VERTEX
  8
0
 10
5.96229392
 20
-0.17331605
  0
VERTEX
  8
0
 10
5.95873184
 20
-0.15573622
  0
VERTEX
  8
0
 10
5.95298769
 20
-0.13854089
  0
VERTEX
  8
0
 10
5.94656619
 20
-0.12156923
  0
VERTEX
  8
0
 10
5.92244526
 20
-0.05303815
  0
VERTEX
  8
0
 10
5.91161012
 20
-0.01833542
  0
VERTEX
  8
0
 10
5.90198936
 20
0.01668601
  0
VERTEX
  8
0
 10
5.89388108
 20
0.05204660
  0
VERTEX
  8
0
 10
5.88758345
 20
0.08776681
  0
VERTEX
  8
0
 10
5.88339455
 20
0.12386708
  0
VERTEX
  8
0
 10
5.88161250
 20
0.16036787
  0
VERTEX
  8
0
 10
5.87912831
 20
0.26840657
  0
VERTEX
  8
0
 10
5.88238149
 20
0.39618212
  0
VERTEX
  8
0
 10
5.88396935
 20
0.41636911
  0
VERTEX
  8
0
 10
5.88689933
 20
0.43641101
  0
VERTEX
  8
0
 10
5.89551900
 20
0.47596084
  0
SEQEND
  0
POLYLINE
  8
VECTOR_LAYER_1
 62
256
 66
   1
 39
0.000000
 70
    0
  0
VERTEX
  8
0
 10
7.58725407
 20
0.47592062
  0
VERTEX
  8
0
 10
7.59214874
 20
0.45033205
  0
VERTEX
  8
0
 10
7.59526539
 20
0.42454558
  0
VERTEX
  8
0
 10
7.59698204
 20
0.39861005
  0
VERTEX
  8
0
 10
7.59767669
 20
0.37257433
  0
VERTEX
  8
0
 10
7.59751205
 20
0.32039767
  0
VERTEX
  8
0
 10
7.59779559
 20
0.26840638
  0
VERTEX
  8
0
 10
7.59515531
 20
0.13619063
  0
VERTEX
  8
0
 10
7.59304841
 20
0.09403352
  0
VERTEX
  8
0
 10
7.58781399
 20
0.05244532
  0
VERTEX
  8
0
 10
7.57975287
 20
0.01143125
  0
VERTEX
  8
0
 10
7.56916586
 20
-0.02900345
  0
VERTEX
  8
0
 10
7.55635377
 20
-0.06885358
  0
VERTEX
  8
0
 10
7.54161741
 20
-0.10811387
  0
VERTEX
  8
0
 10
7.52525760
 20
-0.14677913
  0
VERTEX
  8
0
 10
7.50757514
 20
-0.18484412
  0
VERTEX
  8
0
 10
7.58622144
 20
-0.26165437
  0
VERTEX
  8
0
 10
7.58797836
 20
-0.25820794
  0
VERTEX
  8
0
 10
7.59183794
 20
-0.25899976
  0
VERTEX
  8
0
 10
7.59745677
 20
-0.26329441
  0
VERTEX
  8
0
 10
7.60449153
 20
-0.27035647
  0
VERTEX
  8
0
 10
7.63992224
 20
-0.31156993
  0
VERTEX
  8
0
 10
7.65720543
 20
-0.32965970
  0
VERTEX
  8
0
 10
7.66453719
 20
-0.33550133
  0
VERTEX
  8
0
 10
7.67053791
 20
-0.33822686
  0
VERTEX
  8
0
 10
7.67293182
 20
-0.33819128
  0
VERTEX
  8
0
 10
7.67486421
 20
-0.33710087
  0
VERTEX
  8
0
 10
7.67717271
 20
-0.33138793
  0
VERTEX
  8
0
 10
7.67712006
 20
-0.32035258
  0
VERTEX
  8
0
 10
7.67436288
 20
-0.30325940
  0
VERTEX
  8
0
 10
7.67601063
 20
-0.20775652
  0
VERTEX
  8
0
 10
7.67601435
 20
0.10618747
  0
VERTEX
  8
0
 10
7.67352695
 20
0.47592062
  0
SEQEND
  0
POLYLINE
  8
VECTOR_LAYER_1
 62
256
 66
   1
 39
0.000000
 70
    0
  0
VERTEX
  8
0
 10
7.92466898
 20
0.47592062
  0
VERTEX
  8
0
 10
7.92150998
 20
0.43556213
  0
VERTEX
  8
0
 10
7.91942202
 20
0.39510898
  0
VERTEX
  8
0
 10
7.91682069
 20
0.28886716
  0
VERTEX
  8
0
 10
7.91410730
 20
0.01625878
  0
VERTEX
  8
0
 10
7.91516471
 20
-0.23587705
  0
VERTEX
  8
0
 10
7.91560184
 20
-0.29142238
  0
VERTEX
  8
0
 10
7.92037406
 20
-0.34676197
  0
VERTEX
  8
0
 10
7.96446692
 20
-0.30874991
  0
VERTEX
  8
0
 10
8.00567076
 20
-0.26762287
  0
VERTEX
  8
0
 10
8.08448081
 20
-0.18848375
  0
VERTEX
  8
0
 10
8.05912890
 20
-0.12569537
  0
VERTEX
  8
0
 10
8.02645707
 20
-0.03617342
  0
VERTEX
  8
0
 10
8.01474468
 20
0.00616678
  0
VERTEX
  8
0
 10
8.00618928
 20
0.04923017
  0
VERTEX
  8
0
 10
8.00043516
 20
0.09277918
  0
VERTEX
  8
0
 10
7.99712657
 20
0.13657618
  0
VERTEX
  8
0
 10
7.99434795
 20
0.25576612
  0
VERTEX
  8
0
 10
7.99683948
 20
0.39450538
  0
VERTEX
  8
0
 10
7.99992363
 20
0.43547485
  0
VERTEX
  8
0
 10
8.00285613
 20
0.45585748
  0
VERTEX
  8
0
 10
8.00690598
 20
0.47596463
  0
SEQEND
  0
POLYLINE
  8
VECTOR_LAYER_1
 62
256
 66
   1
 39
0.000000
 70
    0
  0
VERTEX
  8
0
 10
9.69683331
 20
0.47592062
  0
VERTEX
  8
0
 10
9.70347918
 20
0.43402334
  0
VERTEX
  8
0
 10
9.70873863
 20
0.39191516
  0
VERTEX
  8
0
 10
9.71258174
 20
0.34965403
  0
VERTEX
  8
0
 10
9.71497853
 20
0.30729793
  0
VERTEX
  8
0
 10
9.71589908
 20
0.26490481
  0
VERTEX
  8
0
 10
9.71531345
 20
0.22253267
  0
VERTEX
  8
0
 10
9.71319167
 20
0.18023948
  0
VERTEX
  8
0
 10
9.70950380
 20
0.13808321
  0
VERTEX
  8
0
 10
9.70421990
 20
0.09612184
  0
VERTEX
  8
0
 10
9.69731004
 20
0.05441332
  0
VERTEX
  8
0
 10
9.68874425
 20
0.01301563
  0
VERTEX
  8
0
 10
9.67849260
 20
-0.02801326
  0
VERTEX
  8
0
 10
9.66652514
 20
-0.06861535
  0
VERTEX
  8
0
 10
9.65281191
 20
-0.10873268
  0
VERTEX
  8
0
 10
9.63732300
 20
-0.14830730
  0
VERTEX
  8
0
 10
9.62002844
 20
-0.18728122
  0
VERTEX
  8
0
 10
9.69717329
 20
-0.26292803
  0
VERTEX
  8
0
 10
9.71833026
 20
-0.28236949
  0
VERTEX
  8
0
 10
9.73894013
 20
-0.30225275
  0
VERTEX
  8
0
 10
9.76034199
 20
-0.32135425
  0
VERTEX
  8
0
 10
9.78387498
 20
-0.33845035
  0
VERTEX
  8
0
 10
9.78787835
 20
-0.31668361
  0
VERTEX
  8
0
 10
9.78923543
 20
-0.29460196
  0
VERTEX
  8
0
 10
9.78971784
 20
-0.27239240
  0
VERTEX
  8
0
 10
9.79109720
 20
-0.25024195
  0
VERTEX
  8
0
 10
9.79293395
 20
0.05562568
  0
VERTEX
  8
0
 10
9.79179674
 20
0.29358608
  0
VERTEX
  8
0
 10
9.78828488
 20
0.43008545
  0
VERTEX
  8
0
 10
9.78557531
 20
0.47592044
  0
SEQEND
  0
POLYLINE
  8
VECTOR_LAYER_1
 62
256
 66
   1
 39
0.000000
 70
    0
  0
VERTEX
  8
0
 10
10.03795700
 20
0.47592062
  0
VERTEX
  8
0
 10
10.03361027
 20
0.40103902
  0
VERTEX
  8
0
 10
10.02977285
 20
0.21993098
  0
VERTEX
  8
0
 10
10.02912507
 20
0.03877174
  0
VERTEX
  8
0
 10
10.03123611
 20
-0.26205787
  0
VERTEX
  8
0
 10
10.03267983
 20
-0.28130287
  0
VERTEX
  8
0
 10
10.03311365
 20
-0.30077107
  0
VERTEX
  8
0
 10
10.03475271
 20
-0.31997096
  0
VERTEX
  8
0
 10
10.03671645
 20
-0.32931670
  0
VERTEX
  8
0
 10
10.03981220
 20
-0.33841106
  0
VERTEX
  8
0
 10
10.06310769
 20
-0.32157950
  0
VERTEX
  8
0
 10
10.08396623
 20
-0.30274814
  0
VERTEX
  8
0
 10
10.10402696
 20
-0.28309771
  0
VERTEX
  8
0
 10
10.12492899
 20
-0.26380889
  0
VERTEX
  8
0
 10
10.19913044
 20
-0.18898736
  0
VERTEX
  8
0
 10
10.18028883
 20
-0.14984983
  0
VERTEX
  8
0
 10
10.16345031
 20
-0.10969486
  0
VERTEX
  8
0
 10
10.14866156
 20
-0.06866434
  0
VERTEX
  8
0
 10
10.13596928
 20
-0.02690012
  0
VERTEX
  8
0
 10
10.12542017
 20
0.01545593
  0
VERTEX
  8
0
 10
10.11706097
 20
0.05826196
  0
VERTEX
  8
0
 10
10.11093836
 20
0.10137608
  0
VERTEX
  8
0
 10
10.10709905
 20
0.14465647
  0
VERTEX
  8
0
 10
10.10382374
 20
0.26439104
  0
VERTEX
  8
0
 10
10.10712459
 20
0.38173957
  0
VERTEX
  8
0
 10
10.11135590
 20
0.42911101
  0
VERTEX
  8
0
 10
10.11489852
 20
0.45265603
  0
VERTEX
  8
0
 10
10.11956672
 20
0.47595301
  0
SEQEND
  0
POLYLINE
  8
VECTOR_LAYER_1
 62
256
 66
   1
 39
0.000000
 70
    0
  0
VERTEX
  8
0
 10
11.80772844
 20
0.47592062
  0
VERTEX
  8
0
 10
11.81568701
 20
0.43425220
  0
VERTEX
  8
0
 10
11.82187346
 20
0.39236401
  0
VERTEX
  8
0
 10
11.82630702
 20
0.35031416
  0
VERTEX
  8
0
 10
11.82900698
 20
0.30816080
  0
VERTEX
  8
0
 10
11.82999255
 20
0.26596205
  0
VERTEX
  8
0
 10
11.82928301
 20
0.22377604
  0
VERTEX
  8
0
 10
11.82689759
 20
0.18166091
  0
VERTEX
  8
0
 10
11.82285557
 20
0.13967477
  0
VERTEX
  8
0
 10
11.81717616
 20
0.09787579
  0
VERTEX
  8
0
 10
11.80987865
 20
0.05632207
  0
VERTEX
  8
0
 10
11.80098227
 20
0.01507174
  0
VERTEX
  8
0
 10
11.79050628
 20
-0.02581706
  0
VERTEX
  8
0
 10
11.77846992
 20
-0.06628619
  0
VERTEX
  8
0
 10
11.76489245
 20
-0.10627753
  0
VERTEX
  8
0
 10
11.74979310
 20
-0.14573294
  0
VERTEX
  8
0
 10
11.73319116
 20
-0.18459430
  0
VERTEX
  8
0
 10
11.81480141
 20
-0.26593730
  0
VERTEX
  8
0
 10
11.83605261
 20
-0.28557500
  0
VERTEX
  8
0
 10
11.85681224
 20
-0.30585017
  0
VERTEX
  8
0
 10
11.87828490
 20
-0.32515912
  0
VERTEX
  8
0
 10
11.88966507
 20
-0.33395011
  0
VERTEX
  8
0
 10
11.90167524
 20
-0.34189816
  0
VERTEX
  8
0
 10
11.90606232
 20
-0.28568002
  0
VERTEX
  8
0
 10
11.90667512
 20
-0.22714913
  0
VERTEX
  8
0
 10
11.90782104
 20
0.02443769
  0
VERTEX
  8
0
 10
11.90556701
 20
0.29388233
  0
VERTEX
  8
0
 10
11.90016560
 20
0.46222679
  0
VERTEX
  8
0
 10
11.89843905
 20
0.47592062
  0
SEQEND
  0
POLYLINE
  8
VECTOR_LAYER_1
 62
256
 66
   1
 39
0.000000
 70
    0
  0
VERTEX
  8
0
 10
12.14963841
 20
0.47592062
  0
VERTEX
  8
0
 10
12.14781770
 20
0.41696089
  0
VERTEX
  8
0
 10
12.14335755
 20
0.21884476
  0
VERTEX
  8
0
 10
12.14005221
 20
-0.15381127
  0
VERTEX
  8
0
 10
12.14050251
 20
-0.24822472
  0
VERTEX
  8
0
 10
12.14145879
 20
-0.29510444
  0
VERTEX
  8
0
 10
12.14417891
 20
-0.34265365
  0
VERTEX
  8
0
 10
12.18697245
 20
-0.30741172
  0
VERTEX
  8
0
 10
12.22794525
 20
-0.27020884
  0
VERTEX
  8
0
 10
12.26717642
 20
-0.23121068
  0
VERTEX
  8
0
 10
12.30474513
 20
-0.19058294
  0
VERTEX
  8
0
 10
12.28988087
 20
-0.14900582
  0
VERTEX
  8
0
 10
12.27567578
 20
-0.10776737
  0
VERTEX
  8
0
 10
12.24507444
 20
-0.01753615
  0
VERTEX
  8
0
 10
12.23433327
 20
0.02353466
  0
VERTEX
  8
0
 10
12.22645724
 20
0.06522767
  0
VERTEX
  8
0
 10
12.22117467
 20
0.10734455
  0
VERTEX
  8
0
 10
12.21821390
 20
0.14968694
  0
VERTEX
  8
0
 10
12.21593742
 20
0.26419309
  0
VERTEX
  8
0
 10
12.21635019
 20
0.31731055
  0
VERTEX
  8
0
 10
12.21700547
 20
0.37062290
  0
VERTEX
  8
0
 10
12.21829436
 20
0.39720421
  0
VERTEX
  8
0
 10
12.22068828
 20
0.42365669
  0
VERTEX
  8
0
 10
12.22453535
 20
0.44992115
  0
VERTEX
  8
0
 10
12.23018372
 20
0.47593843
  0
SEQEND
  0
POLYLINE
  8
VECTOR_LAYER_1
 62
256
 66
   1
 39
0.000000
 70
    0
  0
VERTEX
  8
0
 10
13.92047580
 20
0.47592062
  0
VERTEX
  8
0
 10
13.92695081
 20
0.43833886
  0
VERTEX
  8
0
 10
13.93124757
 20
0.40044307
  0
VERTEX
  8
0
 10
13.93693488
 20
0.30454007
  0
VERTEX
  8
0
 10
13.93924224
 20
0.24071081
  0
VERTEX
  8
0
 10
13.93739978
 20
0.17714560
  0
VERTEX
  8
0
 10
13.93146983
 20
0.11400850
  0
VERTEX
  8
0
 10
13.92151478
 20
0.05146364
  0
VERTEX
  8
0
 10
13.90759701
 20
-0.01032488
  0
VERTEX
  8
0
 10
13.88977890
 20
-0.07119298
  0
VERTEX
  8
0
 10
13.86812280
 20
-0.13097654
  0
VERTEX
  8
0
 10
13.84269111
 20
-0.18951148
  0
VERTEX
  8
0
 10
13.92163688
 20
-0.26406844
  0
VERTEX
  8
0
 10
13.94199518
 20
-0.28405279
  0
VERTEX
  8
0
 10
13.96321830
 20
-0.30311638
  0
VERTEX
  8
0
 10
13.98526353
 20
-0.32122264
  0
VERTEX
  8
0
 10
14.00808813
 20
-0.33833500
  0
VERTEX
  8
0
 10
14.01124872
 20
-0.30956744
  0
VERTEX
  8
0
 10
14.01316574
 20
-0.28068802
  0
VERTEX
  8
0
 10
14.01383634
 20
-0.25175201
  0
VERTEX
  8
0
 10
14.01325763
 20
-0.22281475
  0
VERTEX
  8
0
 10
14.01308045
 20
0.10197398
  0
VERTEX
  8
0
 10
14.01042333
 20
0.47592062
  0
SEQEND
  0
POLYLINE
  8
VECTOR_LAYER_1
 62
256
 66
   1
 39
0.000000
 70
    0
  0
VERTEX
  8
0
 10
14.25946475
 20
0.47592062
  0
VERTEX
  8
0
 10
14.25618806
 20
0.41039084
  0
VERTEX
  8
0
 10
14.25378671
 20
0.30362252
  0
VERTEX
  8
0
 10
14.25141824
 20
0.02595028
  0
VERTEX
  8
0
 10
14.25254327
 20
-0.23267080
  0
VERTEX
  8
0
 10
14.25298167
 20
-0.28980401
  0
VERTEX
  8
0
 10
14.25745271
 20
-0.34676197
  0
VERTEX
  8
0
 10
14.30088243
 20
-0.30934409
  0
VERTEX
  8
0
 10
14.34142283
 20
-0.26881253
  0
VERTEX
  8
0
 10
14.41890629
 20
-0.19086310
  0
VERTEX
  8
0
 10
14.38931492
 20
-0.11229836
  0
VERTEX
  8
0
 10
14.35916052
 20
-0.02234854
  0
VERTEX
  8
0
 10
14.34806340
 20
0.02113097
  0
VERTEX
  8
0
 10
14.33962556
 20
0.06519061
  0
VERTEX
  8
0
 10
14.33365128
 20
0.10966240
  0
VERTEX
  8
0
 10
14.32994486
 20
0.15437834
  0
VERTEX
  8
0
 10
14.32694078
 20
0.26495183
  0
VERTEX
  8
0
 10
14.32696364
 20
0.31802489
  0
VERTEX
  8
0
 10
14.32958402
 20
0.37094840
  0
VERTEX
  8
0
 10
14.33510327
 20
0.42361274
  0
VERTEX
  8
0
 10
14.34382269
 20
0.47590831
  0
SEQEND
  0
POLYLINE
  8
VECTOR_LAYER_1
 62
256
 66
   1
 39
0.000000
 70
    0
  0
VERTEX
  8
0
 10
16.03189538
 20
0.47592062
  0
VERTEX
  8
0
 10
16.04108018
 20
0.43259359
  0
VERTEX
  8
0
 10
16.04414453
 20
0.41064659
  0
VERTEX
  8
0
 10
16.04595470
 20
0.38857301
  0
VERTEX
  8
0
 10
16.04891597
 20
0.26419309
  0
VERTEX
  8
0
 10
16.04556110
 20
0.15227014
  0
VERTEX
  8
0
 10
16.04234778
 20
0.10825271
  0
VERTEX
  8
0
 10
16.03627176
 20
0.06475478
  0
VERTEX
  8
0
 10
16.02762210
 20
0.02177321
  0
VERTEX
  8
0
 10
16.01668784
 20
-0.02069510
  0
VERTEX
  8
0
 10
16.00375802
 20
-0.06265331
  0
VERTEX
  8
0
 10
15.98912169
 20
-0.10410455
  0
VERTEX
  8
0
 10
15.97306790
 20
-0.14505193
  0
VERTEX
  8
0
 10
15.95588568
 20
-0.18549857
  0
VERTEX
  8
0
 10
16.03721463
 20
-0.26643851
  0
VERTEX
  8
0
 10
16.05846594
 20
-0.28588552
  0
VERTEX
  8
0
 10
16.07908295
 20
-0.30606842
  0
VERTEX
  8
0
 10
16.10056842
 20
-0.32518475
  0
VERTEX
  8
0
 10
16.11210644
 20
-0.33377969
  0
VERTEX
  8
0
 10
16.12442513
 20
-0.34143206
  0
VERTEX
  8
0
 10
16.12799466
 20
-0.28242140
  0
VERTEX
  8
0
 10
16.12903310
 20
-0.22324327
  0
VERTEX
  8
0
 10
16.13005655
 20
0.04393775
  0
VERTEX
  8
0
 10
16.12716071
 20
0.31110340
  0
VERTEX
  8
0
 10
16.12503633
 20
0.41728514
  0
VERTEX
  8
0
 10
16.12187108
 20
0.47592062
  0
SEQEND
  0
POLYLINE
  8
VECTOR_LAYER_1
 62
256
 66
   1
 39
0.000000
 70
    0
  0
VERTEX
  8
0
 10
16.37060111
 20
0.47592062
  0
VERTEX
  8
0
 10
16.36805339
 20
0.10197398
  0
VERTEX
  8
0
 10
16.36800939
 20
-0.21702542
  0
VERTEX
  8
0
 10
16.36814628
 20
-0.27771667
  0
VERTEX
  8
0
 10
16.36993131
 20
-0.30813271
  0
VERTEX
  8
0
 10
16.37328110
 20
-0.33901879
  0
VERTEX
  8
0
 10
16.41534173
 20
-0.30581542
  0
VERTEX
  8
0
 10
16.45539725
 20
-0.26913085
  0
VERTEX
  8
0
 10
16.49283222
 20
-0.22957361
  0
VERTEX
  8
0
 10
16.52703122
 20
-0.18775228
  0
VERTEX
  8
0
 10
16.50655662
 20
-0.12657910
  0
VERTEX
  8
0
 10
16.48505441
 20
-0.06677530
  0
VERTEX
  8
0
 10
16.47503976
 20
-0.03675503
  0
VERTEX
  8
0
 10
16.46611442
 20
-0.00631886
  0
VERTEX
  8
0
 10
16.45872710
 20
0.02478593
  0
VERTEX
  8
0
 10
16.45332653
 20
0.05681213
  0
VERTEX
  8
0
 10
16.43907878
 20
0.15542000
  0
VERTEX
  8
0
 10
16.43326905
 20
0.25487804
  0
VERTEX
  8
0
 10
16.43381034
 20
0.31091548
  0
VERTEX
  8
0
 10
16.43720519
 20
0.36602690
  0
VERTEX
  8
0
 10
16.44412055
 20
0.42082004
  0
VERTEX
  8
0
 10
16.45522337
 20
0.47590264
  0
SEQEND
  0
POLYLINE
  8
VECTOR_LAYER_1
 62
256
 66
   1
 39
0.000000
 70
    0
  0
VERTEX
  8
0
 10
18.14154437
 20
0.47587705
  0
VERTEX
  8
0
 10
18.14911991
 20
0.44541635
  0
VERTEX
  8
0
 10
18.15443430
 20
0.41462372
  0
VERTEX
  8
0
 10
18.15784610
 20
0.38357479
  0
VERTEX
  8
0
 10
18.15971387
 20
0.35234513
  0
VERTEX
  8
0
 10
18.16025151
 20
0.28964612
  0
VERTEX
  8
0
 10
18.15891564
 20
0.22713151
  0
VERTEX
  8
0
 10
18.15281151
 20
0.11835721
  0
VERTEX
  8
0
 10
18.14888727
 20
0.07834843
  0
VERTEX
  8
0
 10
18.14259738
 20
0.03880996
  0
VERTEX
  8
0
 10
18.13412469
 20
-0.00024719
  0
VERTEX
  8
0
 10
18.12365207
 20
-0.03881207
  0
VERTEX
  8
0
 10
18.11136237
 20
-0.07687369
  0
VERTEX
  8
0
 10
18.09743846
 20
-0.11442107
  0
VERTEX
  8
0
 10
18.08206319
 20
-0.15144322
  0
VERTEX
  8
0
 10
18.06541941
 20
-0.18792916
  0
VERTEX
  8
0
 10
18.14493477
 20
-0.26316985
  0
VERTEX
  8
0
 10
18.14675703
 20
-0.25967159
  0
VERTEX
  8
0
 10
18.15068831
 20
-0.26037934
  0
VERTEX
  8
0
 10
18.15638289
 20
-0.26456335
  0
VERTEX
  8
0
 10
18.16349502
 20
-0.27149387
  0
VERTEX
  8
0
 10
18.19920447
 20
-0.31208596
  0
VERTEX
  8
0
 10
18.21657551
 20
-0.32988749
  0
VERTEX
  8
0
 10
18.22393002
 20
-0.33561050
  0
VERTEX
  8
0
 10
18.22993625
 20
-0.33824200
  0
VERTEX
  8
0
 10
18.23232570
 20
-0.33817039
  0
VERTEX
  8
0
 10
18.23424843
 20
-0.33705223
  0
VERTEX
  8
0
 10
18.23652084
 20
-0.33131146
  0
VERTEX
  8
0
 10
18.23640777
 20
-0.32028992
  0
VERTEX
  8
0
 10
18.23356344
 20
-0.30325786
  0
VERTEX
  8
0
 10
18.23510111
 20
-0.20775578
  0
VERTEX
  8
0
 10
18.23500311
 20
0.10618747
  0
VERTEX
  8
0
 10
18.23251571
 20
0.47592062
  0
SEQEND
  0
POLYLINE
  8
VECTOR_LAYER_1
 62
256
 66
   1
 39
0.000000
 70
    0
  0
VERTEX
  8
0
 10
18.35489864
 20
-0.64925186
  0
VERTEX
  8
0
 10
18.33708954
 20
-0.63901913
  0
VERTEX
  8
0
 10
18.31990712
 20
-0.62780510
  0
VERTEX
  8
0
 10
18.28695054
 20
-0.60322760
  0
VERTEX
  8
0
 10
18.22336835
 20
-0.55103599
  0
VERTEX
  8
0
 10
18.03943113
 20
-0.39586109
  0
VERTEX
  8
0
 10
18.03095015
 20
-0.38420290
  0
VERTEX
  8
0
 10
18.02243582
 20
-0.37465496
  0
VERTEX
  8
0
 10
18.01388655
 20
-0.36711086
  0
VERTEX
  8
0
 10
18.00530076
 20
-0.36146423
  0
VERTEX
  8
0
 10
17.99667689
 20
-0.35760866
  0
VERTEX
  8
0
 10
17.98801331
 20
-0.35543774
  0
VERTEX
  8
0
 10
17.97930846
 20
-0.35484508
  0
VERTEX
  8
0
 10
17.97056076
 20
-0.35572429
  0
VERTEX
  8
0
 10
17.96176862
 20
-0.35796895
  0
VERTEX
  8
0
 10
17.95293045
 20
-0.36147268
  0
VERTEX
  8
0
 10
17.93510969
 20
-0.37183174
  0
VERTEX
  8
0
 10
17.91708581
 20
-0.38595028
  0
VERTEX
  8
0
 10
17.89884611
 20
-0.40297711
  0
VERTEX
  8
0
 10
17.86166859
 20
-0.44235088
  0
VERTEX
  8
0
 10
17.82347570
 20
-0.48314354
  0
VERTEX
  8
0
 10
17.80396677
 20
-0.50194400
  0
VERTEX
  8
0
 10
17.78416598
 20
-0.51854563
  0
VERTEX
  8
0
 10
17.76406062
 20
-0.53209723
  0
VERTEX
  8
0
 10
17.74363803
 20
-0.54174763
  0
VERTEX
  8
0
 10
17.70300044
 20
-0.55746133
  0
VERTEX
  8
0
 10
17.66102474
 20
-0.57484036
  0
VERTEX
  8
0
 10
17.61788000
 20
-0.59237750
  0
VERTEX
  8
0
 10
17.57373525
 20
-0.60856561
  0
VERTEX
  8
0
 10
17.52875958
 20
-0.62189744
  0
VERTEX
  8
0
 10
17.50601298
 20
-0.62702128
  0
VERTEX
  8
0
 10
17.48312205
 20
-0.63086587
  0
VERTEX
  8
0
 10
17.46010790
 20
-0.63324278
  0
VERTEX
  8
0
 10
17.43699168
 20
-0.63396365
  0
VERTEX
  8
0
 10
17.41379453
 20
-0.63284008
  0
VERTEX
  8
0
 10
17.39053757
 20
-0.62968364
  0
VERTEX
  8
0
 10
17.27741637
 20
-0.63029588
  0
VERTEX
  8
0
 10
17.15877345
 20
-0.62826433
  0
VERTEX
  8
0
 10
17.13225548
 20
-0.62802016
  0
VERTEX
  8
0
 10
17.10589710
 20
-0.62621042
  0
VERTEX
  8
0
 10
17.07972995
 20
-0.62291050
  0
VERTEX
  8
0
 10
17.05378560
 20
-0.61819586
  0
VERTEX
  8
0
 10
17.02809569
 20
-0.61214189
  0
VERTEX
  8
0
 10
17.00269179
 20
-0.60482405
  0
VERTEX
  8
0
 10
16.97760555
 20
-0.59631775
  0
VERTEX
  8
0
 10
16.95286856
 20
-0.58669841
  0
VERTEX
  8
0
 10
16.90456878
 20
-0.56442236
  0
VERTEX
  8
0
 10
16.85804529
 20
-0.53859931
  0
VERTEX
  8
0
 10
16.81355100
 20
-0.50983267
  0
VERTEX
  8
0
 10
16.77133875
 20
-0.47872585
  0
VERTEX
  8
0
 10
16.69751873
 20
-0.41184574
  0
VERTEX
  8
0
 10
16.67867330
 20
-0.39559426
  0
VERTEX
  8
0
 10
16.66027605
 20
-0.37834022
  0
VERTEX
  8
0
 10
16.64099225
 20
-0.36245284
  0
VERTEX
  8
0
 10
16.63060076
 20
-0.35576203
  0
VERTEX
  8
0
 10
16.61948709
 20
-0.35030132
  0
VERTEX
  8
0
 10
16.43662224
 20
-0.50332441
  0
VERTEX
  8
0
 10
16.31060951
 20
-0.60700780
  0
VERTEX
  8
0
 10
16.30372676
 20
-0.61632319
  0
VERTEX
  8
0
 10
16.29646875
 20
-0.62433413
  0
VERTEX
  8
0
 10
16.28888460
 20
-0.63106702
  0
VERTEX
  8
0
 10
16.28102345
 20
-0.63654818
  0
VERTEX
  8
0
 10
16.27293441
 20
-0.64080397
  0
VERTEX
  8
0
 10
16.26466659
 20
-0.64386074
  0
VERTEX
  8
0
 10
16.25626913
 20
-0.64574488
  0
VERTEX
  8
0
 10
16.24779114
 20
-0.64648270
  0
VERTEX
  8
0
 10
16.23079010
 20
-0.64462484
  0
VERTEX
  8
0
 10
16.21405641
 20
-0.63849803
  0
VERTEX
  8
0
 10
16.19798306
 20
-0.62831312
  0
VERTEX
  8
0
 10
16.18296303
 20
-0.61428092
  0
VERTEX
  8
0
 10
16.17015998
 20
-0.60138866
  0
VERTEX
  8
0
 10
16.15765005
 20
-0.59041997
  0
VERTEX
  8
0
 10
16.14511542
 20
-0.57961642
  0
VERTEX
  8
0
 10
16.13223825
 20
-0.56721955
  0
VERTEX
  8
0
 10
16.01856650
 20
-0.47039192
  0
VERTEX
  8
0
 10
15.86060516
 20
-0.33762371
  0
VERTEX
  8
0
 10
15.83396130
 20
-0.36714326
  0
VERTEX
  8
0
 10
15.80642286
 20
-0.39605209
  0
VERTEX
  8
0
 10
15.77791589
 20
-0.42409994
  0
VERTEX
  8
0
 10
15.74836646
 20
-0.45103664
  0
VERTEX
  8
0
 10
15.71770059
 20
-0.47661196
  0
VERTEX
  8
0
 10
15.68584437
 20
-0.50057569
  0
VERTEX
  8
0
 10
15.65272382
 20
-0.52267762
  0
VERTEX
  8
0
 10
15.61826501
 20
-0.54266752
  0
VERTEX
  8
0
 10
15.58399026
 20
-0.56059235
  0
VERTEX
  8
0
 10
15.54913526
 20
-0.57754211
  0
VERTEX
  8
0
 10
15.51366201
 20
-0.59297245
  0
VERTEX
  8
0
 10
15.47753256
 20
-0.60633905
  0
VERTEX
  8
0
 10
15.44070888
 20
-0.61709761
  0
VERTEX
  8
0
 10
15.40315302
 20
-0.62470381
  0
VERTEX
  8
0
 10
15.36482700
 20
-0.62861333
  0
VERTEX
  8
0
 10
15.34536330
 20
-0.62901173
  0
VERTEX
  8
0
 10
15.32569281
 20
-0.62828185
  0
VERTEX
  8
0
 10
15.20603682
 20
-0.63040447
  0
VERTEX
  8
0
 10
15.08478633
 20
-0.63153187
  0
VERTEX
  8
0
 10
15.06443802
 20
-0.63328895
  0
VERTEX
  8
0
 10
15.04423242
 20
-0.63366509
  0
VERTEX
  8
0
 10
15.02417076
 20
-0.63277097
  0
VERTEX
  8
0
 10
15.00425423
 20
-0.63071735
  0
VERTEX
  8
0
 10
14.96486138
 20
-0.62357444
  0
VERTEX
  8
0
 10
14.92606358
 20
-0.61312216
  0
VERTEX
  8
0
 10
14.88787046
 20
-0.60024626
  0
VERTEX
  8
0
 10
14.85029168
 20
-0.58583255
  0
VERTEX
  8
0
 10
14.77701587
 20
-0.55593479
  0
VERTEX
  8
0
 10
14.75675817
 20
-0.54671654
  0
VERTEX
  8
0
 10
14.73688434
 20
-0.53564513
  0
VERTEX
  8
0
 10
14.71738745
 20
-0.52301998
  0
VERTEX
  8
0
 10
14.69826050
 20
-0.50914048
  0
VERTEX
  8
0
 10
14.66108864
 20
-0.47881613
  0
VERTEX
  8
0
 10
14.62531308
 20
-0.44706743
  0
VERTEX
  8
0
 10
14.59087812
 20
-0.41628973
  0
VERTEX
  8
0
 10
14.55772809
 20
-0.38887834
  0
VERTEX
  8
0
 10
14.54161752
 20
-0.37718354
  0
VERTEX
  8
0
 10
14.52580730
 20
-0.36722860
  0
VERTEX
  8
0
 10
14.51029046
 20
-0.35931289
  0
VERTEX
  8
0
 10
14.49506004
 20
-0.35373584
  0
VERTEX
  8
0
 10
14.34147189
 20
-0.48958004
  0
VERTEX
  8
0
 10
14.17988223
 20
-0.62431502
  0
VERTEX
  8
0
 10
14.16865839
 20
-0.63175264
  0
VERTEX
  8
0
 10
14.15760420
 20
-0.63990788
  0
VERTEX
  8
0
 10
14.14596968
 20
-0.64673806
  0
VERTEX
  8
0
 10
14.13970043
 20
-0.64901789
  0
VERTEX
  8
0
 10
14.13300488
 20
-0.65020043
  0
VERTEX
  8
0
 10
14.09926553
 20
-0.62965433
  0
VERTEX
  8
0
 10
14.08325678
 20
-0.61825301
  0
VERTEX
  8
0
 10
14.06806058
 20
-0.60445465
  0
VERTEX
  8
0
 10
13.93356170
 20
-0.49463285
  0
VERTEX
  8
0
 10
13.74956156
 20
-0.33913295
  0
VERTEX
  8
0
 10
13.69290111
 20
-0.39745708
  0
VERTEX
  8
0
 10
13.66358052
 20
-0.42600032
  0
VERTEX
  8
0
 10
13.63338357
 20
-0.45362465
  0
VERTEX
  8
0
 10
13.60214819
 20
-0.47995025
  0
VERTEX
  8
0
 10
13.56971229
 20
-0.50459735
  0
VERTEX
  8
0
 10
13.53591378
 20
-0.52718614
  0
VERTEX
  8
0
 10
13.50059061
 20
-0.54733682
  0
VERTEX
  8
0
 10
13.46564198
 20
-0.56490079
  0
VERTEX
  8
0
 10
13.43001912
 20
-0.58127023
  0
VERTEX
  8
0
 10
13.39373310
 20
-0.59598541
  0
VERTEX
  8
0
 10
13.35679499
 20
-0.60858665
  0
VERTEX
  8
0
 10
13.31921585
 20
-0.61861429
  0
VERTEX
  8
0
 10
13.28100674
 20
-0.62560858
  0
VERTEX
  8
0
 10
13.24217876
 20
-0.62910986
  0
VERTEX
  8
0
 10
13.20274293
 20
-0.62865844
  0
VERTEX
  8
0
 10
13.07540426
 20
-0.62902417
  0
VERTEX
  8
0
 10
12.95210598
 20
-0.62853908
  0
VERTEX
  8
0
 10
12.91233192
 20
-0.62916688
  0
VERTEX
  8
0
 10
12.87306638
 20
-0.62604530
  0
VERTEX
  8
0
 10
12.83436816
 20
-0.61952209
  0
VERTEX
  8
0
 10
12.79629614
 20
-0.60994499
  0
VERTEX
  8
0
 10
12.75890915
 20
-0.59766176
  0
VERTEX
  8
0
 10
12.72226601
 20
-0.58302016
  0
VERTEX
  8
0
 10
12.68642556
 20
-0.56636789
  0
VERTEX
  8
0
 10
12.65144664
 20
-0.54805274
  0
VERTEX
  8
0
 10
12.61717872
 20
-0.52776902
  0
VERTEX
  8
0
 10
12.58413030
 20
-0.50557181
  0
VERTEX
  8
0
 10
12.55220351
 20
-0.48171871
  0
VERTEX
  8
0
 10
12.52130046
 20
-0.45646729
  0
VERTEX
  8
0
 10
12.49132329
 20
-0.43007516
  0
VERTEX
  8
0
 10
12.46217412
 20
-0.40279993
  0
VERTEX
  8
0
 10
12.40596831
 20
-0.34663048
  0
VERTEX
  8
0
 10
12.34876653
 20
-0.39132712
  0
VERTEX
  8
0
 10
12.21983397
 20
-0.49844737
  0
VERTEX
  8
0
 10
12.08889924
 20
-0.60548746
  0
VERTEX
  8
0
 10
12.07642722
 20
-0.62184493
  0
VERTEX
  8
0
 10
12.06385107
 20
-0.63375536
  0
VERTEX
  8
0
 10
12.05120120
 20
-0.64161523
  0
VERTEX
  8
0
 10
12.03850802
 20
-0.64582100
  0
VERTEX
  8
0
 10
12.02580194
 20
-0.64676917
  0
VERTEX
  8
0
 10
12.01311336
 20
-0.64485617
  0
VERTEX
  8
0
 10
12.00047271
 20
-0.64047850
  0
VERTEX
  8
0
 10
11.98791039
 20
-0.63403262
  0
VERTEX
  8
0
 10
11.97545681
 20
-0.62591501
  0
VERTEX
  8
0
 10
11.96314238
 20
-0.61652215
  0
VERTEX
  8
0
 10
11.93905259
 20
-0.59549653
  0
VERTEX
  8
0
 10
11.91588431
 20
-0.57412754
  0
VERTEX
  8
0
 10
11.89388081
 20
-0.55558696
  0
VERTEX
  8
0
 10
11.72374686
 20
-0.41148550
  0
VERTEX
  8
0
 10
11.63718500
 20
-0.34049884
  0
VERTEX
  8
0
 10
11.56837328
 20
-0.40977026
  0
VERTEX
  8
0
 10
11.54259830
 20
-0.43457713
  0
VERTEX
  8
0
 10
11.51566011
 20
-0.45839369
  0
VERTEX
  8
0
 10
11.48762429
 20
-0.48111896
  0
VERTEX
  8
0
 10
11.45855645
 20
-0.50265200
  0
VERTEX
  8
0
 10
11.42852216
 20
-0.52289183
  0
VERTEX
  8
0
 10
11.39758701
 20
-0.54173749
  0
VERTEX
  8
0
 10
11.36581664
 20
-0.55908799
  0
VERTEX
  8
0
 10
11.33327658
 20
-0.57484237
  0
VERTEX
  8
0
 10
11.30003247
 20
-0.58889968
  0
VERTEX
  8
0
 10
11.26614989
 20
-0.60115894
  0
VERTEX
  8
0
 10
11.23169441
 20
-0.61151918
  0
VERTEX
  8
0
 10
11.19673166
 20
-0.61987945
  0
VERTEX
  8
0
 10
11.16132720
 20
-0.62613877
  0
VERTEX
  8
0
 10
11.12554664
 20
-0.63019615
  0
VERTEX
  8
0
 10
11.08945557
 20
-0.63195065
  0
VERTEX
  8
0
 10
11.05311957
 20
-0.63130130
  0
VERTEX
  8
0
 10
10.94033772
 20
-0.63036604
  0
VERTEX
  8
0
 10
10.82335791
 20
-0.62837833
  0
VERTEX
  8
0
 10
10.78545746
 20
-0.62714390
  0
VERTEX
  8
0
 10
10.74741560
 20
-0.62429384
  0
VERTEX
  8
0
 10
10.72856127
 20
-0.62168842
  0
VERTEX
  8
0
 10
10.70993514
 20
-0.61798966
  0
VERTEX
  8
0
 10
10.69162505
 20
-0.61296773
  0
VERTEX
  8
0
 10
10.67371886
 20
-0.60639284
  0
VERTEX
  8
0
 10
10.58325984
 20
-0.56958361
  0
VERTEX
  8
0
 10
10.54372428
 20
-0.54984479
  0
VERTEX
  8
0
 10
10.50549942
 20
-0.52768676
  0
VERTEX
  8
0
 10
10.46872029
 20
-0.50320304
  0
VERTEX
  8
0
 10
10.43352195
 20
-0.47648717
  0
VERTEX
  8
0
 10
10.36001502
 20
-0.41136398
  0
VERTEX
  8
0
 10
10.29069320
 20
-0.34482446
  0
VERTEX
  8
0
 10
10.14363464
 20
-0.46767754
  0
VERTEX
  8
0
 10
9.98121488
 20
-0.60647669
  0
VERTEX
  8
0
 10
9.96966438
 20
-0.61864973
  0
VERTEX
  8
0
 10
9.95622839
 20
-0.62944120
  0
VERTEX
  8
0
 10
9.94141872
 20
-0.63816025
  0
VERTEX
  8
0
 10
9.92574723
 20
-0.64411612
  0
VERTEX
  8
0
 10
9.90972572
 20
-0.64661797
  0
VERTEX
  8
0
 10
9.90174365
 20
-0.64635778
  0
VERTEX
  8
0
 10
9.89386601
 20
-0.64497503
  0
VERTEX
  8
0
 10
9.88615679
 20
-0.64238339
  0
VERTEX
  8
0
 10
9.87867993
 20
-0.63849649
  0
VERTEX
  8
0
 10
9.87149946
 20
-0.63322799
  0
VERTEX
  8
0
 10
9.86467932
 20
-0.62649155
  0
VERTEX
  8
0
 10
9.70449774
 20
-0.49018820
  0
VERTEX
  8
0
 10
9.54359973
 20
-0.35349352
  0
VERTEX
  8
0
 10
9.54012617
 20
-0.34904806
  0
VERTEX
  8
0
 10
9.53640444
 20
-0.34631360
  0
VERTEX
  8
0
 10
9.53251506
 20
-0.34506464
  0
VERTEX
  8
0
 10
9.52853852
 20
-0.34507568
  0
VERTEX
  8
0
 10
9.52064595
 20
-0.34797577
  0
VERTEX
  8
0
 10
9.51337077
 20
-0.35320981
  0
VERTEX
  8
0
 10
9.48828614
 20
-0.37654145
  0
VERTEX
  8
0
 10
9.46438847
 20
-0.40095412
  0
VERTEX
  8
0
 10
9.42071805
 20
-0.44332093
  0
VERTEX
  8
0
 10
9.39773298
 20
-0.46339784
  0
VERTEX
  8
0
 10
9.37400169
 20
-0.48260555
  0
VERTEX
  8
0
 10
9.34953944
 20
-0.50084540
  0
VERTEX
  8
0
 10
9.32436150
 20
-0.51801872
  0
VERTEX
  8
0
 10
9.29848314
 20
-0.53402684
  0
VERTEX
  8
0
 10
9.27191961
 20
-0.54877111
  0
VERTEX
  8
0
 10
9.23741132
 20
-0.56622689
  0
VERTEX
  8
0
 10
9.20220024
 20
-0.58251994
  0
VERTEX
  8
0
 10
9.16630202
 20
-0.59716168
  0
VERTEX
  8
0
 10
9.12973232
 20
-0.60966352
  0
VERTEX
  8
0
 10
9.09250677
 20
-0.61953691
  0
VERTEX
  8
0
 10
9.05464107
 20
-0.62629325
  0
VERTEX
  8
0
 10
9.01615083
 20
-0.62944400
  0
VERTEX
  8
0
 10
8.97705171
 20
-0.62850055
  0
VERTEX
  8
0
 10
8.85349413
 20
-0.62906534
  0
VERTEX
  8
0
 10
8.73017717
 20
-0.62860385
  0
VERTEX
  8
0
 10
8.69656875
 20
-0.62872273
  0
VERTEX
  8
0
 10
8.66334078
 20
-0.62679554
  0
VERTEX
  8
0
 10
8.63052725
 20
-0.62276348
  0
VERTEX
  8
0
 10
8.59816215
 20
-0.61656773
  0
VERTEX
  8
0
 10
8.56627946
 20
-0.60814952
  0
VERTEX
  8
0
 10
8.53491317
 20
-0.59745001
  0
VERTEX
  8
0
 10
8.50409727
 20
-0.58441042
  0
VERTEX
  8
0
 10
8.47386578
 20
-0.56897194
  0
VERTEX
  8
0
 10
8.41548539
 20
-0.53792525
  0
VERTEX
  8
0
 10
8.38742213
 20
-0.52290074
  0
VERTEX
  8
0
 10
8.36012541
 20
-0.50713843
  0
VERTEX
  8
0
 10
8.33360670
 20
-0.48983557
  0
VERTEX
  8
0
 10
8.30787743
 20
-0.47018938
  0
VERTEX
  8
0
 10
8.28294903
 20
-0.44739712
  0
VERTEX
  8
0
 10
8.25883298
 20
-0.42065599
  0
VERTEX
  8
0
 10
8.23689189
 20
-0.39541364
  0
VERTEX
  8
0
 10
8.21598681
 20
-0.37574198
  0
VERTEX
  8
0
 10
8.20573425
 20
-0.36829826
  0
VERTEX
  8
0
 10
8.19551448
 20
-0.36261094
  0
VERTEX
  8
0
 10
8.18525208
 20
-0.35880125
  0
VERTEX
  8
0
 10
8.17487166
 20
-0.35699045
  0
VERTEX
  8
0
 10
8.16429782
 20
-0.35729977
  0
VERTEX
  8
0
 10
8.15345513
 20
-0.35985046
  0
VERTEX
  8
0
 10
8.14226820
 20
-0.36476374
  0
VERTEX
  8
0
 10
8.13066164
 20
-0.37216087
  0
VERTEX
  8
0
 10
8.11856001
 20
-0.38216309
  0
VERTEX
  8
0
 10
8.10588794
 20
-0.39489164
  0
VERTEX
  8
0
 10
8.09256999
 20
-0.41046776
  0
VERTEX
  8
0
 10
8.07853079
 20
-0.42901268
  0
VERTEX
  8
0
 10
7.89064761
 20
-0.58763318
  0
VERTEX
  8
0
 10
7.87844748
 20
-0.59844455
  0
VERTEX
  8
0
 10
7.86704183
 20
-0.60596204
  0
VERTEX
  8
0
 10
7.85566647
 20
-0.61385290
  0
VERTEX
  8
0
 10
7.84355724
 20
-0.62578438
  0
VERTEX
  8
0
 10
7.83539250
 20
-0.63425983
  0
VERTEX
  8
0
 10
7.82713530
 20
-0.64047467
  0
VERTEX
  8
0
 10
7.81880964
 20
-0.64461293
  0
VERTEX
  8
0
 10
7.81043955
 20
-0.64685861
  0
VERTEX
  8
0
 10
7.80204905
 20
-0.64739570
  0
VERTEX
  8
0
 10
7.79366213
 20
-0.64640824
  0
VERTEX
  8
0
 10
7.78530281
 20
-0.64408022
  0
VERTEX
  8
0
 10
7.77699510
 20
-0.64059565
  0
VERTEX
  8
0
 10
7.76063057
 20
-0.63089288
  0
VERTEX
  8
0
 10
7.74476063
 20
-0.61877203
  0
VERTEX
  8
0
 10
7.71527291
 20
-0.59316430
  0
VERTEX
  8
0
 10
7.53148503
 20
-0.43846208
  0
VERTEX
  8
0
 10
7.41419973
 20
-0.34055545
  0
VERTEX
  8
0
 10
7.38605469
 20
-0.37128745
  0
VERTEX
  8
0
 10
7.35656381
 20
-0.40118659
  0
VERTEX
  8
0
 10
7.32577842
 20
-0.43007209
  0
VERTEX
  8
0
 10
7.29374988
 20
-0.45776321
  0
VERTEX
  8
0
 10
7.26052958
 20
-0.48407923
  0
VERTEX
  8
0
 10
7.22616884
 20
-0.50883935
  0
VERTEX
  8
0
 10
7.19071904
 20
-0.53186285
  0
VERTEX
  8
0
 10
7.15423151
 20
-0.55296898
  0
VERTEX
  8
0
 10
7.11675764
 20
-0.57197698
  0
VERTEX
  8
0
 10
7.07834876
 20
-0.58870610
  0
VERTEX
  8
0
 10
7.03905624
 20
-0.60297559
  0
VERTEX
  8
0
 10
6.99893142
 20
-0.61460470
  0
VERTEX
  8
0
 10
6.95802569
 20
-0.62341267
  0
VERTEX
  8
0
 10
6.91639037
 20
-0.62921876
  0
VERTEX
  8
0
 10
6.87407682
 20
-0.63184223
  0
VERTEX
  8
0
 10
6.83113643
 20
-0.63110230
  0
VERTEX
  8
0
 10
6.71842761
 20
-0.63048424
  0
VERTEX
  8
0
 10
6.51079751
 20
-0.62789974
  0
VERTEX
  8
0
 10
6.47088702
 20
-0.61453549
  0
VERTEX
  8
0
 10
6.43137375
 20
-0.59992220
  0
VERTEX
  8
0
 10
6.39242963
 20
-0.58389131
  0
VERTEX
  8
0
 10
6.35422662
 20
-0.56627425
  0
VERTEX
  8
0
 10
6.31693670
 20
-0.54690247
  0
VERTEX
  8
0
 10
6.28073178
 20
-0.52560739
  0
VERTEX
  8
0
 10
6.24578385
 20
-0.50222048
  0
VERTEX
  8
0
 10
6.21226487
 20
-0.47657318
  0
VERTEX
  8
0
 10
6.18006522
 20
-0.44895265
  0
VERTEX
  8
0
 10
6.14875490
 20
-0.42051268
  0
VERTEX
  8
0
 10
6.11762966
 20
-0.39206047
  0
VERTEX
  8
0
 10
6.08598525
 20
-0.36440326
  0
VERTEX
  8
0
 10
6.07846859
 20
-0.35840218
  0
VERTEX
  8
0
 10
6.07028819
 20
-0.35370418
  0
VERTEX
  8
0
 10
6.06606629
 20
-0.35252233
  0
VERTEX
  8
0
 10
6.06181910
 20
-0.35248043
  0
VERTEX
  8
0
 10
6.05759348
 20
-0.35384987
  0
VERTEX
  8
0
 10
6.05343633
 20
-0.35690206
  0
VERTEX
  8
0
 10
5.80412022
 20
-0.56537039
  0
VERTEX
  8
0
 10
5.72577470
 20
-0.62750998
  0
VERTEX
  8
0
 10
5.72032548
 20
-0.63502345
  0
VERTEX
  8
0
 10
5.71448336
 20
-0.64081366
  0
VERTEX
  8
0
 10
5.70830679
 20
-0.64501127
  0
VERTEX
  8
0
 10
5.70185430
 20
-0.64774694
  0
VERTEX
  8
0
 10
5.69518437
 20
-0.64915132
  0
VERTEX
  8
0
 10
5.68835550
 20
-0.64935505
  0
VERTEX
  8
0
 10
5.67445488
 20
-0.64668314
  0
VERTEX
  8
0
 10
5.66062040
 20
-0.64077644
  0
VERTEX
  8
0
 10
5.64731999
 20
-0.63268016
  0
VERTEX
  8
0
 10
5.63502159
 20
-0.62343947
  0
VERTEX
  8
0
 10
5.62419318
 20
-0.61409957
  0
VERTEX
  8
0
 10
5.57312352
 20
-0.56738444
  0
VERTEX
  8
0
 10
5.45965692
 20
-0.47045873
  0
VERTEX
  8
0
 10
5.30177478
 20
-0.33775732
  0
VERTEX
  8
0
 10
5.24718621
 20
-0.39630493
  0
VERTEX
  8
0
 10
5.21857838
 20
-0.42455270
  0
VERTEX
  8
0
 10
5.18896316
 20
-0.45173575
  0
VERTEX
  8
0
 10
5.15824181
 20
-0.47756849
  0
VERTEX
  8
0
 10
5.12631558
 20
-0.50176538
  0
VERTEX
  8
0
 10
5.09308574
 20
-0.52404089
  0
VERTEX
  8
0
 10
5.05845351
 20
-0.54410945
  0
VERTEX
  8
0
 10
5.02460385
 20
-0.56168719
  0
VERTEX
  8
0
 10
4.99016696
 20
-0.57826430
  0
VERTEX
  8
0
 10
4.95511518
 20
-0.59333351
  0
VERTEX
  8
0
 10
4.91942085
 20
-0.60638753
  0
VERTEX
  8
0
 10
4.88305634
 20
-0.61691905
  0
VERTEX
  8
0
 10
4.84599399
 20
-0.62442076
  0
VERTEX
  8
0
 10
4.80820613
 20
-0.62838538
  0
VERTEX
  8
0
 10
4.76966514
 20
-0.62830561
  0
VERTEX
  8
0
 10
4.65148202
 20
-0.63036604
  0
VERTEX
  8
0
 10
4.53869970
 20
-0.63129262
  0
VERTEX
  8
0
 10
4.49918393
 20
-0.63220408
  0
VERTEX
  8
0
 10
4.46004729
 20
-0.63004189
  0
VERTEX
  8
0
 10
4.42134140
 20
-0.62500696
  0
VERTEX
  8
0
 10
4.38311789
 20
-0.61730015
  0
VERTEX
  8
0
 10
4.34542835
 20
-0.60712240
  0
VERTEX
  8
0
 10
4.30832442
 20
-0.59467457
  0
VERTEX
  8
0
 10
4.27185771
 20
-0.58015757
  0
VERTEX
  8
0
 10
4.23607986
 20
-0.56377228
  0
VERTEX
  8
0
 10
4.19666949
 20
-0.54285184
  0
VERTEX
  8
0
 10
4.15883168
 20
-0.51951709
  0
VERTEX
  8
0
 10
4.12240682
 20
-0.49408658
  0
VERTEX
  8
0
 10
4.08723531
 20
-0.46687888
  0
VERTEX
  8
0
 10
4.05315756
 20
-0.43821253
  0
VERTEX
  8
0
 10
4.02001398
 20
-0.40840612
  0
VERTEX
  8
0
 10
3.95589090
 20
-0.34664731
  0
VERTEX
  8
0
 10
3.81932696
 20
-0.45840085
  0
VERTEX
  8
0
 10
3.66004994
 20
-0.59470040
  0
VERTEX
  8
0
 10
3.64294301
 20
-0.61292137
  0
VERTEX
  8
0
 10
3.62466671
 20
-0.62796541
  0
VERTEX
  8
0
 10
3.60556344
 20
-0.63898873
  0
VERTEX
  8
0
 10
3.59580870
 20
-0.64272890
  0
VERTEX
  8
0
 10
3.58597563
 20
-0.64514746
  0
VERTEX
  8
0
 10
3.57610703
 20
-0.64613891
  0
VERTEX
  8
0
 10
3.56624568
 20
-0.64559779
  0
VERTEX
  8
0
 10
3.55643442
 20
-0.64341860
  0
VERTEX
  8
0
 10
3.54671603
 20
-0.63949588
  0
VERTEX
  8
0
 10
3.53713331
 20
-0.63372413
  0
VERTEX
  8
0
 10
3.52772907
 20
-0.62599790
  0
VERTEX
  8
0
 10
3.51854612
 20
-0.61621168
  0
VERTEX
  8
0
 10
3.50962724
 20
-0.60426001
  0
VERTEX
  8
0
 10
3.37512347
 20
-0.49496171
  0
VERTEX
  8
0
 10
3.19074981
 20
-0.33979067
  0
VERTEX
  8
0
 10
3.16283622
 20
-0.37063339
  0
VERTEX
  8
0
 10
3.13354620
 20
-0.40063445
  0
VERTEX
  8
0
 10
3.10293405
 20
-0.42961309
  0
VERTEX
  8
0
 10
3.07105406
 20
-0.45738857
  0
VERTEX
  8
0
 10
3.03796052
 20
-0.48378013
  0
VERTEX
  8
0
 10
3.00370770
 20
-0.50860700
  0
VERTEX
  8
0
 10
2.96834991
 20
-0.53168845
  0
VERTEX
  8
0
 10
2.93194143
 20
-0.55284371
  0
VERTEX
  8
0
 10
2.89453656
 20
-0.57189203
  0
VERTEX
  8
0
 10
2.85618959
 20
-0.58865264
  0
VERTEX
  8
0
 10
2.81695478
 20
-0.60294482
  0
VERTEX
  8
0
 10
2.77688646
 20
-0.61458779
  0
VERTEX
  8
0
 10
2.73603890
 20
-0.62340079
  0
VERTEX
  8
0
 10
2.69446638
 20
-0.62920309
  0
VERTEX
  8
0
 10
2.65222320
 20
-0.63181391
  0
VERTEX
  8
0
 10
2.60936367
 20
-0.63105251
  0
VERTEX
  8
0
 10
2.49651750
 20
-0.63029588
  0
VERTEX
  8
0
 10
2.37787457
 20
-0.62826433
  0
VERTEX
  8
0
 10
2.33968511
 20
-0.62792006
  0
VERTEX
  8
0
 10
2.30200427
 20
-0.62403487
  0
VERTEX
  8
0
 10
2.26488050
 20
-0.61696531
  0
VERTEX
  8
0
 10
2.22836226
 20
-0.60706795
  0
VERTEX
  8
0
 10
2.19249801
 20
-0.59469935
  0
VERTEX
  8
0
 10
2.15733623
 20
-0.58021609
  0
VERTEX
  8
0
 10
2.12292534
 20
-0.56397473
  0
VERTEX
  8
0
 10
2.08931384
 20
-0.54633182
  0
VERTEX
  8
0
 10
2.05551519
 20
-0.52629785
  0
VERTEX
  8
0
 10
2.02296765
 20
-0.50424299
  0
VERTEX
  8
0
 10
1.99155092
 20
-0.48047398
  0
VERTEX
  8
0
 10
1.96114469
 20
-0.45529748
  0
VERTEX
  8
0
 10
1.93162863
 20
-0.42902021
  0
VERTEX
  8
0
 10
1.90288248
 20
-0.40194886
  0
VERTEX
  8
0
 10
1.84721862
 20
-0.34665071
  0
VERTEX
  8
0
 10
1.79009435
 20
-0.39132590
  0
VERTEX
  8
0
 10
1.66107840
 20
-0.49844737
  0
VERTEX
  8
0
 10
1.52999084
 20
-0.60548746
  0
VERTEX
  8
0
 10
1.52217270
 20
-0.60960676
  0
VERTEX
  8
0
 10
1.51431635
 20
-0.61514566
  0
VERTEX
  8
0
 10
1.49833998
 20
-0.62847724
  0
VERTEX
  8
0
 10
1.48176380
 20
-0.64147214
  0
VERTEX
  8
0
 10
1.47315767
 20
-0.64659019
  0
VERTEX
  8
0
 10
1.46428985
 20
-0.65012029
  0
SEQEND
  0
POLYLINE
  8
VECTOR_LAYER_1
 62
256
 66
   1
 39
0.000000
 70
    0
  0
VERTEX
  8
0
 10
0.65179283
 20
-0.74282938
  0
VERTEX
  8
0
 10
0.46429283
 20
-0.74282938
  0
VERTEX
  8
0
 10
0.46429283
 20
0.75717062
  0
VERTEX
  8
0
 10
0.65179283
 20
0.75717062
  0
SEQEND
  0
POLYLINE
  8
VECTOR_LAYER_1
 62
256
 66
   1
 39
0.000000
 70
    0
  0
VERTEX
  8
0
 10
0.65193767
 20
0.47592062
  0
VERTEX
  8
0
 10
0.65179283
 20
-0.74282938
  0
SEQEND
  0
ENDSEC
  0
EOF
