  0
SECTION
  2
HEADER
  9
$ACADVER
  1
AC1021
  9
$ACADMAINTVER
 70
    50
  9
$DWGCODEPAGE
  3
ANSI_1252
  9
$LASTSAVEDBY
  1
Autodesk
  9
$INSBASE
 10
0.0
 20
0.0
 30
0.0
  9
$EXTMIN
 10
1.000000000000000E+20
 20
1.000000000000000E+20
 30
1.000000000000000E+20
  9
$EXTMAX
 10
-1.000000000000000E+20
 20
-1.000000000000000E+20
 30
-1.000000000000000E+20
  9
$LIMMIN
 10
0.0
 20
0.0
  9
$LIMMAX
 10
420.0
 20
297.0
  9
$ORTHOMODE
 70
     0
  9
$REGENMODE
 70
     1
  9
$FILLMODE
 70
     1
  9
$QTEXTMODE
 70
     0
  9
$MIRRTEXT
 70
     0
  9
$LTSCALE
 40
1.0
  9
$ATTMODE
 70
     1
  9
$TEXTSIZE
 40
2.5
  9
$TRACEWID
 40
1.0
  9
$TEXTSTYLE
  7
Standard
  9
$CLAYER
  8
0
  9
$CELTYPE
  6
ByLayer
  9
$CECOLOR
 62
   256
  9
$CELTSCALE
 40
1.0
  9
$DISPSILH
 70
     0
  9
$DIMSCALE
 40
1.0
  9
$DIMASZ
 40
2.5
  9
$DIMEXO
 40
0.625
  9
$DIMDLI
 40
3.75
  9
$DIMRND
 40
0.0
  9
$DIMDLE
 40
0.0
  9
$DIMEXE
 40
1.25
  9
$DIMTP
 40
0.0
  9
$DIMTM
 40
0.0
  9
$DIMTXT
 40
2.5
  9
$DIMCEN
 40
2.5
  9
$DIMTSZ
 40
0.0
  9
$DIMTOL
 70
     0
  9
$DIMLIM
 70
     0
  9
$DIMTIH
 70
     0
  9
$DIMTOH
 70
     0
  9
$DIMSE1
 70
     0
  9
$DIMSE2
 70
     0
  9
$DIMTAD
 70
     1
  9
$DIMZIN
 70
     8
  9
$DIMBLK
  1

  9
$DIMASO
 70
     1
  9
$DIMSHO
 70
     1
  9
$DIMPOST
  1

  9
$DIMAPOST
  1

  9
$DIMALT
 70
     0
  9
$DIMALTD
 70
     3
  9
$DIMALTF
 40
0.03937007874016
  9
$DIMLFAC
 40
1.0
  9
$DIMTOFL
 70
     1
  9
$DIMTVP
 40
0.0
  9
$DIMTIX
 70
     0
  9
$DIMSOXD
 70
     0
  9
$DIMSAH
 70
     0
  9
$DIMBLK1
  1

  9
$DIMBLK2
  1

  9
$DIMSTYLE
  2
ISO-25
  9
$DIMCLRD
 70
     0
  9
$DIMCLRE
 70
     0
  9
$DIMCLRT
 70
     0
  9
$DIMTFAC
 40
1.0
  9
$DIMGAP
 40
0.625
  9
$DIMJUST
 70
     0
  9
$DIMSD1
 70
     0
  9
$DIMSD2
 70
     0
  9
$DIMTOLJ
 70
     0
  9
$DIMTZIN
 70
     8
  9
$DIMALTZ
 70
     0
  9
$DIMALTTZ
 70
     0
  9
$DIMUPT
 70
     0
  9
$DIMDEC
 70
     2
  9
$DIMTDEC
 70
     2
  9
$DIMALTU
 70
     2
  9
$DIMALTTD
 70
     3
  9
$DIMTXSTY
  7
Standard
  9
$DIMAUNIT
 70
     0
  9
$DIMADEC
 70
     0
  9
$DIMALTRND
 40
0.0
  9
$DIMAZIN
 70
     0
  9
$DIMDSEP
 70
    44
  9
$DIMATFIT
 70
     3
  9
$DIMFRAC
 70
     0
  9
$DIMLDRBLK
  1

  9
$DIMLUNIT
 70
     2
  9
$DIMLWD
 70
    -2
  9
$DIMLWE
 70
    -2
  9
$DIMTMOVE
 70
     0
  9
$DIMFXL
 40
1.0
  9
$DIMFXLON
 70
     0
  9
$DIMJOGANG
 40
0.7853981633974483
  9
$DIMTFILL
 70
     0
  9
$DIMTFILLCLR
 70
     0
  9
$DIMARCSYM
 70
     0
  9
$DIMLTYPE
  6

  9
$DIMLTEX1
  6

  9
$DIMLTEX2
  6

  9
$LUNITS
 70
     2
  9
$LUPREC
 70
     4
  9
$SKETCHINC
 40
1.0
  9
$FILLETRAD
 40
0.0
  9
$AUNITS
 70
     0
  9
$AUPREC
 70
     0
  9
$MENU
  1
.
  9
$ELEVATION
 40
0.0
  9
$PELEVATION
 40
0.0
  9
$THICKNESS
 40
0.0
  9
$LIMCHECK
 70
     0
  9
$CHAMFERA
 40
0.0
  9
$CHAMFERB
 40
0.0
  9
$CHAMFERC
 40
0.0
  9
$CHAMFERD
 40
0.0
  9
$SKPOLY
 70
     0
  9
$TDCREATE
 40
2456309.149747176
  9
$TDUCREATE
 40
2456309.483080509
  9
$TDUPDATE
 40
2456667.078514884
  9
$TDUUPDATE
 40
2456667.411848218
  9
$TDINDWG
 40
0.0000193403
  9
$TDUSRTIMER
 40
0.0000191551
  9
$USRTIMER
 70
     1
  9
$ANGBASE
 50
0.0
  9
$ANGDIR
 70
     0
  9
$PDMODE
 70
     0
  9
$PDSIZE
 40
0.0
  9
$PLINEWID
 40
0.0
  9
$SPLFRAME
 70
     0
  9
$SPLINETYPE
 70
     6
  9
$SPLINESEGS
 70
     8
  9
$HANDSEED
  5
2B8
  9
$SURFTAB1
 70
     6
  9
$SURFTAB2
 70
     6
  9
$SURFTYPE
 70
     6
  9
$SURFU
 70
     6
  9
$SURFV
 70
     6
  9
$UCSBASE
  2

  9
$UCSNAME
  2

  9
$UCSORG
 10
0.0
 20
0.0
 30
0.0
  9
$UCSXDIR
 10
1.0
 20
0.0
 30
0.0
  9
$UCSYDIR
 10
0.0
 20
1.0
 30
0.0
  9
$UCSORTHOREF
  2

  9
$UCSORTHOVIEW
 70
     0
  9
$UCSORGTOP
 10
0.0
 20
0.0
 30
0.0
  9
$UCSORGBOTTOM
 10
0.0
 20
0.0
 30
0.0
  9
$UCSORGLEFT
 10
0.0
 20
0.0
 30
0.0
  9
$UCSORGRIGHT
 10
0.0
 20
0.0
 30
0.0
  9
$UCSORGFRONT
 10
0.0
 20
0.0
 30
0.0
  9
$UCSORGBACK
 10
0.0
 20
0.0
 30
0.0
  9
$PUCSBASE
  2

  9
$PUCSNAME
  2

  9
$PUCSORG
 10
0.0
 20
0.0
 30
0.0
  9
$PUCSXDIR
 10
1.0
 20
0.0
 30
0.0
  9
$PUCSYDIR
 10
0.0
 20
1.0
 30
0.0
  9
$PUCSORTHOREF
  2

  9
$PUCSORTHOVIEW
 70
     0
  9
$PUCSORGTOP
 10
0.0
 20
0.0
 30
0.0
  9
$PUCSORGBOTTOM
 10
0.0
 20
0.0
 30
0.0
  9
$PUCSORGLEFT
 10
0.0
 20
0.0
 30
0.0
  9
$PUCSORGRIGHT
 10
0.0
 20
0.0
 30
0.0
  9
$PUCSORGFRONT
 10
0.0
 20
0.0
 30
0.0
  9
$PUCSORGBACK
 10
0.0
 20
0.0
 30
0.0
  9
$USERI1
 70
     0
  9
$USERI2
 70
     0
  9
$USERI3
 70
     0
  9
$USERI4
 70
     0
  9
$USERI5
 70
     0
  9
$USERR1
 40
0.0
  9
$USERR2
 40
0.0
  9
$USERR3
 40
0.0
  9
$USERR4
 40
0.0
  9
$USERR5
 40
0.0
  9
$WORLDVIEW
 70
     1
  9
$SHADEDGE
 70
     3
  9
$SHADEDIF
 70
    70
  9
$TILEMODE
 70
     1
  9
$MAXACTVP
 70
    64
  9
$PINSBASE
 10
0.0
 20
0.0
 30
0.0
  9
$PLIMCHECK
 70
     0
  9
$PEXTMIN
 10
0.0
 20
0.0
 30
0.0
  9
$PEXTMAX
 10
0.0
 20
0.0
 30
0.0
  9
$PLIMMIN
 10
0.0
 20
0.0
  9
$PLIMMAX
 10
12.0
 20
9.0
  9
$UNITMODE
 70
     0
  9
$VISRETAIN
 70
     1
  9
$PLINEGEN
 70
     0
  9
$PSLTSCALE
 70
     1
  9
$TREEDEPTH
 70
  3020
  9
$CMLSTYLE
  2
Standard
  9
$CMLJUST
 70
     0
  9
$CMLSCALE
 40
20.0
  9
$PROXYGRAPHICS
 70
     1
  9
$MEASUREMENT
 70
     1
  9
$CELWEIGHT
370
    -1
  9
$ENDCAPS
280
     0
  9
$JOINSTYLE
280
     0
  9
$LWDISPLAY
290
     0
  9
$INSUNITS
 70
     4
  9
$HYPERLINKBASE
  1

  9
$STYLESHEET
  1

  9
$XEDIT
290
     1
  9
$CEPSNTYPE
380
     0
  9
$PSTYLEMODE
290
     1
  9
$FINGERPRINTGUID
  2
{D36A17C0-B4E2-4527-8874-81943F1C34AC}
  9
$VERSIONGUID
  2
{265A5473-D45D-4B1C-ABB7-7FF2E3BD06BB}
  9
$EXTNAMES
290
     1
  9
$PSVPSCALE
 40
0.0
  9
$OLESTARTUP
290
     0
  9
$SORTENTS
280
   127
  9
$INDEXCTL
280
     0
  9
$HIDETEXT
280
     1
  9
$XCLIPFRAME
290
     0
  9
$HALOGAP
280
     0
  9
$OBSCOLOR
 70
   257
  9
$OBSLTYPE
280
     0
  9
$INTERSECTIONDISPLAY
280
     0
  9
$INTERSECTIONCOLOR
 70
   257
  9
$DIMASSOC
280
     2
  9
$PROJECTNAME
  1

  9
$CAMERADISPLAY
290
     0
  9
$LENSLENGTH
 40
50.0
  9
$CAMERAHEIGHT
 40
0.0
  9
$STEPSPERSEC
 40
2.0
  9
$STEPSIZE
 40
6.0
  9
$3DDWFPREC
 40
2.0
  9
$PSOLWIDTH
 40
5.0
  9
$PSOLHEIGHT
 40
80.0
  9
$LOFTANG1
 40
1.570796326794896
  9
$LOFTANG2
 40
1.570796326794896
  9
$LOFTMAG1
 40
0.0
  9
$LOFTMAG2
 40
0.0
  9
$LOFTPARAM
 70
     7
  9
$LOFTNORMALS
280
     1
  9
$LATITUDE
 40
37.795
  9
$LONGITUDE
 40
-122.394
  9
$NORTHDIRECTION
 40
0.0
  9
$TIMEZONE
 70
 -8000
  9
$LIGHTGLYPHDISPLAY
280
     1
  9
$TILEMODELIGHTSYNCH
280
     1
  9
$CMATERIAL
347
EC
  9
$SOLIDHIST
280
     0
  9
$SHOWHIST
280
     1
  9
$DWFFRAME
280
     2
  9
$DGNFRAME
280
     0
  9
$REALWORLDSCALE
290
     1
  9
$INTERFERECOLOR
 62
     1
  9
$INTERFEREOBJVS
345
F9
  9
$INTERFEREVPVS
346
F6
  9
$CSHADOW
280
     0
  9
$SHADOWPLANELOCATION
 40
0.0
  0
ENDSEC
  0
SECTION
  2
CLASSES
  0
CLASS
  1
ACDBDICTIONARYWDFLT
  2
AcDbDictionaryWithDefault
  3
ObjectDBX Classes
 90
        0
 91
        1
280
     0
281
     0
  0
CLASS
  1
ACDBPLACEHOLDER
  2
AcDbPlaceHolder
  3
ObjectDBX Classes
 90
        0
 91
        1
280
     0
281
     0
  0
CLASS
  1
LAYOUT
  2
AcDbLayout
  3
ObjectDBX Classes
 90
        0
 91
        3
280
     0
281
     0
  0
CLASS
  1
DICTIONARYVAR
  2
AcDbDictionaryVar
  3
ObjectDBX Classes
 90
        0
 91
       10
280
     0
281
     0
  0
CLASS
  1
TABLESTYLE
  2
AcDbTableStyle
  3
ObjectDBX Classes
 90
     4095
 91
        1
280
     0
281
     0
  0
CLASS
  1
MATERIAL
  2
AcDbMaterial
  3
ObjectDBX Classes
 90
     1153
 91
        3
280
     0
281
     0
  0
CLASS
  1
VISUALSTYLE
  2
AcDbVisualStyle
  3
ObjectDBX Classes
 90
     4095
 91
       24
280
     0
281
     0
  0
CLASS
  1
SCALE
  2
AcDbScale
  3
ObjectDBX Classes
 90
     1153
 91
       17
280
     0
281
     0
  0
CLASS
  1
MLEADERSTYLE
  2
AcDbMLeaderStyle
  3
ACDB_MLEADERSTYLE_CLASS
 90
     4095
 91
        2
280
     0
281
     0
  0
CLASS
  1
CELLSTYLEMAP
  2
AcDbCellStyleMap
  3
ObjectDBX Classes
 90
     1152
 91
        1
280
     0
281
     0
  0
CLASS
  1
EXACXREFPANELOBJECT
  2
ExAcXREFPanelObject
  3
EXAC_ESW
 90
     1025
 91
        0
280
     0
281
     0
  0
CLASS
  1
NPOCOLLECTION
  2
AcDbImpNonPersistentObjectsCollection
  3
ObjectDBX Classes
 90
     1153
 91
        0
280
     0
281
     0
  0
CLASS
  1
LAYER_INDEX
  2
AcDbLayerIndex
  3
ObjectDBX Classes
 90
        0
 91
        0
280
     0
281
     0
  0
CLASS
  1
SPATIAL_INDEX
  2
AcDbSpatialIndex
  3
ObjectDBX Classes
 90
        0
 91
        0
280
     0
281
     0
  0
CLASS
  1
IDBUFFER
  2
AcDbIdBuffer
  3
ObjectDBX Classes
 90
        0
 91
        0
280
     0
281
     0
  0
CLASS
  1
ACDBSECTIONVIEWSTYLE
  2
AcDbSectionViewStyle
  3
ObjectDBX Classes
 90
     1025
 91
        1
280
     0
281
     0
  0
CLASS
  1
ACDBDETAILVIEWSTYLE
  2
AcDbDetailViewStyle
  3
ObjectDBX Classes
 90
     1025
 91
        1
280
     0
281
     0
  0
ENDSEC
  0
SECTION
  2
TABLES
  0
TABLE
  2
VPORT
  5
8
330
0
100
AcDbSymbolTable
 70
     1
  0
VPORT
  5
EA
330
8
100
AcDbSymbolTableRecord
100
AcDbViewportTableRecord
  2
*Active
 70
     0
 10
0.0
 20
0.0
 11
1.0
 21
1.0
 12
2630.048781668382
 22
1440.684066268786
 13
0.0
 23
0.0
 14
10.0
 24
10.0
 15
10.0
 25
10.0
 16
0.0
 26
0.0
 36
1.0
 17
0.0
 27
0.0
 37
0.0
 40
2653.730076586097
 41
1.765478424015009
 42
50.0
 43
0.0
 44
0.0
 50
0.0
 51
0.0
 71
     0
 72
  1000
 73
     1
 74
     3
 75
     0
 76
     1
 77
     0
 78
     0
281
     0
 65
     1
110
0.0
120
0.0
130
0.0
111
1.0
121
0.0
131
0.0
112
0.0
122
1.0
132
0.0
 79
     0
146
0.0
348
F5
 60
     3
 61
     5
292
     1
282
     1
141
0.0
142
0.0
 63
   250
421
  3355443
1001
ACAD_NAV_VCDISPLAY
1070
     3
  0
ENDTAB
  0
TABLE
  2
LTYPE
  5
5
330
0
100
AcDbSymbolTable
 70
     1
  0
LTYPE
  5
14
330
5
100
AcDbSymbolTableRecord
100
AcDbLinetypeTableRecord
  2
ByBlock
 70
     0
  3

 72
    65
 73
     0
 40
0.0
  0
LTYPE
  5
15
330
5
100
AcDbSymbolTableRecord
100
AcDbLinetypeTableRecord
  2
ByLayer
 70
     0
  3

 72
    65
 73
     0
 40
0.0
  0
LTYPE
  5
16
330
5
100
AcDbSymbolTableRecord
100
AcDbLinetypeTableRecord
  2
Continuous
 70
     0
  3
Solid line
 72
    65
 73
     0
 40
0.0
  0
ENDTAB
  0
TABLE
  2
LAYER
  5
2
102
{ACAD_XDICTIONARY
360
1FF
102
}
330
0
100
AcDbSymbolTable
 70
     2
  0
LAYER
  5
10
102
{ACAD_XDICTIONARY
360
13C
102
}
330
2
100
AcDbSymbolTableRecord
100
AcDbLayerTableRecord
  2
0
 70
     0
 62
     7
  6
Continuous
370
    -3
390
F
347
EE
  0
LAYER
  5
249
330
2
100
AcDbSymbolTableRecord
100
AcDbLayerTableRecord
  2
Vector Layer 1
 70
     0
 62
     7
  6
Continuous
370
    30
390
F
347
EE
  0
ENDTAB
  0
TABLE
  2
STYLE
  5
3
330
0
100
AcDbSymbolTable
 70
     2
  0
STYLE
  5
11
330
3
100
AcDbSymbolTableRecord
100
AcDbTextStyleTableRecord
  2
Standard
 70
     0
 40
0.0
 41
1.0
 50
0.0
 71
     0
 42
2.5
  3
arial.ttf
  4

1001
ACAD
1000
Arial
1071
       34
  0
STYLE
  5
132
330
3
100
AcDbSymbolTableRecord
100
AcDbTextStyleTableRecord
  2
Annotative
 70
     0
 40
0.0
 41
1.0
 50
0.0
 71
     0
 42
2.5
  3
arial.ttf
  4

1001
AcadAnnotative
1000
AnnotativeData
1002
{
1070
     1
1070
     1
1002
}
1001
ACAD
1000
Arial
1071
       34
  0
ENDTAB
  0
TABLE
  2
VIEW
  5
6
330
0
100
AcDbSymbolTable
 70
     0
  0
ENDTAB
  0
TABLE
  2
UCS
  5
7
330
0
100
AcDbSymbolTable
 70
     0
  0
ENDTAB
  0
TABLE
  2
APPID
  5
9
330
0
100
AcDbSymbolTable
 70
     8
  0
APPID
  5
12
330
9
100
AcDbSymbolTableRecord
100
AcDbRegAppTableRecord
  2
ACAD
 70
     0
  0
APPID
  5
9E
330
9
100
AcDbSymbolTableRecord
100
AcDbRegAppTableRecord
  2
ACAD_PSEXT
 70
     0
  0
APPID
  5
133
330
9
100
AcDbSymbolTableRecord
100
AcDbRegAppTableRecord
  2
AcadAnnoPO
 70
     0
  0
APPID
  5
134
330
9
100
AcDbSymbolTableRecord
100
AcDbRegAppTableRecord
  2
AcadAnnotative
 70
     0
  0
APPID
  5
135
330
9
100
AcDbSymbolTableRecord
100
AcDbRegAppTableRecord
  2
ACAD_DSTYLE_DIMJAG
 70
     0
  0
APPID
  5
136
330
9
100
AcDbSymbolTableRecord
100
AcDbRegAppTableRecord
  2
ACAD_DSTYLE_DIMTALN
 70
     0
  0
APPID
  5
165
330
9
100
AcDbSymbolTableRecord
100
AcDbRegAppTableRecord
  2
ACAD_MLEADERVER
 70
     0
  0
APPID
  5
217
330
9
100
AcDbSymbolTableRecord
100
AcDbRegAppTableRecord
  2
ACAD_NAV_VCDISPLAY
 70
     0
  0
ENDTAB
  0
TABLE
  2
DIMSTYLE
  5
A
330
0
100
AcDbSymbolTable
 70
     3
100
AcDbDimStyleTable
 71
     2
340
27
340
137
  0
DIMSTYLE
105
1B0
330
A
100
AcDbSymbolTableRecord
100
AcDbDimStyleTableRecord
  2
Standard
 70
     0
340
11
  0
DIMSTYLE
105
137
330
A
100
AcDbSymbolTableRecord
100
AcDbDimStyleTableRecord
  2
Annotative
 70
     0
 40
0.0
 41
2.5
 42
0.625
 43
3.75
 44
1.25
 73
     0
 74
     0
 77
     1
 78
     8
140
2.5
141
2.5
143
0.03937007874016
147
0.625
171
     3
172
     1
271
     2
272
     2
274
     3
278
    44
283
     0
284
     8
340
11
1001
AcadAnnotative
1000
AnnotativeData
1002
{
1070
     1
1070
     1
1002
}
1001
ACAD_DSTYLE_DIMJAG
1070
   388
1040
1.5
1001
ACAD_DSTYLE_DIMTALN
1070
   392
1070
     0
  0
DIMSTYLE
105
27
330
A
100
AcDbSymbolTableRecord
100
AcDbDimStyleTableRecord
  2
ISO-25
 70
     0
 41
2.5
 42
0.625
 43
3.75
 44
1.25
 73
     0
 74
     0
 77
     1
 78
     8
140
2.5
141
2.5
143
0.03937007874016
147
0.625
171
     3
172
     1
271
     2
272
     2
274
     3
278
    44
283
     0
284
     8
340
11
  0
ENDTAB
  0
TABLE
  2
BLOCK_RECORD
  5
1
330
0
100
AcDbSymbolTable
 70
     1
  0
BLOCK_RECORD
  5
1F
102
{ACAD_XDICTIONARY
360
1CE
102
}
330
1
100
AcDbSymbolTableRecord
100
AcDbBlockTableRecord
  2
*Model_Space
340
22
 70
     0
280
     1
281
     0
  0
BLOCK_RECORD
  5
D2
330
1
100
AcDbSymbolTableRecord
100
AcDbBlockTableRecord
  2
*Paper_Space
340
D3
 70
     0
280
     1
281
     0
  0
BLOCK_RECORD
  5
D6
330
1
100
AcDbSymbolTableRecord
100
AcDbBlockTableRecord
  2
*Paper_Space0
340
D7
 70
     0
280
     1
281
     0
  0
ENDTAB
  0
ENDSEC
  0
SECTION
  2
BLOCKS
  0
BLOCK
  5
20
330
1F
100
AcDbEntity
  8
0
100
AcDbBlockBegin
  2
*Model_Space
 70
     0
 10
0.0
 20
0.0
 30
0.0
  3
*Model_Space
  1

  0
ENDBLK
  5
21
330
1F
100
AcDbEntity
  8
0
100
AcDbBlockEnd
  0
BLOCK
  5
D4
330
D2
100
AcDbEntity
 67
     1
  8
0
100
AcDbBlockBegin
  2
*Paper_Space
 70
     0
 10
0.0
 20
0.0
 30
0.0
  3
*Paper_Space
  1

  0
ENDBLK
  5
D5
330
D2
100
AcDbEntity
 67
     1
  8
0
100
AcDbBlockEnd
  0
BLOCK
  5
D8
330
D6
100
AcDbEntity
 67
     1
  8
0
100
AcDbBlockBegin
  2
*Paper_Space0
 70
     0
 10
0.0
 20
0.0
 30
0.0
  3
*Paper_Space0
  1

  0
ENDBLK
  5
D9
330
D6
100
AcDbEntity
 67
     1
  8
0
100
AcDbBlockEnd
  0
ENDSEC
  0
SECTION
  2
ENTITIES
  0
LINE
  5
24A
330
1F
100
AcDbEntity
  8
Vector Layer 1
 62
    18
420
        0
370
    30
100
AcDbLine
 10
43.04731944085676
 20
63.50000000000013
 30
0.0
 11
43.04731944085676
 21
-63.50000000000012
 31
0.0
  0
LINE
  5
24B
330
1F
100
AcDbEntity
  8
Vector Layer 1
 62
    18
420
        0
370
    30
100
AcDbLine
 10
43.04731944085674
 20
63.50000000000013
 30
0.0
 11
573.0925972545096
 21
63.50000000000013
 31
0.0
  0
LINE
  5
24C
330
1F
100
AcDbEntity
  8
Vector Layer 1
 62
    18
420
        0
370
    30
100
AcDbLine
 10
43.04731944085676
 20
46.29081806774161
 30
0.0
 11
573.0925972545095
 21
46.2908180677416
 31
0.0
  0
LWPOLYLINE
  5
24D
330
1F
100
AcDbEntity
  8
Vector Layer 1
 62
    18
420
        0
370
    30
100
AcDbPolyline
 90
      298
 70
     0
 43
0.0
 10
-573.0925972545095
 20
30.74180531052556
 10
-90.19746956432864
 20
30.74180531052593
 10
-90.19746956432864
 20
30.74180531052593
 10
-90.12778717895304
 20
30.74219204792778
 10
-90.05828983250081
 20
30.74334954844728
 10
-89.98898159250112
 20
30.74527374455527
 10
-89.91986652648305
 20
30.74796056872264
 10
-89.85094870197576
 20
30.75140595342027
 10
-89.78223218650834
 20
30.75560583111902
 10
-89.71372104760995
 20
30.76055613428977
 10
-89.64541935280971
 20
30.76625279540339
 10
-89.57733116963673
 20
30.77269174693075
 10
-89.50946056562015
 20
30.77986892134273
 10
-89.44181160828911
 20
30.78778025111021
 10
-89.37438836517271
 20
30.79642166870405
 10
-89.30719490380012
 20
30.80578910659512
 10
-89.24023529170041
 20
30.81587849725431
 10
-89.17351359640273
 20
30.82668577315248
 10
-89.10703388543621
 20
30.83820686676052
 10
-89.04080022632998
 20
30.85043771054928
 10
-88.97481668661315
 20
30.86337423698964
 10
-88.90908733381486
 20
30.87701237855249
 10
-88.84361623546425
 20
30.89134806770868
 10
-88.77840745909043
 20
30.9063772369291
 10
-88.71346507222254
 20
30.92209581868461
 10
-88.64879314238967
 20
30.9384997454461
 10
-88.584395737121
 20
30.95558494968444
 10
-88.52027692394562
 20
30.97334736387048
 10
-88.45644077039265
 20
30.99178292047512
 10
-88.39289134399125
 20
31.01088755196923
 10
-88.32963271227052
 20
31.03065719082366
 10
-88.26666894275961
 20
31.05108776950932
 10
-88.20400410298763
 20
31.07217522049705
 10
-88.14164226048371
 20
31.09391547625774
 10
-88.07958748277696
 20
31.11630446926227
 10
-88.01784383739656
 20
31.13933813198149
 10
-87.95641539187156
 20
31.16301239688629
 10
-87.89530621373115
 20
31.18732319644755
 10
-87.83452037050443
 20
31.21226646313612
 10
-87.77406192972053
 20
31.23783812942289
 10
-87.71393495890858
 20
31.26403412777874
 10
-87.65414352559771
 20
31.29085039067453
 10
-87.59469169731701
 20
31.31828285058113
 10
-87.53558354159567
 20
31.34632743996943
 10
-87.47682312596277
 20
31.37498009131028
 10
-87.41841451794746
 20
31.40423673707458
 10
-87.36036178507884
 20
31.43409330973318
 10
-87.30266899488606
 20
31.46454574175697
 10
-87.24534021489825
 20
31.49558996561681
 10
-87.18837951264452
 20
31.52722191378359
 10
-87.13179095565399
 20
31.55943751872816
 10
-87.07557861145582
 20
31.59223271292141
 10
-87.01974654757911
 20
31.62560342883422
 10
-86.96429883155301
 20
31.65954559893744
 10
-86.90923953090662
 20
31.69405515570197
 10
-86.85457271316908
 20
31.72912803159866
 10
-86.8003024458695
 20
31.76476015909839
 10
-86.74643279653704
 20
31.80094747067204
 10
-86.6929678327008
 20
31.83768589879048
 10
-86.63991162188992
 20
31.87497137592458
 10
-86.58726823163352
 20
31.91279983454522
 10
-86.53504172946071
 20
31.95116720712327
 10
-86.48323618290065
 20
31.9900694261296
 10
-86.43185565948245
 20
32.02950242403509
 10
-86.38090422673524
 20
32.0694621333106
 10
-86.33038595218813
 20
32.10994448642702
 10
-86.28030490337028
 20
32.15094541585521
 10
-86.23066514781079
 20
32.19246085406606
 10
-86.1814707530388
 20
32.23448673353042
 10
-86.13272578658344
 20
32.27701898671918
 10
-86.08443431597381
 20
32.32005354610321
 10
-86.03660040873906
 20
32.36358634415338
 10
-85.98922813240831
 20
32.40761331334056
 10
-85.9423215545107
 20
32.45213038613564
 10
-85.89588474257533
 20
32.49713349500947
 10
-85.84992176413136
 20
32.54261857243295
 10
-85.80443668670787
 20
32.58858155087692
 10
-85.75943357783403
 20
32.63501836281229
 10
-85.71491650503896
 20
32.68192494070991
 10
-85.67088953585177
 20
32.72929721704065
 10
-85.6273567378016
 20
32.7771311242754
 10
-85.58432217841758
 20
32.82542259488503
 10
-85.54178992522883
 20
32.8741675613404
 10
-85.49976404576446
 20
32.9233619561124
 10
-85.45824860755363
 20
32.97300171167189
 10
-85.41724767812544
 20
33.02308276048974
 10
-85.37676532500901
 20
33.07360103503684
 10
-85.33680561573349
 20
33.12455246778405
 10
-85.297372617828
 20
33.17593299120225
 10
-85.25847039882167
 20
33.22773853776232
 10
-85.22010302624362
 20
33.27996503993511
 10
-85.18227456762298
 20
33.33260843019151
 10
-85.14498909048887
 20
33.3856646410024
 10
-85.10825066237044
 20
33.43912960483864
 10
-85.07206335079677
 20
33.49299925417111
 10
-85.03643122329703
 20
33.54726952147068
 10
-85.00135834740035
 20
33.60193633920822
 10
-84.96684879063584
 20
33.65699563985462
 10
-84.9329066205326
 20
33.71244335588072
 10
-84.89953590461979
 20
33.76827541975743
 10
-84.86674071042655
 20
33.8244877639556
 10
-84.83452510548195
 20
33.88107632094611
 10
-84.80289315731518
 20
33.93803702319984
 10
-84.77184893345535
 20
33.99536580318765
 10
-84.74139650143156
 20
34.05305859338043
 10
-84.71153992877296
 20
34.11111132624904
 10
-84.68228328300865
 20
34.16951993426436
 10
-84.6536306316678
 20
34.22828034989726
 10
-84.62558604227949
 20
34.28738850561861
 10
-84.59815358237289
 20
34.34684033389929
 10
-84.5713373194771
 20
34.40663176721017
 10
-84.54514132112125
 20
34.46675873802212
 10
-84.51956965483446
 20
34.52721717880602
 10
-84.49462638814589
 20
34.58800302203273
 10
-84.47031558858464
 20
34.64911220017314
 10
-84.44664132367984
 20
34.71054064569813
 10
-84.42360766096062
 20
34.77228429107855
 10
-84.40121866795609
 20
34.83433906878528
 10
-84.37947841219539
 20
34.8967009112892
 10
-84.35839096120766
 20
34.95936575106119
 10
-84.33796038252202
 20
35.0223295205721
 10
-84.31819074366757
 20
35.08558815229282
 10
-84.29908611217348
 20
35.14913757869422
 10
-84.28065055556883
 20
35.21297373224718
 10
-84.26288814138278
 20
35.27709254542256
 10
-84.24580293714445
 20
35.34148995069124
 10
-84.22939901038295
 20
35.4061618805241
 10
-84.21368042862743
 20
35.47110426739199
 10
-84.19865125940702
 20
35.53631304376582
 10
-84.18431557025083
 20
35.60178414211643
 10
-84.170677428688
 20
35.66751349491471
 10
-84.15774090224763
 20
35.73349703463153
 10
-84.14551005845886
 20
35.79973069373776
 10
-84.13398896485084
 20
35.86621040470428
 10
-84.12318168895266
 20
35.93293210000195
 10
-84.11309229829347
 20
35.99989171210166
 10
-84.10372486040241
 20
36.06708517347428
 10
-84.09508344280856
 20
36.13450841659067
 10
-84.08717211304111
 20
36.20215737392172
 10
-84.07999493862913
 20
36.27002797793828
 10
-84.07355598710177
 20
36.33811616111126
 10
-84.06785932598815
 20
36.40641785591151
 10
-84.06290902281741
 20
36.47492899480989
 10
-84.05870914511865
 20
36.5436455102773
 10
-84.05526376042102
 20
36.61256333478461
 10
-84.05257693625365
 20
36.68167840080267
 10
-84.05065274014566
 20
36.75098664080238
 10
-84.04949523962619
 20
36.82048398725459
 10
-84.04910850222433
 20
36.89016637263019
 10
-84.04910850222433
 20
36.89016637263023
 10
-84.04949523962619
 20
36.95984875800583
 10
-84.05065274014567
 20
37.02934610445804
 10
-84.05257693625367
 20
37.09865434445775
 10
-84.05526376042104
 20
37.16776941047581
 10
-84.05870914511867
 20
37.23668723498312
 10
-84.06290902281742
 20
37.30540375045052
 10
-84.06785932598817
 20
37.37391488934891
 10
-84.07355598710179
 20
37.44221658414916
 10
-84.07999493862915
 20
37.51030476732213
 10
-84.08717211304113
 20
37.57817537133871
 10
-84.0950834428086
 20
37.64582432866975
 10
-84.10372486040243
 20
37.71324757178615
 10
-84.11309229829351
 20
37.78044103315877
 10
-84.1231816889527
 20
37.84740064525847
 10
-84.13398896485087
 20
37.91412234055616
 10
-84.1455100584589
 20
37.98060205152268
 10
-84.15774090224765
 20
38.04683571062891
 10
-84.17067742868802
 20
38.11281925034572
 10
-84.18431557025085
 20
38.178548603144
 10
-84.19865125940706
 20
38.24401970149462
 10
-84.21368042862747
 20
38.30922847786844
 10
-84.22939901038299
 20
38.37417086473634
 10
-84.24580293714447
 20
38.43884279456919
 10
-84.26288814138279
 20
38.50324019983787
 10
-84.28065055556885
 20
38.56735901301325
 10
-84.29908611217349
 20
38.63119516656621
 10
-84.3181907436676
 20
38.69474459296761
 10
-84.33796038252204
 20
38.75800322468833
 10
-84.35839096120769
 20
38.82096699419925
 10
-84.37947841219543
 20
38.88363183397123
 10
-84.40121866795612
 20
38.94599367647515
 10
-84.42360766096063
 20
39.00804845418188
 10
-84.44664132367988
 20
39.06979209956231
 10
-84.47031558858467
 20
39.13122054508729
 10
-84.49462638814592
 20
39.1923297232277
 10
-84.5195696548345
 20
39.25311556645442
 10
-84.54514132112128
 20
39.31357400723832
 10
-84.57133731947712
 20
39.37370097805028
 10
-84.59815358237291
 20
39.43349241136115
 10
-84.62558604227952
 20
39.49294423964183
 10
-84.65363063166781
 20
39.55205239536319
 10
-84.68228328300869
 20
39.61081281099608
 10
-84.71153992877297
 20
39.6692214190114
 10
-84.74139650143158
 20
39.72727415188001
 10
-84.77184893345537
 20
39.78496694207279
 10
-84.80289315731521
 20
39.8422957220606
 10
-84.83452510548199
 20
39.89925642431432
 10
-84.86674071042656
 20
39.95584498130483
 10
-84.89953590461983
 20
40.012057325503
 10
-84.93290662053263
 20
40.06788938937972
 10
-84.96684879063586
 20
40.12333710540583
 10
-85.00135834740039
 20
40.17839640605222
 10
-85.03643122329707
 20
40.23306322378976
 10
-85.07206335079681
 20
40.28733349108933
 10
-85.10825066237046
 20
40.3412031404218
 10
-85.1449890904889
 20
40.39466810425804
 10
-85.18227456762302
 20
40.44772431506893
 10
-85.22010302624364
 20
40.50036770532534
 10
-85.25847039882171
 20
40.55259420749813
 10
-85.29737261782804
 20
40.60439975405819
 10
-85.33680561573353
 20
40.6557802774764
 10
-85.37676532500904
 20
40.7067317102236
 10
-85.41724767812546
 20
40.7572499847707
 10
-85.45824860755365
 20
40.80733103358856
 10
-85.49976404576449
 20
40.85697078914805
 10
-85.54178992522885
 20
40.90616518392004
 10
-85.58432217841762
 20
40.95491015037541
 10
-85.62735673780165
 20
41.00320162098504
 10
-85.67088953585182
 20
41.05103552821979
 10
-85.71491650503899
 20
41.09840780455054
 10
-85.75943357783406
 20
41.14531438244815
 10
-85.80443668670792
 20
41.19175119438351
 10
-85.84992176413139
 20
41.2377141728275
 10
-85.89588474257537
 20
41.28319925025097
 10
-85.94232155451074
 20
41.32820235912481
 10
-85.98922813240836
 20
41.37271943191988
 10
-86.0366004087391
 20
41.41674640110706
 10
-86.08443431597384
 20
41.46027919915724
 10
-86.13272578658348
 20
41.50331375854126
 10
-86.18147075303886
 20
41.54584601173002
 10
-86.23066514781084
 20
41.58787189119439
 10
-86.28030490337032
 20
41.62938732940523
 10
-86.33038595218819
 20
41.67038825883342
 10
-86.38090422673528
 20
41.71087061194984
 10
-86.43185565948249
 20
41.75083032122535
 10
-86.48323618290069
 20
41.79026331913084
 10
-86.53504172946076
 20
41.82916553813718
 10
-86.58726823163355
 20
41.86753291071522
 10
-86.63991162188997
 20
41.90536136933586
 10
-86.69296783270084
 20
41.94264684646997
 10
-86.74643279653707
 20
41.9793852745884
 10
-86.80030244586955
 20
42.01557258616205
 10
-86.85457271316911
 20
42.05120471366178
 10
-86.90923953090665
 20
42.08627758955848
 10
-86.96429883155305
 20
42.12078714632299
 10
-87.01974654757917
 20
42.15472931642621
 10
-87.07557861145586
 20
42.18810003233902
 10
-87.13179095565404
 20
42.22089522653227
 10
-87.18837951264456
 20
42.25311083147685
 10
-87.24534021489828
 20
42.28474277964362
 10
-87.3026689948861
 20
42.31578700350347
 10
-87.36036178507887
 20
42.34623943552725
 10
-87.4184145179475
 20
42.37609600818585
 10
-87.4768231259628
 20
42.40535265395015
 10
-87.5355835415957
 20
42.434005305291
 10
-87.59469169731707
 20
42.4620498946793
 10
-87.65414352559774
 20
42.4894823545859
 10
-87.71393495890862
 20
42.5162986174817
 10
-87.77406192972057
 20
42.54249461583754
 10
-87.83452037050448
 20
42.56806628212431
 10
-87.89530621373121
 20
42.59300954881289
 10
-87.95641539187162
 20
42.61732034837414
 10
-88.0178438373966
 20
42.64099461327894
 10
-88.07958748277702
 20
42.66402827599818
 10
-88.14164226048374
 20
42.6864172690027
 10
-88.20400410298766
 20
42.70815752476339
 10
-88.26666894275964
 20
42.72924497575113
 10
-88.32963271227056
 20
42.74967555443677
 10
-88.39289134399129
 20
42.76944519329122
 10
-88.45644077039271
 20
42.78854982478532
 10
-88.52027692394566
 20
42.80698538138995
 10
-88.58439573712104
 20
42.82474779557601
 10
-88.64879314238972
 20
42.84183299981434
 10
-88.71346507222257
 20
42.85823692657582
 10
-88.77840745909047
 20
42.87395550833134
 10
-88.8436162354643
 20
42.88898467755176
 10
-88.90908733381492
 20
42.90332036670795
 10
-88.97481668661319
 20
42.91695850827079
 10
-89.04080022633001
 20
42.92989503471115
 10
-89.10703388543625
 20
42.94212587849992
 10
-89.17351359640276
 20
42.95364697210795
 10
-89.24023529170044
 20
42.96445424800612
 10
-89.30719490380015
 20
42.97454363866531
 10
-89.37438836517276
 20
42.98391107655639
 10
-89.44181160828916
 20
42.99255249415023
 10
-89.5094605656202
 20
43.0004638239177
 10
-89.57733116963678
 20
43.00764099832969
 10
-89.64541935280974
 20
43.01407994985705
 10
-89.71372104761
 20
43.01977661097067
 10
-89.78223218650837
 20
43.02472691414142
 10
-89.85094870197579
 20
43.02892679184018
 10
-89.91986652648309
 20
43.0323721765378
 10
-89.98898159250115
 20
43.03505900070518
 10
-90.05828983250086
 20
43.03698319681317
 10
-90.12778717895308
 20
43.03814069733266
 10
-90.19746956432868
 20
43.03852743473452
 10
-90.19746956432864
 20
43.03852743473452
 10
-573.0925972545096
 20
43.03852743473426
210
0.0
220
0.0
230
-1.0
  0
LWPOLYLINE
  5
24E
330
1F
100
AcDbEntity
  8
Vector Layer 1
 62
    18
420
        0
370
    30
100
AcDbPolyline
 90
      298
 70
     0
 43
0.0
 10
-573.0925972545097
 20
6.148361062105829
 10
-90.19746956432864
 20
6.148361062106196
 10
-90.19746956432864
 20
6.148361062106196
 10
-90.12778717895304
 20
6.148747799508054
 10
-90.05828983250081
 20
6.149905300027544
 10
-89.98898159250112
 20
6.151829496135539
 10
-89.91986652648305
 20
6.154516320302912
 10
-89.85094870197576
 20
6.157961705000537
 10
-89.78223218650834
 20
6.162161582699287
 10
-89.71372104760995
 20
6.167111885870035
 10
-89.64541935280971
 20
6.172808546983654
 10
-89.57733116963673
 20
6.179247498511019
 10
-89.50946056562015
 20
6.186424672923001
 10
-89.44181160828911
 20
6.194336002690475
 10
-89.37438836517271
 20
6.202977420284313
 10
-89.30719490380012
 20
6.21234485817539
 10
-89.24023529170041
 20
6.222434248834577
 10
-89.17351359640273
 20
6.23324152473275
 10
-89.10703388543621
 20
6.24476261834078
 10
-89.04080022632998
 20
6.256993462129541
 10
-88.97481668661315
 20
6.269929988569907
 10
-88.90908733381486
 20
6.28356813013275
 10
-88.84361623546425
 20
6.297903819288944
 10
-88.77840745909043
 20
6.312932988509363
 10
-88.71346507222254
 20
6.328651570264879
 10
-88.64879314238967
 20
6.345055497026366
 10
-88.584395737121
 20
6.362140701264697
 10
-88.52027692394562
 20
6.379903115450745
 10
-88.45644077039265
 20
6.398338672055384
 10
-88.39289134399125
 20
6.417443303549487
 10
-88.32963271227052
 20
6.437212942403927
 10
-88.26666894275961
 20
6.457643521089578
 10
-88.20400410298763
 20
6.478730972077313
 10
-88.14164226048371
 20
6.500471227838005
 10
-88.07958748277696
 20
6.522860220842527
 10
-88.01784383739656
 20
6.545893883561753
 10
-87.95641539187156
 20
6.569568148466556
 10
-87.89530621373115
 20
6.59387894802781
 10
-87.83452037050443
 20
6.618822214716387
 10
-87.77406192972053
 20
6.644393881003161
 10
-87.71393495890858
 20
6.670589879359004
 10
-87.65414352559771
 20
6.697406142254792
 10
-87.59469169731701
 20
6.724838602161397
 10
-87.53558354159567
 20
6.752883191549691
 10
-87.47682312596277
 20
6.781535842890549
 10
-87.41841451794746
 20
6.810792488654843
 10
-87.36036178507884
 20
6.840649061313448
 10
-87.30266899488606
 20
6.871101493337236
 10
-87.24534021489825
 20
6.90214571719708
 10
-87.18837951264452
 20
6.933777665363853
 10
-87.13179095565399
 20
6.96599327030843
 10
-87.07557861145582
 20
6.998788464501684
 10
-87.01974654757911
 20
7.032159180414486
 10
-86.96429883155301
 20
7.066101350517712
 10
-86.90923953090662
 20
7.100610907282234
 10
-86.85457271316908
 20
7.135683783178926
 10
-86.8003024458695
 20
7.17131591067866
 10
-86.74643279653704
 20
7.20750322225231
 10
-86.6929678327008
 20
7.24424165037075
 10
-86.63991162188992
 20
7.281527127504853
 10
-86.58726823163352
 20
7.319355586125491
 10
-86.53504172946071
 20
7.357722958703539
 10
-86.48323618290065
 20
7.396625177709869
 10
-86.43185565948245
 20
7.436058175615355
 10
-86.38090422673524
 20
7.47601788489087
 10
-86.33038595218813
 20
7.516500238007288
 10
-86.28030490337028
 20
7.557501167435481
 10
-86.23066514781079
 20
7.599016605646323
 10
-86.1814707530388
 20
7.641042485110688
 10
-86.13272578658344
 20
7.683574738299448
 10
-86.08443431597381
 20
7.726609297683476
 10
-86.03660040873906
 20
7.770142095733647
 10
-85.98922813240831
 20
7.814169064920833
 10
-85.9423215545107
 20
7.858686137715908
 10
-85.89588474257533
 20
7.903689246589745
 10
-85.84992176413136
 20
7.949174324013218
 10
-85.80443668670787
 20
7.995137302457199
 10
-85.75943357783403
 20
8.041574114392561
 10
-85.71491650503896
 20
8.088480692290179
 10
-85.67088953585177
 20
8.135852968620925
 10
-85.6273567378016
 20
8.183686875855674
 10
-85.58432217841758
 20
8.231978346465297
 10
-85.54178992522883
 20
8.280723312920668
 10
-85.49976404576446
 20
8.329917707692661
 10
-85.45824860755363
 20
8.379557463252149
 10
-85.41724767812544
 20
8.429638512070006
 10
-85.37676532500901
 20
8.480156786617104
 10
-85.33680561573349
 20
8.531108219364316
 10
-85.297372617828
 20
8.582488742782517
 10
-85.25847039882167
 20
8.634294289342578
 10
-85.22010302624362
 20
8.686520791515375
 10
-85.18227456762298
 20
8.73916418177178
 10
-85.14498909048887
 20
8.792220392582665
 10
-85.10825066237044
 20
8.845685356418906
 10
-85.07206335079677
 20
8.899555005751373
 10
-85.03643122329703
 20
8.953825273050943
 10
-85.00135834740035
 20
9.008492090788486
 10
-84.96684879063584
 20
9.063551391434877
 10
-84.9329066205326
 20
9.118999107460989
 10
-84.89953590461979
 20
9.174831171337695
 10
-84.86674071042655
 20
9.231043515535869
 10
-84.83452510548195
 20
9.287632072526383
 10
-84.80289315731518
 20
9.344592774780112
 10
-84.77184893345535
 20
9.401921554767929
 10
-84.74139650143156
 20
9.459614344960705
 10
-84.71153992877296
 20
9.517667077829315
 10
-84.68228328300865
 20
9.576075685844633
 10
-84.6536306316678
 20
9.634836101477532
 10
-84.62558604227949
 20
9.693944257198884
 10
-84.59815358237289
 20
9.753396085479563
 10
-84.5713373194771
 20
9.813187518790442
 10
-84.54514132112125
 20
9.873314489602396
 10
-84.51956965483446
 20
9.933772930386297
 10
-84.49462638814589
 20
9.994558773613018
 10
-84.47031558858464
 20
10.05566795175343
 10
-84.44664132367984
 20
10.11709639727841
 10
-84.42360766096062
 20
10.17884004265883
 10
-84.40121866795609
 20
10.24089482036557
 10
-84.37947841219539
 20
10.30325666286949
 10
-84.35839096120766
 20
10.36592150264147
 10
-84.33796038252202
 20
10.42888527215239
 10
-84.31819074366757
 20
10.49214390387311
 10
-84.29908611217348
 20
10.55569333027451
 10
-84.28065055556883
 20
10.61952948382746
 10
-84.26288814138278
 20
10.68364829700285
 10
-84.24580293714445
 20
10.74804570227152
 10
-84.22939901038295
 20
10.81271763210438
 10
-84.21368042862743
 20
10.87766001897228
 10
-84.19865125940702
 20
10.9428687953461
 10
-84.18431557025083
 20
11.00833989369671
 10
-84.170677428688
 20
11.07406924649499
 10
-84.15774090224763
 20
11.14005278621181
 10
-84.14551005845886
 20
11.20628644531804
 10
-84.13398896485084
 20
11.27276615628456
 10
-84.12318168895266
 20
11.33948785158223
 10
-84.11309229829347
 20
11.40644746368194
 10
-84.10372486040241
 20
11.47364092505456
 10
-84.09508344280856
 20
11.54106416817095
 10
-84.08717211304111
 20
11.608713125502
 10
-84.07999493862913
 20
11.67658372951857
 10
-84.07355598710177
 20
11.74467191269154
 10
-84.06785932598815
 20
11.81297360749179
 10
-84.06290902281741
 20
11.88148474639018
 10
-84.05870914511865
 20
11.95020126185759
 10
-84.05526376042102
 20
12.01911908636489
 10
-84.05257693625365
 20
12.08823415238295
 10
-84.05065274014566
 20
12.15754239238266
 10
-84.04949523962619
 20
12.22703973883487
 10
-84.04910850222433
 20
12.29672212421048
 10
-84.04910850222433
 20
12.29672212421049
 10
-84.04949523962619
 20
12.3664045095861
 10
-84.05065274014567
 20
12.43590185603832
 10
-84.05257693625367
 20
12.50521009603802
 10
-84.05526376042104
 20
12.57432516205609
 10
-84.05870914511867
 20
12.64324298656339
 10
-84.06290902281742
 20
12.7119595020308
 10
-84.06785932598817
 20
12.78047064092919
 10
-84.07355598710179
 20
12.84877233572943
 10
-84.07999493862915
 20
12.91686051890241
 10
-84.08717211304113
 20
12.98473112291898
 10
-84.09508344280858
 20
13.05238008025003
 10
-84.10372486040243
 20
13.11980332336642
 10
-84.11309229829349
 20
13.18699678473904
 10
-84.12318168895268
 20
13.25395639683875
 10
-84.13398896485086
 20
13.32067809213642
 10
-84.14551005845888
 20
13.38715780310294
 10
-84.15774090224763
 20
13.45339146220917
 10
-84.170677428688
 20
13.51937500192599
 10
-84.18431557025085
 20
13.58510435472427
 10
-84.19865125940704
 20
13.65057545307488
 10
-84.21368042862745
 20
13.7157842294487
 10
-84.22939901038297
 20
13.7807266163166
 10
-84.24580293714447
 20
13.84539854614946
 10
-84.26288814138279
 20
13.90979595141814
 10
-84.28065055556883
 20
13.97391476459352
 10
-84.29908611217348
 20
14.03775091814647
 10
-84.31819074366758
 20
14.10130034454788
 10
-84.33796038252202
 20
14.1645589762686
 10
-84.35839096120767
 20
14.22752274577951
 10
-84.37947841219541
 20
14.29018758555149
 10
-84.4012186679561
 20
14.35254942805541
 10
-84.42360766096063
 20
14.41460420576215
 10
-84.44664132367986
 20
14.47634785114257
 10
-84.47031558858466
 20
14.53777629666755
 10
-84.49462638814591
 20
14.59888547480797
 10
-84.51956965483448
 20
14.65967131803469
 10
-84.54514132112127
 20
14.72012975881859
 10
-84.57133731947712
 20
14.78025672963054
 10
-84.59815358237291
 20
14.84004816294142
 10
-84.6255860422795
 20
14.8994999912221
 10
-84.65363063166781
 20
14.95860814694345
 10
-84.68228328300867
 20
15.01736856257635
 10
-84.71153992877296
 20
15.07577717059167
 10
-84.74139650143156
 20
15.13382990346028
 10
-84.77184893345535
 20
15.19152269365306
 10
-84.8028931573152
 20
15.24885147364087
 10
-84.83452510548197
 20
15.3058121758946
 10
-84.86674071042655
 20
15.36240073288512
 10
-84.89953590461981
 20
15.41861307708329
 10
-84.93290662053261
 20
15.47444514096
 10
-84.96684879063584
 20
15.52989285698611
 10
-85.00135834740037
 20
15.5849521576325
 10
-85.03643122329705
 20
15.63961897537005
 10
-85.07206335079679
 20
15.69388924266962
 10
-85.10825066237044
 20
15.74775889200208
 10
-85.14498909048889
 20
15.80122385583832
 10
-85.182274567623
 20
15.85428006664921
 10
-85.22010302624364
 20
15.90692345690562
 10
-85.25847039882169
 20
15.95914995907841
 10
-85.29737261782802
 20
16.01095550563847
 10
-85.33680561573351
 20
16.06233602905668
 10
-85.37676532500903
 20
16.11328746180389
 10
-85.41724767812544
 20
16.16380573635099
 10
-85.45824860755365
 20
16.21388678516884
 10
-85.49976404576447
 20
16.26352654072833
 10
-85.54178992522883
 20
16.31272093550032
 10
-85.5843221784176
 20
16.3614659019557
 10
-85.62735673780164
 20
16.40975737256532
 10
-85.6708895358518
 20
16.45759127980007
 10
-85.71491650503899
 20
16.50496355613081
 10
-85.75943357783406
 20
16.55187013402843
 10
-85.8044366867079
 20
16.59830694596379
 10
-85.84992176413138
 20
16.64426992440778
 10
-85.89588474257537
 20
16.68975500183124
 10
-85.94232155451072
 20
16.73475811070508
 10
-85.98922813240834
 20
16.77927518350015
 10
-86.0366004087391
 20
16.82330215268734
 10
-86.08443431597384
 20
16.86683495073751
 10
-86.13272578658346
 20
16.90986951012154
 10
-86.18147075303884
 20
16.9524017633103
 10
-86.23066514781083
 20
16.99442764277467
 10
-86.2803049033703
 20
17.03594308098551
 10
-86.33038595218817
 20
17.07694401041371
 10
-86.38090422673526
 20
17.11742636353012
 10
-86.43185565948249
 20
17.15738607280564
 10
-86.48323618290069
 20
17.19681907071112
 10
-86.53504172946075
 20
17.23572128971746
 10
-86.58726823163354
 20
17.2740886622955
 10
-86.63991162188995
 20
17.31191712091614
 10
-86.69296783270082
 20
17.34920259805024
 10
-86.74643279653706
 20
17.38594102616868
 10
-86.80030244586953
 20
17.42212833774233
 10
-86.85457271316911
 20
17.45776046524207
 10
-86.90923953090665
 20
17.49283334113876
 10
-86.96429883155303
 20
17.52734289790328
 10
-87.01974654757915
 20
17.56128506800651
 10
-87.07557861145586
 20
17.59465578391931
 10
-87.13179095565402
 20
17.62745097811256
 10
-87.18837951264454
 20
17.65966658305714
 10
-87.24534021489828
 20
17.69129853122391
 10
-87.3026689948861
 20
17.72234275508376
 10
-87.36036178507886
 20
17.75279518710754
 10
-87.41841451794748
 20
17.78265175976615
 10
-87.4768231259628
 20
17.81190840553044
 10
-87.5355835415957
 20
17.8405610568713
 10
-87.59469169731705
 20
17.8686056462596
 10
-87.65414352559773
 20
17.8960381061662
 10
-87.7139349589086
 20
17.92285436906199
 10
-87.77406192972057
 20
17.94905036741784
 10
-87.83452037050446
 20
17.97462203370461
 10
-87.89530621373119
 20
17.99956530039319
 10
-87.9564153918716
 20
18.02387609995444
 10
-88.01784383739658
 20
18.04755036485924
 10
-88.079587482777
 20
18.07058402757847
 10
-88.14164226048374
 20
18.09297302058299
 10
-88.20400410298764
 20
18.11471327634368
 10
-88.26666894275964
 20
18.13580072733142
 10
-88.32963271227056
 20
18.15623130601707
 10
-88.39289134399129
 20
18.17600094487151
 10
-88.45644077039269
 20
18.19510557636561
 10
-88.52027692394564
 20
18.21354113297025
 10
-88.58439573712102
 20
18.2313035471563
 10
-88.64879314238971
 20
18.24838875139463
 10
-88.71346507222256
 20
18.26479267815612
 10
-88.77840745909045
 20
18.28051125991164
 10
-88.84361623546428
 20
18.29554042913206
 10
-88.9090873338149
 20
18.30987611828825
 10
-88.97481668661319
 20
18.32351425985109
 10
-89.04080022633001
 20
18.33645078629146
 10
-89.10703388543623
 20
18.34868163008022
 10
-89.17351359640276
 20
18.36020272368825
 10
-89.24023529170042
 20
18.37100999958643
 10
-89.30719490380013
 20
18.38109939024561
 10
-89.37438836517275
 20
18.39046682813669
 10
-89.44181160828915
 20
18.39910824573053
 10
-89.50946056562019
 20
18.407019575498
 10
-89.57733116963677
 20
18.41419674990999
 10
-89.64541935280974
 20
18.42063570143735
 10
-89.71372104760998
 20
18.42633236255097
 10
-89.78223218650837
 20
18.43128266572172
 10
-89.85094870197578
 20
18.43548254342047
 10
-89.91986652648307
 20
18.43892792811809
 10
-89.98898159250115
 20
18.44161475228547
 10
-90.05828983250085
 20
18.44353894839346
 10
-90.12778717895306
 20
18.44469644891295
 10
-90.19746956432866
 20
18.44508318631481
 10
-90.19746956432864
 20
18.44508318631479
 10
-573.0925972545096
 20
18.44508318631454
210
0.0
220
0.0
230
-1.0
  0
LWPOLYLINE
  5
24F
330
1F
100
AcDbEntity
  8
Vector Layer 1
 62
    18
420
        0
370
    30
100
AcDbPolyline
 90
      298
 70
     0
 43
0.0
 10
-573.0925972545095
 20
-18.4450831863139
 10
-90.19746956432864
 20
-18.44508318631353
 10
-90.19746956432864
 20
-18.44508318631353
 10
-90.12778717895304
 20
-18.44469644891168
 10
-90.05828983250081
 20
-18.44353894839219
 10
-89.98898159250112
 20
-18.44161475228419
 10
-89.91986652648305
 20
-18.43892792811682
 10
-89.85094870197576
 20
-18.43548254341919
 10
-89.78223218650834
 20
-18.43128266572044
 10
-89.71372104760995
 20
-18.4263323625497
 10
-89.64541935280971
 20
-18.42063570143607
 10
-89.57733116963673
 20
-18.41419674990871
 10
-89.50946056562015
 20
-18.40701957549673
 10
-89.44181160828911
 20
-18.39910824572925
 10
-89.37438836517271
 20
-18.39046682813541
 10
-89.30719490380012
 20
-18.38109939024434
 10
-89.24023529170041
 20
-18.37100999958515
 10
-89.17351359640273
 20
-18.36020272368697
 10
-89.10703388543621
 20
-18.34868163007894
 10
-89.04080022632998
 20
-18.33645078629018
 10
-88.97481668661315
 20
-18.32351425984982
 10
-88.90908733381486
 20
-18.30987611828697
 10
-88.84361623546425
 20
-18.29554042913078
 10
-88.77840745909043
 20
-18.28051125991036
 10
-88.71346507222254
 20
-18.26479267815485
 10
-88.64879314238967
 20
-18.24838875139336
 10
-88.584395737121
 20
-18.23130354715503
 10
-88.52027692394562
 20
-18.21354113296898
 10
-88.45644077039265
 20
-18.19510557636434
 10
-88.39289134399125
 20
-18.17600094487024
 10
-88.32963271227052
 20
-18.15623130601579
 10
-88.26666894275961
 20
-18.13580072733014
 10
-88.20400410298763
 20
-18.11471327634241
 10
-88.14164226048371
 20
-18.09297302058172
 10
-88.07958748277696
 20
-18.0705840275772
 10
-88.01784383739656
 20
-18.04755036485797
 10
-87.95641539187156
 20
-18.02387609995317
 10
-87.89530621373115
 20
-17.99956530039192
 10
-87.83452037050443
 20
-17.97462203370334
 10
-87.77406192972053
 20
-17.94905036741656
 10
-87.71393495890858
 20
-17.92285436906072
 10
-87.65414352559771
 20
-17.89603810616493
 10
-87.59469169731701
 20
-17.86860564625833
 10
-87.53558354159567
 20
-17.84056105687003
 10
-87.47682312596277
 20
-17.81190840552918
 10
-87.41841451794746
 20
-17.78265175976488
 10
-87.36036178507884
 20
-17.75279518710628
 10
-87.30266899488606
 20
-17.72234275508249
 10
-87.24534021489825
 20
-17.69129853122265
 10
-87.18837951264452
 20
-17.65966658305587
 10
-87.13179095565399
 20
-17.6274509781113
 10
-87.07557861145582
 20
-17.59465578391805
 10
-87.01974654757911
 20
-17.56128506800525
 10
-86.96429883155301
 20
-17.52734289790202
 10
-86.90923953090662
 20
-17.4928333411375
 10
-86.85457271316908
 20
-17.4577604652408
 10
-86.8003024458695
 20
-17.42212833774107
 10
-86.74643279653704
 20
-17.38594102616742
 10
-86.6929678327008
 20
-17.34920259804898
 10
-86.63991162188992
 20
-17.31191712091488
 10
-86.58726823163352
 20
-17.27408866229424
 10
-86.53504172946071
 20
-17.23572128971619
 10
-86.48323618290065
 20
-17.19681907070986
 10
-86.43185565948245
 20
-17.15738607280437
 10
-86.38090422673524
 20
-17.11742636352886
 10
-86.33038595218813
 20
-17.07694401041244
 10
-86.28030490337028
 20
-17.03594308098425
 10
-86.23066514781079
 20
-16.9944276427734
 10
-86.1814707530388
 20
-16.95240176330904
 10
-86.13272578658344
 20
-16.90986951012028
 10
-86.08443431597381
 20
-16.86683495073625
 10
-86.03660040873906
 20
-16.82330215268608
 10
-85.98922813240831
 20
-16.77927518349889
 10
-85.9423215545107
 20
-16.73475811070382
 10
-85.89588474257533
 20
-16.68975500182998
 10
-85.84992176413136
 20
-16.64426992440651
 10
-85.80443668670787
 20
-16.59830694596253
 10
-85.75943357783403
 20
-16.55187013402717
 10
-85.71491650503896
 20
-16.50496355612955
 10
-85.67088953585177
 20
-16.4575912797988
 10
-85.6273567378016
 20
-16.40975737256405
 10
-85.58432217841758
 20
-16.36146590195443
 10
-85.54178992522883
 20
-16.31272093549906
 10
-85.49976404576446
 20
-16.26352654072707
 10
-85.45824860755363
 20
-16.21388678516758
 10
-85.41724767812544
 20
-16.16380573634972
 10
-85.37676532500901
 20
-16.11328746180262
 10
-85.33680561573349
 20
-16.06233602905541
 10
-85.297372617828
 20
-16.01095550563721
 10
-85.25847039882167
 20
-15.95914995907715
 10
-85.22010302624362
 20
-15.90692345690435
 10
-85.18227456762298
 20
-15.85428006664795
 10
-85.14498909048887
 20
-15.80122385583706
 10
-85.10825066237044
 20
-15.74775889200082
 10
-85.07206335079677
 20
-15.69388924266835
 10
-85.03643122329703
 20
-15.63961897536878
 10
-85.00135834740035
 20
-15.58495215763124
 10
-84.96684879063584
 20
-15.52989285698485
 10
-84.9329066205326
 20
-15.47444514095874
 10
-84.89953590461979
 20
-15.41861307708203
 10
-84.86674071042655
 20
-15.36240073288386
 10
-84.83452510548195
 20
-15.30581217589334
 10
-84.80289315731518
 20
-15.24885147363961
 10
-84.77184893345535
 20
-15.1915226936518
 10
-84.74139650143156
 20
-15.13382990345902
 10
-84.71153992877296
 20
-15.07577717059041
 10
-84.68228328300865
 20
-15.01736856257509
 10
-84.6536306316678
 20
-14.95860814694219
 10
-84.62558604227949
 20
-14.89949999122084
 10
-84.59815358237289
 20
-14.84004816294016
 10
-84.5713373194771
 20
-14.78025672962928
 10
-84.54514132112125
 20
-14.72012975881733
 10
-84.51956965483446
 20
-14.65967131803343
 10
-84.49462638814589
 20
-14.59888547480671
 10
-84.47031558858464
 20
-14.53777629666629
 10
-84.44664132367984
 20
-14.47634785114131
 10
-84.42360766096062
 20
-14.41460420576089
 10
-84.40121866795609
 20
-14.35254942805415
 10
-84.37947841219539
 20
-14.29018758555023
 10
-84.35839096120766
 20
-14.22752274577825
 10
-84.33796038252202
 20
-14.16455897626734
 10
-84.31819074366757
 20
-14.10130034454662
 10
-84.29908611217348
 20
-14.03775091814521
 10
-84.28065055556883
 20
-13.97391476459226
 10
-84.26288814138278
 20
-13.90979595141688
 10
-84.24580293714445
 20
-13.8453985461482
 10
-84.22939901038295
 20
-13.78072661631535
 10
-84.21368042862743
 20
-13.71578422944745
 10
-84.19865125940702
 20
-13.65057545307363
 10
-84.18431557025083
 20
-13.58510435472301
 10
-84.170677428688
 20
-13.51937500192474
 10
-84.15774090224763
 20
-13.45339146220792
 10
-84.14551005845886
 20
-13.38715780310169
 10
-84.13398896485084
 20
-13.32067809213517
 10
-84.12318168895266
 20
-13.25395639683749
 10
-84.11309229829347
 20
-13.18699678473779
 10
-84.10372486040241
 20
-13.11980332336517
 10
-84.09508344280856
 20
-13.05238008024877
 10
-84.08717211304111
 20
-12.98473112291773
 10
-84.07999493862913
 20
-12.91686051890116
 10
-84.07355598710177
 20
-12.84877233572818
 10
-84.06785932598815
 20
-12.78047064092794
 10
-84.06290902281741
 20
-12.71195950202955
 10
-84.05870914511865
 20
-12.64324298656214
 10
-84.05526376042102
 20
-12.57432516205484
 10
-84.05257693625365
 20
-12.50521009603678
 10
-84.05065274014566
 20
-12.43590185603707
 10
-84.04949523962619
 20
-12.36640450958486
 10
-84.04910850222433
 20
-12.29672212420925
 10
-84.04910850222433
 20
-12.29672212420923
 10
-84.04949523962619
 20
-12.22703973883363
 10
-84.05065274014567
 20
-12.15754239238141
 10
-84.05257693625367
 20
-12.0882341523817
 10
-84.05526376042104
 20
-12.01911908636364
 10
-84.05870914511867
 20
-11.95020126185634
 10
-84.06290902281742
 20
-11.88148474638893
 10
-84.06785932598817
 20
-11.81297360749054
 10
-84.07355598710179
 20
-11.74467191269029
 10
-84.07999493862915
 20
-11.67658372951732
 10
-84.08717211304113
 20
-11.60871312550075
 10
-84.0950834428086
 20
-11.5410641681697
 10
-84.10372486040243
 20
-11.47364092505331
 10
-84.11309229829351
 20
-11.40644746368069
 10
-84.1231816889527
 20
-11.33948785158098
 10
-84.13398896485087
 20
-11.2727661562833
 10
-84.1455100584589
 20
-11.20628644531679
 10
-84.15774090224765
 20
-11.14005278621056
 10
-84.17067742868802
 20
-11.07406924649374
 10
-84.18431557025085
 20
-11.00833989369546
 10
-84.19865125940706
 20
-10.94286879534485
 10
-84.21368042862747
 20
-10.87766001897103
 10
-84.22939901038299
 20
-10.81271763210313
 10
-84.24580293714447
 20
-10.74804570227027
 10
-84.26288814138279
 20
-10.68364829700159
 10
-84.28065055556885
 20
-10.61952948382621
 10
-84.29908611217349
 20
-10.55569333027325
 10
-84.3181907436676
 20
-10.49214390387185
 10
-84.33796038252204
 20
-10.42888527215113
 10
-84.35839096120769
 20
-10.36592150264022
 10
-84.37947841219543
 20
-10.30325666286823
 10
-84.40121866795612
 20
-10.24089482036431
 10
-84.42360766096063
 20
-10.17884004265758
 10
-84.44664132367988
 20
-10.11709639727716
 10
-84.47031558858467
 20
-10.05566795175218
 10
-84.49462638814592
 20
-9.994558773611762
 10
-84.5195696548345
 20
-9.933772930385041
 10
-84.54514132112128
 20
-9.87331448960114
 10
-84.57133731947712
 20
-9.813187518789186
 10
-84.59815358237291
 20
-9.753396085478307
 10
-84.62558604227952
 20
-9.693944257197628
 10
-84.65363063166781
 20
-9.634836101476276
 10
-84.68228328300869
 20
-9.576075685843377
 10
-84.71153992877297
 20
-9.517667077828059
 10
-84.74139650143158
 20
-9.459614344959449
 10
-84.77184893345537
 20
-9.401921554766673
 10
-84.80289315731521
 20
-9.344592774778856
 10
-84.83452510548199
 20
-9.287632072525127
 10
-84.86674071042656
 20
-9.231043515534611
 10
-84.89953590461983
 20
-9.174831171336437
 10
-84.93290662053263
 20
-9.11899910745973
 10
-84.96684879063586
 20
-9.063551391433618
 10
-85.00135834740039
 20
-9.008492090787227
 10
-85.03643122329707
 20
-8.953825273049682
 10
-85.07206335079681
 20
-8.899555005750112
 10
-85.10825066237046
 20
-8.845685356417645
 10
-85.1449890904889
 20
-8.792220392581404
 10
-85.18227456762302
 20
-8.739164181770517
 10
-85.22010302624364
 20
-8.686520791514112
 10
-85.25847039882171
 20
-8.634294289341315
 10
-85.29737261782804
 20
-8.582488742781253
 10
-85.33680561573353
 20
-8.531108219363051
 10
-85.37676532500904
 20
-8.480156786615838
 10
-85.41724767812546
 20
-8.42963851206874
 10
-85.45824860755365
 20
-8.379557463250883
 10
-85.49976404576449
 20
-8.329917707691395
 10
-85.54178992522885
 20
-8.280723312919402
 10
-85.58432217841762
 20
-8.23197834646403
 10
-85.62735673780165
 20
-8.183686875854407
 10
-85.67088953585182
 20
-8.135852968619659
 10
-85.71491650503899
 20
-8.088480692288912
 10
-85.75943357783406
 20
-8.041574114391295
 10
-85.80443668670792
 20
-7.995137302455932
 10
-85.84992176413139
 20
-7.94917432401195
 10
-85.89588474257537
 20
-7.903689246588478
 10
-85.94232155451074
 20
-7.858686137714641
 10
-85.98922813240836
 20
-7.814169064919565
 10
-86.0366004087391
 20
-7.770142095732378
 10
-86.08443431597384
 20
-7.726609297682206
 10
-86.13272578658348
 20
-7.683574738298177
 10
-86.18147075303886
 20
-7.641042485109417
 10
-86.23066514781084
 20
-7.599016605645052
 10
-86.28030490337032
 20
-7.55750116743421
 10
-86.33038595218819
 20
-7.516500238006017
 10
-86.38090422673528
 20
-7.476017884889599
 10
-86.43185565948249
 20
-7.436058175614084
 10
-86.48323618290069
 20
-7.396625177708598
 10
-86.53504172946076
 20
-7.357722958702267
 10
-86.58726823163355
 20
-7.31935558612422
 10
-86.63991162188997
 20
-7.281527127503581
 10
-86.69296783270084
 20
-7.244241650369478
 10
-86.74643279653707
 20
-7.207503222251038
 10
-86.80030244586955
 20
-7.171315910677388
 10
-86.85457271316911
 20
-7.135683783177653
 10
-86.90923953090665
 20
-7.100610907280962
 10
-86.96429883155305
 20
-7.066101350516439
 10
-87.01974654757917
 20
-7.032159180413213
 10
-87.07557861145586
 20
-6.998788464500409
 10
-87.13179095565404
 20
-6.965993270307156
 10
-87.18837951264456
 20
-6.933777665362579
 10
-87.24534021489828
 20
-6.902145717195805
 10
-87.3026689948861
 20
-6.871101493335961
 10
-87.36036178507887
 20
-6.840649061312173
 10
-87.4184145179475
 20
-6.810792488653569
 10
-87.4768231259628
 20
-6.781535842889274
 10
-87.5355835415957
 20
-6.752883191548416
 10
-87.59469169731707
 20
-6.724838602160122
 10
-87.65414352559774
 20
-6.697406142253518
 10
-87.71393495890862
 20
-6.67058987935773
 10
-87.77406192972057
 20
-6.644393881001885
 10
-87.83452037050448
 20
-6.618822214715111
 10
-87.89530621373121
 20
-6.593878948026533
 10
-87.95641539187162
 20
-6.56956814846528
 10
-88.0178438373966
 20
-6.545893883560476
 10
-88.07958748277702
 20
-6.52286022084125
 10
-88.14164226048374
 20
-6.500471227836728
 10
-88.20400410298766
 20
-6.478730972076036
 10
-88.26666894275964
 20
-6.457643521088301
 10
-88.32963271227056
 20
-6.43721294240265
 10
-88.39289134399129
 20
-6.41744330354821
 10
-88.45644077039271
 20
-6.398338672054107
 10
-88.52027692394566
 20
-6.379903115449468
 10
-88.58439573712104
 20
-6.362140701263419
 10
-88.64879314238972
 20
-6.345055497025088
 10
-88.71346507222257
 20
-6.328651570263602
 10
-88.77840745909047
 20
-6.312932988508086
 10
-88.8436162354643
 20
-6.297903819287667
 10
-88.90908733381492
 20
-6.283568130131473
 10
-88.97481668661319
 20
-6.269929988568629
 10
-89.04080022633001
 20
-6.256993462128264
 10
-89.10703388543625
 20
-6.244762618339502
 10
-89.17351359640276
 20
-6.233241524731472
 10
-89.24023529170044
 20
-6.2224342488333
 10
-89.30719490380015
 20
-6.212344858174112
 10
-89.37438836517276
 20
-6.202977420283036
 10
-89.44181160828916
 20
-6.194336002689198
 10
-89.5094605656202
 20
-6.186424672921724
 10
-89.57733116963678
 20
-6.179247498509742
 10
-89.64541935280974
 20
-6.172808546982377
 10
-89.71372104761
 20
-6.167111885868758
 10
-89.78223218650837
 20
-6.16216158269801
 10
-89.85094870197579
 20
-6.15796170499926
 10
-89.91986652648309
 20
-6.154516320301635
 10
-89.98898159250115
 20
-6.151829496134261
 10
-90.05828983250086
 20
-6.149905300026266
 10
-90.12778717895308
 20
-6.148747799506776
 10
-90.19746956432868
 20
-6.148361062104918
 10
-90.19746956432864
 20
-6.148361062104932
 10
-573.0925972545096
 20
-6.148361062105195
210
0.0
220
0.0
230
-1.0
  0
LWPOLYLINE
  5
250
330
1F
100
AcDbEntity
  8
Vector Layer 1
 62
    18
420
        0
370
    30
100
AcDbPolyline
 90
      264
 70
     0
 43
0.0
 10
-573.0925972545094
 20
-4.762499999999924
 10
-76.19999999999999
 20
-4.762499999999818
 10
-76.19999999999999
 20
-4.762499999999818
 10
-76.13892179474399
 20
-4.762116365412084
 10
-76.07802771809966
 20
-4.760968506769318
 10
-76.01732233774765
 20
-4.759060991752176
 10
-75.9568102213686
 20
-4.756398388041316
 10
-75.89649593664318
 20
-4.752985263317394
 10
-75.83638405125204
 20
-4.748826185261066
 10
-75.77647913287584
 20
-4.743925721552988
 10
-75.71678574919525
 20
-4.738288439873818
 10
-75.65730846789091
 20
-4.731918907904212
 10
-75.59805185664349
 20
-4.724821693324826
 10
-75.53902048313364
 20
-4.717001363816316
 10
-75.48021891504202
 20
-4.70846248705934
 10
-75.42165172004927
 20
-4.699209630734553
 10
-75.36332346583606
 20
-4.689247362522612
 10
-75.30523872008304
 20
-4.678580250104173
 10
-75.24740205047087
 20
-4.667212861159894
 10
-75.18981802468021
 20
-4.65514976337043
 10
-75.1324912103917
 20
-4.642395524416438
 10
-75.07542617528603
 20
-4.628954711978574
 10
-75.01862748704382
 20
-4.614831893737496
 10
-74.96209971334576
 20
-4.600031637373859
 10
-74.90584742187248
 20
-4.584558510568319
 10
-74.84987518030465
 20
-4.568417081001534
 10
-74.79418755632292
 20
-4.551611916354159
 10
-74.73878911760795
 20
-4.534147584306852
 10
-74.68368443184039
 20
-4.516028652540269
 10
-74.6288780667009
 20
-4.497259688735065
 10
-74.57437458987015
 20
-4.477845260571898
 10
-74.52017856902877
 20
-4.457789935731424
 10
-74.46629457185744
 20
-4.4370982818943
 10
-74.41272716603681
 20
-4.415774866741181
 10
-74.35948091924753
 20
-4.393824257952726
 10
-74.30656039917026
 20
-4.371251023209588
 10
-74.25397017348567
 20
-4.348059730192427
 10
-74.20171480987439
 20
-4.324254946581898
 10
-74.14979887601709
 20
-4.299841240058657
 10
-74.09822693959442
 20
-4.274823178303361
 10
-74.04700356828705
 20
-4.249205328996666
 10
-73.99613332977563
 20
-4.222992259819228
 10
-73.94562079174082
 20
-4.196188538451705
 10
-73.89547052186327
 20
-4.168798732574753
 10
-73.84568708782365
 20
-4.140827409869028
 10
-73.79627505730259
 20
-4.112279138015186
 10
-73.74723899798077
 20
-4.083158484693885
 10
-73.69858347753883
 20
-4.053470017585779
 10
-73.65031306365743
 20
-4.023218304371527
 10
-73.60243232401725
 20
-3.992407912731785
 10
-73.55494582629891
 20
-3.961043410347209
 10
-73.50785813818308
 20
-3.929129364898455
 10
-73.46117382735044
 20
-3.896670344066181
 10
-73.41489746148162
 20
-3.863670915531041
 10
-73.36903360825728
 20
-3.830135646973694
 10
-73.32358683535808
 20
-3.796069106074794
 10
-73.27856171046469
 20
-3.761475860515
 10
-73.23396280125773
 20
-3.726360477974967
 10
-73.18979467541788
 20
-3.690727526135351
 10
-73.14606190062581
 20
-3.65458157267681
 10
-73.10276904456215
 20
-3.617927185279999
 10
-73.05992067490757
 20
-3.580768931625576
 10
-73.01752135934274
 20
-3.543111379394196
 10
-72.97557566554829
 20
-3.504959096266516
 10
-72.93408816120489
 20
-3.466316649923193
 10
-72.89306341399321
 20
-3.427188608044883
 10
-72.85250599159387
 20
-3.387579538312242
 10
-72.81242046168755
 20
-3.347494008405928
 10
-72.77281139195491
 20
-3.306936586006596
 10
-72.7336833500766
 20
-3.265911838794902
 10
-72.69504090373328
 20
-3.224424334451504
 10
-72.6568886206056
 20
-3.182478640657058
 10
-72.61923106837421
 20
-3.14007932509222
 10
-72.58207281471979
 20
-3.097230955437647
 10
-72.54541842732298
 20
-3.053938099373995
 10
-72.50927247386444
 20
-3.010205324581921
 10
-72.47363952202483
 20
-2.966037198742082
 10
-72.4385241394848
 20
-2.921438289535132
 10
-72.40393089392501
 20
-2.87641316464173
 10
-72.3698643530261
 20
-2.830966391742531
 10
-72.33632908446876
 20
-2.785102538518193
 10
-72.30332965593362
 20
-2.738826172649371
 10
-72.27087063510134
 20
-2.692141861816722
 10
-72.23895658965258
 20
-2.645054173700903
 10
-72.20759208726801
 20
-2.597567675982569
 10
-72.17678169562827
 20
-2.549686936342378
 10
-72.14652998241401
 20
-2.501416522460986
 10
-72.1168415153059
 20
-2.452761002019049
 10
-72.08772086198461
 20
-2.403724942697224
 10
-72.05917259013077
 20
-2.354312912176167
 10
-72.03120126742504
 20
-2.304529478136535
 10
-72.0038114615481
 20
-2.254379208258984
 10
-71.97700774018056
 20
-2.203866670224171
 10
-71.95079467100313
 20
-2.152996431712752
 10
-71.92517682169643
 20
-2.101773060405384
 10
-71.90015875994115
 20
-2.050201123982723
 10
-71.8757450534179
 20
-1.998285190125425
 10
-71.85194026980737
 20
-1.946029826514147
 10
-71.8287489767902
 20
-1.893439600829546
 10
-71.80617574204707
 20
-1.840519080752278
 10
-71.78422513325862
 20
-1.787272833962999
 10
-71.76290171810549
 20
-1.733705428142366
 10
-71.74221006426837
 20
-1.679821430971036
 10
-71.72215473942791
 20
-1.625625410129664
 10
-71.70274031126473
 20
-1.571121933298908
 10
-71.68397134745953
 20
-1.516315568159423
 10
-71.66585241569295
 20
-1.461210882391867
 10
-71.64838808364564
 20
-1.405812443676895
 10
-71.63158291899826
 20
-1.350124819695165
 10
-71.61544148943147
 20
-1.294152578127332
 10
-71.59996836262592
 20
-1.237900286654054
 10
-71.58516810626228
 20
-1.181372512955986
 10
-71.57104528802121
 20
-1.124573824713785
 10
-71.55760447558335
 20
-1.067508789608107
 10
-71.54485023662935
 20
-1.01018197531961
 10
-71.53278713883989
 20
-0.9525979495289497
 10
-71.52141974989561
 20
-0.8947612799167819
 10
-71.51075263747718
 20
-0.8366765341637634
 10
-71.50079036926524
 20
-0.7783482799505509
 10
-71.49153751294045
 20
-0.7197810849578006
 10
-71.48299863618348
 20
-0.6609795168661692
 10
-71.47517830667498
 20
-0.6019481433563131
 10
-71.46808109209558
 20
-0.5426915321088888
 10
-71.46171156012598
 20
-0.4832142508045526
 10
-71.4560742784468
 20
-0.4235208671239612
 10
-71.45117381473872
 20
-0.3636159487477709
 10
-71.44701473668239
 20
-0.3035040633566382
 10
-71.44360161195847
 20
-0.2431897786312196
 10
-71.44093900824761
 20
-0.1826776622521717
 10
-71.43903149323048
 20
-0.1219722819001508
 10
-71.43788363458771
 20
-0.0610782052558134
 10
-71.43749999999997
 20
0.0000000000001841
 10
-71.4375
 20
0.0000000000001805
 10
-71.43788363458773
 20
0.0610782052561776
 10
-71.4390314932305
 20
0.1219722819005146
 10
-71.44093900824763
 20
0.1826776622525352
 10
-71.4436016119585
 20
0.2431897786315829
 10
-71.44701473668241
 20
0.3035040633570011
 10
-71.45117381473875
 20
0.3636159487481335
 10
-71.45607427844684
 20
0.4235208671243236
 10
-71.461711560126
 20
0.4832142508049147
 10
-71.46808109209562
 20
0.5426915321092506
 10
-71.475178306675
 20
0.6019481433566747
 10
-71.48299863618351
 20
0.6609795168665306
 10
-71.49153751294048
 20
0.7197810849581617
 10
-71.50079036926527
 20
0.7783482799509117
 10
-71.51075263747721
 20
0.836676534164124
 10
-71.52141974989564
 20
0.8947612799171423
 10
-71.53278713883992
 20
0.95259794952931
 10
-71.54485023662939
 20
1.01018197531997
 10
-71.55760447558337
 20
1.067508789608467
 10
-71.57104528802124
 20
1.124573824714145
 10
-71.58516810626231
 20
1.181372512956345
 10
-71.59996836262596
 20
1.237900286654413
 10
-71.6154414894315
 20
1.294152578127691
 10
-71.63158291899829
 20
1.350124819695524
 10
-71.64838808364567
 20
1.405812443677254
 10
-71.66585241569298
 20
1.461210882392225
 10
-71.68397134745956
 20
1.516315568159781
 10
-71.70274031126476
 20
1.571121933299266
 10
-71.72215473942793
 20
1.625625410130022
 10
-71.7422100642684
 20
1.679821430971393
 10
-71.76290171810553
 20
1.733705428142724
 10
-71.78422513325864
 20
1.787272833963356
 10
-71.8061757420471
 20
1.840519080752635
 10
-71.82874897679024
 20
1.893439600829903
 10
-71.8519402698074
 20
1.946029826514505
 10
-71.87574505341792
 20
1.998285190125782
 10
-71.90015875994117
 20
2.05020112398308
 10
-71.92517682169647
 20
2.101773060405741
 10
-71.95079467100317
 20
2.15299643171311
 10
-71.97700774018059
 20
2.203866670224528
 10
-72.00381146154812
 20
2.254379208259341
 10
-72.03120126742508
 20
2.304529478136892
 10
-72.0591725901308
 20
2.354312912176524
 10
-72.08772086198464
 20
2.403724942697581
 10
-72.11684151530594
 20
2.452761002019407
 10
-72.14652998241404
 20
2.501416522461343
 10
-72.17678169562829
 20
2.549686936342736
 10
-72.20759208726803
 20
2.597567675982927
 10
-72.23895658965261
 20
2.64505417370126
 10
-72.27087063510137
 20
2.692141861817079
 10
-72.30332965593365
 20
2.738826172649728
 10
-72.33632908446878
 20
2.78510253851855
 10
-72.36986435302613
 20
2.830966391742889
 10
-72.40393089392504
 20
2.876413164642087
 10
-72.43852413948483
 20
2.92143828953549
 10
-72.47363952202485
 20
2.966037198742439
 10
-72.50927247386447
 20
3.010205324582279
 10
-72.54541842732301
 20
3.053938099374353
 10
-72.58207281471982
 20
3.097230955438005
 10
-72.61923106837425
 20
3.140079325092578
 10
-72.65688862060563
 20
3.182478640657416
 10
-72.6950409037333
 20
3.224424334451862
 10
-72.73368335007662
 20
3.26591183879526
 10
-72.77281139195493
 20
3.306936586006954
 10
-72.81242046168756
 20
3.347494008406286
 10
-72.85250599159389
 20
3.387579538312601
 10
-72.89306341399321
 20
3.427188608045241
 10
-72.93408816120491
 20
3.466316649923552
 10
-72.9755756655483
 20
3.504959096266875
 10
-73.01752135934275
 20
3.543111379394555
 10
-73.05992067490759
 20
3.580768931625935
 10
-73.10276904456216
 20
3.617927185280358
 10
-73.14606190062582
 20
3.654581572677169
 10
-73.1897946754179
 20
3.69072752613571
 10
-73.23396280125774
 20
3.726360477975326
 10
-73.2785617104647
 20
3.761475860515359
 10
-73.3235868353581
 20
3.796069106075153
 10
-73.36903360825729
 20
3.830135646974052
 10
-73.41489746148162
 20
3.8636709155314
 10
-73.46117382735044
 20
3.89667034406654
 10
-73.50785813818309
 20
3.929129364898814
 10
-73.55494582629892
 20
3.961043410347568
 10
-73.60243232401725
 20
3.992407912732145
 10
-73.65031306365745
 20
4.023218304371887
 10
-73.69858347753885
 20
4.053470017586139
 10
-73.74723899798079
 20
4.083158484694244
 10
-73.79627505730261
 20
4.112279138015546
 10
-73.84568708782366
 20
4.140827409869388
 10
-73.89547052186329
 20
4.168798732575113
 10
-73.94562079174083
 20
4.196188538452065
 10
-73.99613332977565
 20
4.222992259819588
 10
-74.04700356828707
 20
4.249205328997025
 10
-74.09822693959444
 20
4.27482317830372
 10
-74.1497988760171
 20
4.299841240059016
 10
-74.2017148098744
 20
4.324254946582257
 10
-74.25397017348569
 20
4.348059730192787
 10
-74.30656039917028
 20
4.371251023209948
 10
-74.35948091924754
 20
4.393824257953085
 10
-74.41272716603683
 20
4.415774866741541
 10
-74.46629457185746
 20
4.43709828189466
 10
-74.52017856902878
 20
4.457789935731784
 10
-74.57437458987016
 20
4.477845260572258
 10
-74.62887806670092
 20
4.497259688735425
 10
-74.6836844318404
 20
4.516028652540629
 10
-74.73878911760796
 20
4.534147584307212
 10
-74.79418755632294
 20
4.551611916354519
 10
-74.84987518030466
 20
4.568417081001894
 10
-74.90584742187249
 20
4.584558510568679
 10
-74.96209971334578
 20
4.600031637374218
 10
-75.01862748704384
 20
4.614831893737855
 10
-75.07542617528604
 20
4.628954711978934
 10
-75.13249121039172
 20
4.642395524416798
 10
-75.18981802468022
 20
4.65514976337079
 10
-75.24740205047088
 20
4.667212861160254
 10
-75.30523872008306
 20
4.678580250104533
 10
-75.36332346583607
 20
4.689247362522971
 10
-75.42165172004928
 20
4.699209630734912
 10
-75.48021891504203
 20
4.708462487059699
 10
-75.53902048313365
 20
4.717001363816675
 10
-75.59805185664351
 20
4.724821693325184
 10
-75.65730846789093
 20
4.73191890790457
 10
-75.71678574919527
 20
4.738288439874176
 10
-75.77647913287586
 20
4.743925721553346
 10
-75.83638405125205
 20
4.748826185261424
 10
-75.89649593664319
 20
4.752985263317752
 10
-75.95681022136862
 20
4.756398388041674
 10
-76.01732233774765
 20
4.759060991752534
 10
-76.07802771809968
 20
4.760968506769675
 10
-76.13892179474401
 20
4.762116365412441
 10
-76.2
 20
4.762500000000176
 10
-76.19999999999999
 20
4.76250000000018
 10
-573.0925972545096
 20
4.762500000000073
210
0.0
220
0.0
230
-1.0
  0
LWPOLYLINE
  5
251
330
1F
100
AcDbEntity
  8
Vector Layer 1
 62
    18
420
        0
370
    30
100
AcDbPolyline
 90
      264
 70
     0
 43
0.0
 10
-573.0925972545094
 20
-29.35594424841966
 10
-76.19999999999999
 20
-29.35594424841955
 10
-76.19999999999999
 20
-29.35594424841955
 10
-76.13892179474399
 20
-29.35556061383182
 10
-76.07802771809966
 20
-29.35441275518905
 10
-76.01732233774765
 20
-29.35250524017191
 10
-75.9568102213686
 20
-29.34984263646105
 10
-75.89649593664318
 20
-29.34642951173712
 10
-75.83638405125204
 20
-29.3422704336808
 10
-75.77647913287584
 20
-29.33736996997272
 10
-75.71678574919525
 20
-29.33173268829355
 10
-75.65730846789091
 20
-29.32536315632394
 10
-75.59805185664349
 20
-29.31826594174456
 10
-75.53902048313364
 20
-29.31044561223605
 10
-75.48021891504202
 20
-29.30190673547907
 10
-75.42165172004927
 20
-29.29265387915429
 10
-75.36332346583606
 20
-29.28269161094235
 10
-75.30523872008304
 20
-29.27202449852391
 10
-75.24740205047087
 20
-29.26065710957963
 10
-75.18981802468021
 20
-29.24859401179017
 10
-75.1324912103917
 20
-29.23583977283617
 10
-75.07542617528603
 20
-29.22239896039831
 10
-75.01862748704382
 20
-29.20827614215723
 10
-74.96209971334576
 20
-29.19347588579359
 10
-74.90584742187248
 20
-29.17800275898806
 10
-74.84987518030465
 20
-29.16186132942127
 10
-74.79418755632292
 20
-29.14505616477389
 10
-74.73878911760795
 20
-29.12759183272659
 10
-74.68368443184039
 20
-29.10947290096
 10
-74.6288780667009
 20
-29.09070393715479
 10
-74.57437458987015
 20
-29.07128950899163
 10
-74.52017856902877
 20
-29.05123418415115
 10
-74.46629457185744
 20
-29.03054253031403
 10
-74.41272716603681
 20
-29.00921911516091
 10
-74.35948091924753
 20
-28.98726850637246
 10
-74.30656039917026
 20
-28.96469527162932
 10
-74.25397017348567
 20
-28.94150397861216
 10
-74.20171480987439
 20
-28.91769919500163
 10
-74.14979887601709
 20
-28.89328548847839
 10
-74.09822693959442
 20
-28.86826742672309
 10
-74.04700356828705
 20
-28.84264957741639
 10
-73.99613332977563
 20
-28.81643650823896
 10
-73.94562079174082
 20
-28.78963278687143
 10
-73.89547052186327
 20
-28.76224298099448
 10
-73.84568708782365
 20
-28.73427165828875
 10
-73.79627505730259
 20
-28.70572338643491
 10
-73.74723899798077
 20
-28.67660273311361
 10
-73.69858347753883
 20
-28.6469142660055
 10
-73.65031306365743
 20
-28.61666255279125
 10
-73.60243232401725
 20
-28.58585216115151
 10
-73.55494582629891
 20
-28.55448765876693
 10
-73.50785813818308
 20
-28.52257361331817
 10
-73.46117382735044
 20
-28.4901145924859
 10
-73.41489746148162
 20
-28.45711516395077
 10
-73.36903360825728
 20
-28.42357989539342
 10
-73.32358683535808
 20
-28.38951335449452
 10
-73.27856171046469
 20
-28.35492010893473
 10
-73.23396280125773
 20
-28.31980472639469
 10
-73.18979467541788
 20
-28.28417177455508
 10
-73.14606190062581
 20
-28.24802582109653
 10
-73.10276904456215
 20
-28.21137143369972
 10
-73.05992067490757
 20
-28.1742131800453
 10
-73.01752135934274
 20
-28.13655562781392
 10
-72.97557566554829
 20
-28.09840334468624
 10
-72.93408816120489
 20
-28.05976089834291
 10
-72.89306341399321
 20
-28.0206328564646
 10
-72.85250599159387
 20
-27.98102378673196
 10
-72.81242046168755
 20
-27.94093825682565
 10
-72.77281139195491
 20
-27.90038083442631
 10
-72.7336833500766
 20
-27.85935608721462
 10
-72.69504090373328
 20
-27.81786858287123
 10
-72.6568886206056
 20
-27.77592288907678
 10
-72.61923106837421
 20
-27.73352357351194
 10
-72.58207281471979
 20
-27.69067520385736
 10
-72.54541842732298
 20
-27.64738234779371
 10
-72.50927247386444
 20
-27.60364957300164
 10
-72.47363952202483
 20
-27.5594814471618
 10
-72.4385241394848
 20
-27.51488253795485
 10
-72.40393089392501
 20
-27.46985741306145
 10
-72.3698643530261
 20
-27.42441064016225
 10
-72.33632908446876
 20
-27.37854678693791
 10
-72.30332965593362
 20
-27.33227042106909
 10
-72.27087063510134
 20
-27.28558611023644
 10
-72.23895658965258
 20
-27.23849842212062
 10
-72.20759208726801
 20
-27.19101192440228
 10
-72.17678169562827
 20
-27.14313118476209
 10
-72.14652998241401
 20
-27.0948607708807
 10
-72.1168415153059
 20
-27.04620525043876
 10
-72.08772086198461
 20
-26.99716919111694
 10
-72.05917259013077
 20
-26.94775716059588
 10
-72.03120126742504
 20
-26.89797372655625
 10
-72.0038114615481
 20
-26.8478234566787
 10
-71.97700774018056
 20
-26.79731091864388
 10
-71.95079467100313
 20
-26.74644068013246
 10
-71.92517682169643
 20
-26.6952173088251
 10
-71.90015875994115
 20
-26.64364537240243
 10
-71.8757450534179
 20
-26.59172943854513
 10
-71.85194026980737
 20
-26.53947407493386
 10
-71.8287489767902
 20
-26.48688384924926
 10
-71.80617574204707
 20
-26.43396332917199
 10
-71.78422513325862
 20
-26.38071708238271
 10
-71.76290171810549
 20
-26.32714967656208
 10
-71.74221006426837
 20
-26.27326567939075
 10
-71.72215473942791
 20
-26.21906965854938
 10
-71.70274031126473
 20
-26.16456618171862
 10
-71.68397134745953
 20
-26.10975981657914
 10
-71.66585241569295
 20
-26.05465513081158
 10
-71.64838808364564
 20
-25.99925669209661
 10
-71.63158291899826
 20
-25.94356906811488
 10
-71.61544148943147
 20
-25.88759682654705
 10
-71.59996836262592
 20
-25.83134453507377
 10
-71.58516810626228
 20
-25.7748167613757
 10
-71.57104528802121
 20
-25.7180180731335
 10
-71.55760447558335
 20
-25.66095303802783
 10
-71.54485023662935
 20
-25.60362622373933
 10
-71.53278713883989
 20
-25.54604219794867
 10
-71.52141974989561
 20
-25.4882055283365
 10
-71.51075263747718
 20
-25.43012078258348
 10
-71.50079036926524
 20
-25.37179252837027
 10
-71.49153751294045
 20
-25.31322533337752
 10
-71.48299863618348
 20
-25.25442376528589
 10
-71.47517830667498
 20
-25.19539239177603
 10
-71.46808109209558
 20
-25.13613578052861
 10
-71.46171156012598
 20
-25.07665849922427
 10
-71.4560742784468
 20
-25.01696511554368
 10
-71.45117381473872
 20
-24.95706019716749
 10
-71.44701473668239
 20
-24.89694831177635
 10
-71.44360161195847
 20
-24.83663402705094
 10
-71.44093900824761
 20
-24.77612191067189
 10
-71.43903149323048
 20
-24.71541653031986
 10
-71.43788363458771
 20
-24.65452245367553
 10
-71.43749999999997
 20
-24.59344424841953
 10
-71.4375
 20
-24.59344424841955
 10
-71.43788363458773
 20
-24.53236604316356
 10
-71.4390314932305
 20
-24.47147196651922
 10
-71.44093900824763
 20
-24.4107665861672
 10
-71.4436016119585
 20
-24.35025446978815
 10
-71.44701473668241
 20
-24.28994018506273
 10
-71.45117381473875
 20
-24.2298282996716
 10
-71.45607427844684
 20
-24.16992338129541
 10
-71.461711560126
 20
-24.11022999761482
 10
-71.46808109209562
 20
-24.05075271631048
 10
-71.475178306675
 20
-23.99149610506306
 10
-71.48299863618351
 20
-23.9324647315532
 10
-71.49153751294048
 20
-23.87366316346157
 10
-71.50079036926527
 20
-23.81509596846882
 10
-71.51075263747721
 20
-23.75676771425561
 10
-71.52141974989564
 20
-23.69868296850259
 10
-71.53278713883992
 20
-23.64084629889042
 10
-71.54485023662939
 20
-23.58326227309976
 10
-71.55760447558337
 20
-23.52593545881126
 10
-71.57104528802124
 20
-23.46887042370559
 10
-71.58516810626231
 20
-23.41207173546338
 10
-71.59996836262596
 20
-23.35554396176532
 10
-71.6154414894315
 20
-23.29929167029204
 10
-71.63158291899829
 20
-23.2433194287242
 10
-71.64838808364567
 20
-23.18763180474248
 10
-71.66585241569298
 20
-23.13223336602751
 10
-71.68397134745956
 20
-23.07712868025995
 10
-71.70274031126476
 20
-23.02232231512046
 10
-71.72215473942793
 20
-22.96781883828971
 10
-71.7422100642684
 20
-22.91362281744834
 10
-71.76290171810553
 20
-22.85973882027701
 10
-71.78422513325864
 20
-22.80617141445638
 10
-71.8061757420471
 20
-22.7529251676671
 10
-71.82874897679024
 20
-22.70000464758983
 10
-71.8519402698074
 20
-22.64741442190523
 10
-71.87574505341792
 20
-22.59515905829395
 10
-71.90015875994117
 20
-22.54324312443666
 10
-71.92517682169647
 20
-22.49167118801399
 10
-71.95079467100317
 20
-22.44044781670663
 10
-71.97700774018059
 20
-22.3895775781952
 10
-72.00381146154812
 20
-22.33906504016039
 10
-72.03120126742508
 20
-22.28891477028284
 10
-72.0591725901308
 20
-22.23913133624321
 10
-72.08772086198464
 20
-22.18971930572215
 10
-72.11684151530594
 20
-22.14068324640033
 10
-72.14652998241404
 20
-22.09202772595839
 10
-72.17678169562829
 20
-22.04375731207699
 10
-72.20759208726803
 20
-21.9958765724368
 10
-72.23895658965261
 20
-21.94839007471847
 10
-72.27087063510137
 20
-21.90130238660265
 10
-72.30332965593365
 20
-21.85461807577
 10
-72.33632908446878
 20
-21.80834170990118
 10
-72.36986435302613
 20
-21.76247785667684
 10
-72.40393089392504
 20
-21.71703108377764
 10
-72.43852413948483
 20
-21.67200595888424
 10
-72.47363952202485
 20
-21.62740704967729
 10
-72.50927247386447
 20
-21.58323892383745
 10
-72.54541842732301
 20
-21.53950614904537
 10
-72.58207281471982
 20
-21.49621329298172
 10
-72.61923106837425
 20
-21.45336492332715
 10
-72.65688862060563
 20
-21.41096560776231
 10
-72.69504090373331
 20
-21.36901991396786
 10
-72.73368335007663
 20
-21.32753240962447
 10
-72.77281139195494
 20
-21.28650766241277
 10
-72.81242046168758
 20
-21.24595024001344
 10
-72.8525059915939
 20
-21.20586471010713
 10
-72.89306341399323
 20
-21.16625564037449
 10
-72.93408816120493
 20
-21.12712759849618
 10
-72.97557566554832
 20
-21.08848515215285
 10
-73.01752135934276
 20
-21.05033286902517
 10
-73.0599206749076
 20
-21.01267531679379
 10
-73.10276904456218
 20
-20.97551706313937
 10
-73.14606190062583
 20
-20.93886267574255
 10
-73.18979467541791
 20
-20.90271672228402
 10
-73.23396280125776
 20
-20.8670837704444
 10
-73.27856171046471
 20
-20.83196838790437
 10
-73.32358683535812
 20
-20.79737514234457
 10
-73.36903360825731
 20
-20.76330860144567
 10
-73.41489746148164
 20
-20.72977333288832
 10
-73.46117382735046
 20
-20.69677390435319
 10
-73.50785813818311
 20
-20.66431488352091
 10
-73.55494582629893
 20
-20.63240083807216
 10
-73.60243232401727
 20
-20.60103633568758
 10
-73.65031306365747
 20
-20.57022594404784
 10
-73.69858347753886
 20
-20.53997423083359
 10
-73.7472389979808
 20
-20.51028576372548
 10
-73.79627505730262
 20
-20.48116511040418
 10
-73.84568708782367
 20
-20.45261683855034
 10
-73.8954705218633
 20
-20.42464551584461
 10
-73.94562079174085
 20
-20.39725570996766
 10
-73.99613332977565
 20
-20.37045198860013
 10
-74.04700356828708
 20
-20.3442389194227
 10
-74.09822693959445
 20
-20.318621070116
 10
-74.14979887601711
 20
-20.29360300836071
 10
-74.20171480987441
 20
-20.26918930183747
 10
-74.25397017348569
 20
-20.24538451822694
 10
-74.30656039917029
 20
-20.22219322520977
 10
-74.35948091924756
 20
-20.19961999046663
 10
-74.41272716603684
 20
-20.17766938167818
 10
-74.46629457185747
 20
-20.15634596652506
 10
-74.5201785690288
 20
-20.13565431268793
 10
-74.57437458987017
 20
-20.11559898784746
 10
-74.62887806670093
 20
-20.09618455968429
 10
-74.68368443184042
 20
-20.07741559587909
 10
-74.73878911760798
 20
-20.05929666411251
 10
-74.79418755632295
 20
-20.0418323320652
 10
-74.84987518030468
 20
-20.02502716741782
 10
-74.90584742187251
 20
-20.00888573785104
 10
-74.96209971334579
 20
-19.99341261104549
 10
-75.01862748704386
 20
-19.97861235468185
 10
-75.07542617528605
 20
-19.96448953644078
 10
-75.13249121039173
 20
-19.95104872400291
 10
-75.18981802468023
 20
-19.93829448504892
 10
-75.24740205047089
 20
-19.92623138725946
 10
-75.30523872008306
 20
-19.91486399831518
 10
-75.36332346583609
 20
-19.90419688589674
 10
-75.4216517200493
 20
-19.8942346176848
 10
-75.48021891504204
 20
-19.88498176136001
 10
-75.53902048313367
 20
-19.87644288460304
 10
-75.59805185664352
 20
-19.86862255509453
 10
-75.65730846789094
 20
-19.86152534051514
 10
-75.71678574919528
 20
-19.85515580854554
 10
-75.77647913287588
 20
-19.84951852686637
 10
-75.83638405125206
 20
-19.84461806315829
 10
-75.8964959366432
 20
-19.84045898510196
 10
-75.95681022136862
 20
-19.83704586037804
 10
-76.01732233774767
 20
-19.83438325666718
 10
-76.07802771809969
 20
-19.83247574165004
 10
-76.13892179474402
 20
-19.83132788300727
 10
-76.20000000000001
 20
-19.83094424841954
 10
-76.19999999999999
 20
-19.83094424841955
 10
-573.0925972545096
 20
-19.83094424841965
210
0.0
220
0.0
230
-1.0
  0
LWPOLYLINE
  5
252
330
1F
100
AcDbEntity
  8
Vector Layer 1
 62
    18
420
        0
370
    30
100
AcDbPolyline
 90
      298
 70
     0
 43
0.0
 10
-573.0925972545095
 20
-43.03852743473362
 10
-90.19746956432864
 20
-43.03852743473327
 10
-90.19746956432864
 20
-43.03852743473327
 10
-90.12778717895304
 20
-43.03814069733141
 10
-90.05828983250081
 20
-43.03698319681191
 10
-89.98898159250112
 20
-43.03505900070392
 10
-89.91986652648305
 20
-43.03237217653655
 10
-89.85094870197576
 20
-43.02892679183893
 10
-89.78223218650834
 20
-43.02472691414017
 10
-89.71372104760995
 20
-43.01977661096943
 10
-89.64541935280971
 20
-43.01407994985581
 10
-89.57733116963673
 20
-43.00764099832845
 10
-89.50946056562015
 20
-43.00046382391646
 10
-89.44181160828911
 20
-42.99255249414899
 10
-89.37438836517271
 20
-42.98391107655515
 10
-89.30719490380012
 20
-42.97454363866407
 10
-89.24023529170041
 20
-42.96445424800488
 10
-89.17351359640273
 20
-42.95364697210671
 10
-89.10703388543621
 20
-42.94212587849868
 10
-89.04080022632998
 20
-42.92989503470991
 10
-88.97481668661315
 20
-42.91695850826955
 10
-88.90908733381486
 20
-42.90332036670671
 10
-88.84361623546425
 20
-42.88898467755052
 10
-88.77840745909043
 20
-42.8739555083301
 10
-88.71346507222254
 20
-42.85823692657458
 10
-88.64879314238967
 20
-42.8418329998131
 10
-88.584395737121
 20
-42.82474779557476
 10
-88.52027692394562
 20
-42.80698538138872
 10
-88.45644077039265
 20
-42.78854982478408
 10
-88.39289134399125
 20
-42.76944519328998
 10
-88.32963271227052
 20
-42.74967555443554
 10
-88.26666894275961
 20
-42.72924497574989
 10
-88.20400410298763
 20
-42.70815752476216
 10
-88.14164226048371
 20
-42.68641726900146
 10
-88.07958748277696
 20
-42.66402827599693
 10
-88.01784383739656
 20
-42.64099461327771
 10
-87.95641539187156
 20
-42.6173203483729
 10
-87.89530621373115
 20
-42.59300954881164
 10
-87.83452037050443
 20
-42.56806628212308
 10
-87.77406192972053
 20
-42.5424946158363
 10
-87.71393495890858
 20
-42.51629861748045
 10
-87.65414352559771
 20
-42.48948235458467
 10
-87.59469169731701
 20
-42.46204989467806
 10
-87.53558354159567
 20
-42.43400530528977
 10
-87.47682312596277
 20
-42.40535265394892
 10
-87.41841451794746
 20
-42.37609600818462
 10
-87.36036178507884
 20
-42.34623943552602
 10
-87.30266899488606
 20
-42.31578700350223
 10
-87.24534021489825
 20
-42.28474277964239
 10
-87.18837951264452
 20
-42.25311083147562
 10
-87.13179095565399
 20
-42.22089522653104
 10
-87.07557861145582
 20
-42.18810003233778
 10
-87.01974654757911
 20
-42.15472931642498
 10
-86.96429883155301
 20
-42.12078714632176
 10
-86.90923953090662
 20
-42.08627758955723
 10
-86.85457271316908
 20
-42.05120471366054
 10
-86.8003024458695
 20
-42.01557258616081
 10
-86.74643279653704
 20
-41.97938527458716
 10
-86.6929678327008
 20
-41.94264684646872
 10
-86.63991162188992
 20
-41.90536136933462
 10
-86.58726823163352
 20
-41.86753291071398
 10
-86.53504172946071
 20
-41.82916553813593
 10
-86.48323618290065
 20
-41.7902633191296
 10
-86.43185565948245
 20
-41.75083032122411
 10
-86.38090422673524
 20
-41.71087061194859
 10
-86.33038595218813
 20
-41.67038825883218
 10
-86.28030490337028
 20
-41.62938732940399
 10
-86.23066514781079
 20
-41.58787189119315
 10
-86.1814707530388
 20
-41.54584601172878
 10
-86.13272578658344
 20
-41.50331375854002
 10
-86.08443431597381
 20
-41.46027919915599
 10
-86.03660040873906
 20
-41.41674640110582
 10
-85.98922813240831
 20
-41.37271943191864
 10
-85.9423215545107
 20
-41.32820235912356
 10
-85.89588474257533
 20
-41.28319925024973
 10
-85.84992176413136
 20
-41.23771417282625
 10
-85.80443668670787
 20
-41.19175119438227
 10
-85.75943357783403
 20
-41.14531438244691
 10
-85.71491650503896
 20
-41.0984078045493
 10
-85.67088953585177
 20
-41.05103552821854
 10
-85.6273567378016
 20
-41.0032016209838
 10
-85.58432217841758
 20
-40.95491015037417
 10
-85.54178992522883
 20
-40.9061651839188
 10
-85.49976404576446
 20
-40.8569707891468
 10
-85.45824860755363
 20
-40.80733103358731
 10
-85.41724767812544
 20
-40.75724998476945
 10
-85.37676532500901
 20
-40.70673171022236
 10
-85.33680561573349
 20
-40.65578027747515
 10
-85.297372617828
 20
-40.60439975405695
 10
-85.25847039882167
 20
-40.55259420749688
 10
-85.22010302624362
 20
-40.50036770532408
 10
-85.18227456762298
 20
-40.44772431506768
 10
-85.14498909048887
 20
-40.39466810425679
 10
-85.10825066237044
 20
-40.34120314042055
 10
-85.07206335079677
 20
-40.28733349108808
 10
-85.03643122329703
 20
-40.23306322378851
 10
-85.00135834740035
 20
-40.17839640605097
 10
-84.96684879063584
 20
-40.12333710540458
 10
-84.9329066205326
 20
-40.06788938937846
 10
-84.89953590461979
 20
-40.01205732550175
 10
-84.86674071042655
 20
-39.95584498130359
 10
-84.83452510548195
 20
-39.89925642431308
 10
-84.80289315731518
 20
-39.84229572205934
 10
-84.77184893345535
 20
-39.78496694207153
 10
-84.74139650143156
 20
-39.72727415187875
 10
-84.71153992877296
 20
-39.66922141901014
 10
-84.68228328300865
 20
-39.61081281099482
 10
-84.6536306316678
 20
-39.55205239536193
 10
-84.62558604227949
 20
-39.49294423964057
 10
-84.59815358237289
 20
-39.43349241135989
 10
-84.5713373194771
 20
-39.37370097804901
 10
-84.54514132112125
 20
-39.31357400723706
 10
-84.51956965483446
 20
-39.25311556645315
 10
-84.49462638814589
 20
-39.19232972322644
 10
-84.47031558858464
 20
-39.13122054508603
 10
-84.44664132367984
 20
-39.06979209956104
 10
-84.42360766096062
 20
-39.00804845418062
 10
-84.40121866795609
 20
-38.94599367647388
 10
-84.37947841219539
 20
-38.88363183396996
 10
-84.35839096120766
 20
-38.82096699419797
 10
-84.33796038252202
 20
-38.75800322468706
 10
-84.31819074366757
 20
-38.69474459296634
 10
-84.29908611217348
 20
-38.63119516656494
 10
-84.28065055556883
 20
-38.56735901301198
 10
-84.26288814138278
 20
-38.5032401998366
 10
-84.24580293714445
 20
-38.43884279456792
 10
-84.22939901038295
 20
-38.37417086473506
 10
-84.21368042862743
 20
-38.30922847786716
 10
-84.19865125940702
 20
-38.24401970149335
 10
-84.18431557025083
 20
-38.17854860314273
 10
-84.170677428688
 20
-38.11281925034445
 10
-84.15774090224763
 20
-38.04683571062764
 10
-84.14551005845886
 20
-37.9806020515214
 10
-84.13398896485084
 20
-37.91412234055488
 10
-84.12318168895266
 20
-37.8474006452572
 10
-84.11309229829347
 20
-37.7804410331575
 10
-84.10372486040241
 20
-37.71324757178488
 10
-84.09508344280856
 20
-37.64582432866848
 10
-84.08717211304111
 20
-37.57817537133744
 10
-84.07999493862913
 20
-37.51030476732086
 10
-84.07355598710177
 20
-37.44221658414789
 10
-84.06785932598815
 20
-37.37391488934764
 10
-84.06290902281741
 20
-37.30540375044925
 10
-84.05870914511865
 20
-37.23668723498184
 10
-84.05526376042102
 20
-37.16776941047454
 10
-84.05257693625365
 20
-37.09865434445648
 10
-84.05065274014566
 20
-37.02934610445677
 10
-84.04949523962619
 20
-36.95984875800455
 10
-84.04910850222433
 20
-36.89016637262895
 10
-84.04910850222433
 20
-36.89016637262896
 10
-84.04949523962619
 20
-36.82048398725336
 10
-84.05065274014567
 20
-36.75098664080115
 10
-84.05257693625367
 20
-36.68167840080144
 10
-84.05526376042104
 20
-36.61256333478338
 10
-84.05870914511867
 20
-36.54364551027607
 10
-84.06290902281742
 20
-36.47492899480866
 10
-84.06785932598817
 20
-36.40641785591028
 10
-84.07355598710179
 20
-36.33811616111003
 10
-84.07999493862915
 20
-36.27002797793706
 10
-84.08717211304113
 20
-36.20215737392048
 10
-84.09508344280858
 20
-36.13450841658944
 10
-84.10372486040243
 20
-36.06708517347304
 10
-84.11309229829349
 20
-35.99989171210042
 10
-84.12318168895268
 20
-35.93293210000072
 10
-84.13398896485086
 20
-35.86621040470304
 10
-84.14551005845888
 20
-35.79973069373652
 10
-84.15774090224763
 20
-35.73349703463029
 10
-84.170677428688
 20
-35.66751349491346
 10
-84.18431557025085
 20
-35.60178414211519
 10
-84.19865125940704
 20
-35.53631304376458
 10
-84.21368042862745
 20
-35.47110426739075
 10
-84.22939901038297
 20
-35.40616188052285
 10
-84.24580293714447
 20
-35.34148995069
 10
-84.26288814138279
 20
-35.27709254542132
 10
-84.28065055556883
 20
-35.21297373224594
 10
-84.29908611217348
 20
-35.14913757869298
 10
-84.31819074366758
 20
-35.08558815229158
 10
-84.33796038252202
 20
-35.02232952057086
 10
-84.35839096120767
 20
-34.95936575105994
 10
-84.37947841219541
 20
-34.89670091128796
 10
-84.4012186679561
 20
-34.83433906878404
 10
-84.42360766096063
 20
-34.77228429107731
 10
-84.44664132367986
 20
-34.71054064569688
 10
-84.47031558858466
 20
-34.6491122001719
 10
-84.49462638814591
 20
-34.58800302203149
 10
-84.51956965483448
 20
-34.52721717880477
 10
-84.54514132112127
 20
-34.46675873802087
 10
-84.57133731947712
 20
-34.40663176720891
 10
-84.59815358237291
 20
-34.34684033389804
 10
-84.6255860422795
 20
-34.28738850561736
 10
-84.65363063166781
 20
-34.228280349896
 10
-84.68228328300867
 20
-34.16951993426311
 10
-84.71153992877296
 20
-34.11111132624779
 10
-84.74139650143156
 20
-34.05305859337918
 10
-84.77184893345535
 20
-33.99536580318641
 10
-84.8028931573152
 20
-33.93803702319859
 10
-84.83452510548197
 20
-33.88107632094487
 10
-84.86674071042655
 20
-33.82448776395435
 10
-84.89953590461981
 20
-33.76827541975618
 10
-84.93290662053261
 20
-33.71244335587948
 10
-84.96684879063584
 20
-33.65699563985336
 10
-85.00135834740037
 20
-33.60193633920697
 10
-85.03643122329705
 20
-33.54726952146943
 10
-85.07206335079679
 20
-33.49299925416986
 10
-85.10825066237044
 20
-33.43912960483739
 10
-85.14498909048889
 20
-33.38566464100115
 10
-85.182274567623
 20
-33.33260843019026
 10
-85.22010302624364
 20
-33.27996503993386
 10
-85.25847039882169
 20
-33.22773853776106
 10
-85.29737261782802
 20
-33.175932991201
 10
-85.33680561573351
 20
-33.1245524677828
 10
-85.37676532500903
 20
-33.07360103503559
 10
-85.41724767812544
 20
-33.0230827604885
 10
-85.45824860755365
 20
-32.97300171167063
 10
-85.49976404576447
 20
-32.92336195611115
 10
-85.54178992522883
 20
-32.87416756133915
 10
-85.5843221784176
 20
-32.82542259488378
 10
-85.62735673780164
 20
-32.77713112427415
 10
-85.6708895358518
 20
-32.72929721703941
 10
-85.71491650503899
 20
-32.68192494070865
 10
-85.75943357783406
 20
-32.63501836281104
 10
-85.8044366867079
 20
-32.58858155087568
 10
-85.84992176413138
 20
-32.54261857243169
 10
-85.89588474257537
 20
-32.49713349500822
 10
-85.94232155451072
 20
-32.45213038613439
 10
-85.98922813240834
 20
-32.40761331333931
 10
-86.0366004087391
 20
-32.36358634415213
 10
-86.08443431597384
 20
-32.32005354610195
 10
-86.13272578658346
 20
-32.27701898671793
 10
-86.18147075303884
 20
-32.23448673352917
 10
-86.23066514781083
 20
-32.19246085406481
 10
-86.2803049033703
 20
-32.15094541585396
 10
-86.33038595218817
 20
-32.10994448642577
 10
-86.38090422673526
 20
-32.06946213330935
 10
-86.43185565948249
 20
-32.02950242403384
 10
-86.48323618290069
 20
-31.99006942612835
 10
-86.53504172946075
 20
-31.95116720712202
 10
-86.58726823163354
 20
-31.91279983454397
 10
-86.63991162188995
 20
-31.87497137592333
 10
-86.69296783270082
 20
-31.83768589878923
 10
-86.74643279653706
 20
-31.80094747067079
 10
-86.80030244586953
 20
-31.76476015909714
 10
-86.85457271316911
 20
-31.72912803159741
 10
-86.90923953090665
 20
-31.69405515570071
 10
-86.96429883155303
 20
-31.65954559893619
 10
-87.01974654757915
 20
-31.62560342883296
 10
-87.07557861145586
 20
-31.59223271292016
 10
-87.13179095565402
 20
-31.55943751872691
 10
-87.18837951264454
 20
-31.52722191378233
 10
-87.24534021489828
 20
-31.49558996561556
 10
-87.3026689948861
 20
-31.46454574175572
 10
-87.36036178507886
 20
-31.43409330973193
 10
-87.41841451794748
 20
-31.40423673707333
 10
-87.4768231259628
 20
-31.37498009130903
 10
-87.5355835415957
 20
-31.34632743996818
 10
-87.59469169731705
 20
-31.31828285057988
 10
-87.65414352559773
 20
-31.29085039067328
 10
-87.7139349589086
 20
-31.26403412777749
 10
-87.77406192972057
 20
-31.23783812942165
 10
-87.83452037050446
 20
-31.21226646313487
 10
-87.89530621373119
 20
-31.18732319644629
 10
-87.9564153918716
 20
-31.16301239688504
 10
-88.01784383739658
 20
-31.13933813198024
 10
-88.079587482777
 20
-31.11630446926101
 10
-88.14164226048374
 20
-31.09391547625649
 10
-88.20400410298764
 20
-31.0721752204958
 10
-88.26666894275964
 20
-31.05108776950807
 10
-88.32963271227056
 20
-31.03065719082242
 10
-88.39289134399129
 20
-31.01088755196797
 10
-88.45644077039269
 20
-30.99178292047387
 10
-88.52027692394564
 20
-30.97334736386923
 10
-88.58439573712102
 20
-30.95558494968318
 10
-88.64879314238971
 20
-30.93849974544485
 10
-88.71346507222256
 20
-30.92209581868337
 10
-88.77840745909045
 20
-30.90637723692785
 10
-88.84361623546428
 20
-30.89134806770743
 10
-88.9090873338149
 20
-30.87701237855124
 10
-88.97481668661319
 20
-30.86337423698839
 10
-89.04080022633001
 20
-30.85043771054803
 10
-89.10703388543623
 20
-30.83820686675927
 10
-89.17351359640276
 20
-30.82668577315124
 10
-89.24023529170042
 20
-30.81587849725306
 10
-89.30719490380013
 20
-30.80578910659387
 10
-89.37438836517275
 20
-30.7964216687028
 10
-89.44181160828915
 20
-30.78778025110896
 10
-89.50946056562019
 20
-30.77986892134148
 10
-89.57733116963677
 20
-30.7726917469295
 10
-89.64541935280974
 20
-30.76625279540214
 10
-89.71372104760998
 20
-30.76055613428851
 10
-89.78223218650837
 20
-30.75560583111777
 10
-89.85094870197578
 20
-30.75140595341902
 10
-89.91986652648307
 20
-30.74796056872139
 10
-89.98898159250115
 20
-30.74527374455402
 10
-90.05828983250085
 20
-30.74334954844602
 10
-90.12778717895306
 20
-30.74219204792653
 10
-90.19746956432866
 20
-30.74180531052468
 10
-90.19746956432864
 20
-30.74180531052467
 10
-573.0925972545097
 20
-30.74180531052493
210
0.0
220
0.0
230
-1.0
  0
LINE
  5
253
330
1F
100
AcDbEntity
  8
Vector Layer 1
 62
    18
420
        0
370
    30
100
AcDbLine
 10
43.04731944085676
 20
-46.35285405895156
 30
0.0
 11
573.0925972545095
 21
-46.35285405895156
 31
0.0
  0
POLYLINE
  5
254
330
1F
100
AcDbEntity
  8
Vector Layer 1
 62
    18
420
        0
370
    30
100
AcDb3dPolyline
 66
     1
 10
0.0
 20
0.0
 30
0.0
 70
     8
  0
VERTEX
  5
255
330
254
100
AcDbEntity
  8
0
 62
    18
420
        0
100
AcDbVertex
100
AcDb3dPolylineVertex
 10
573.0925972545096
 20
63.50000000000013
 30
0.0
 70
    32
  0
VERTEX
  5
256
330
254
100
AcDbEntity
  8
0
 62
    18
420
        0
100
AcDbVertex
100
AcDb3dPolylineVertex
 10
573.0925972545096
 20
46.29081806774161
 30
0.0
 70
    32
  0
VERTEX
  5
257
330
254
100
AcDbEntity
  8
0
 62
    18
420
        0
100
AcDbVertex
100
AcDb3dPolylineVertex
 10
573.0925972545096
 20
43.03852743473426
 30
0.0
 70
    32
  0
VERTEX
  5
258
330
254
100
AcDbEntity
  8
0
 62
    18
420
        0
100
AcDbVertex
100
AcDb3dPolylineVertex
 10
573.0925972545096
 20
30.74180531052554
 30
0.0
 70
    32
  0
VERTEX
  5
259
330
254
100
AcDbEntity
  8
0
 62
    18
420
        0
100
AcDbVertex
100
AcDb3dPolylineVertex
 10
573.0925972545096
 20
29.35594424841981
 30
0.0
 70
    32
  0
VERTEX
  5
25A
330
254
100
AcDbEntity
  8
0
 62
    18
420
        0
100
AcDbVertex
100
AcDb3dPolylineVertex
 10
573.0925972545096
 20
19.8309442484198
 30
0.0
 70
    32
  0
VERTEX
  5
25B
330
254
100
AcDbEntity
  8
0
 62
    18
420
        0
100
AcDbVertex
100
AcDb3dPolylineVertex
 10
573.0925972545096
 20
18.44508318631454
 30
0.0
 70
    32
  0
VERTEX
  5
25C
330
254
100
AcDbEntity
  8
0
 62
    18
420
        0
100
AcDbVertex
100
AcDb3dPolylineVertex
 10
573.0925972545096
 20
6.148361062105817
 30
0.0
 70
    32
  0
VERTEX
  5
25D
330
254
100
AcDbEntity
  8
0
 62
    18
420
        0
100
AcDbVertex
100
AcDb3dPolylineVertex
 10
573.0925972545096
 20
4.762500000000078
 30
0.0
 70
    32
  0
VERTEX
  5
25E
330
254
100
AcDbEntity
  8
0
 62
    18
420
        0
100
AcDbVertex
100
AcDb3dPolylineVertex
 10
573.0925972545096
 20
-4.762499999999909
 30
0.0
 70
    32
  0
VERTEX
  5
25F
330
254
100
AcDbEntity
  8
0
 62
    18
420
        0
100
AcDbVertex
100
AcDb3dPolylineVertex
 10
573.0925972545096
 20
-6.148361062105203
 30
0.0
 70
    32
  0
VERTEX
  5
260
330
254
100
AcDbEntity
  8
0
 62
    18
420
        0
100
AcDbVertex
100
AcDb3dPolylineVertex
 10
573.0925972545096
 20
-18.44508318631388
 30
0.0
 70
    32
  0
VERTEX
  5
261
330
254
100
AcDbEntity
  8
0
 62
    18
420
        0
100
AcDbVertex
100
AcDb3dPolylineVertex
 10
573.0925972545096
 20
-19.83094424841967
 30
0.0
 70
    32
  0
VERTEX
  5
262
330
254
100
AcDbEntity
  8
0
 62
    18
420
        0
100
AcDbVertex
100
AcDb3dPolylineVertex
 10
573.0925972545096
 20
-29.35594424841966
 30
0.0
 70
    32
  0
VERTEX
  5
263
330
254
100
AcDbEntity
  8
0
 62
    18
420
        0
100
AcDbVertex
100
AcDb3dPolylineVertex
 10
573.0925972545096
 20
-30.74180531052494
 30
0.0
 70
    32
  0
VERTEX
  5
264
330
254
100
AcDbEntity
  8
0
 62
    18
420
        0
100
AcDbVertex
100
AcDb3dPolylineVertex
 10
573.0925972545096
 20
-43.03852743473362
 30
0.0
 70
    32
  0
VERTEX
  5
265
330
254
100
AcDbEntity
  8
0
 62
    18
420
        0
100
AcDbVertex
100
AcDb3dPolylineVertex
 10
573.0925972545096
 20
-46.35285405895156
 30
0.0
 70
    32
  0
VERTEX
  5
266
330
254
100
AcDbEntity
  8
0
 62
    18
420
        0
100
AcDbVertex
100
AcDb3dPolylineVertex
 10
573.0925972545096
 20
-63.50000000000013
 30
0.0
 70
    32
  0
SEQEND
  5
267
330
254
100
AcDbEntity
  8
Vector Layer 1
 62
    18
420
        0
370
    30
  0
LINE
  5
268
330
1F
100
AcDbEntity
  8
Vector Layer 1
 62
    18
420
        0
370
    30
100
AcDbLine
 10
43.04731944085674
 20
-63.50000000000013
 30
0.0
 11
573.0925972545096
 21
-63.50000000000013
 31
0.0
  0
LWPOLYLINE
  5
269
330
1F
100
AcDbEntity
  8
Vector Layer 1
 62
    18
420
        0
370
    30
100
AcDbPolyline
 90
      264
 70
     0
 43
0.0
 10
-573.0925972545096
 20
19.83094424841981
 10
-76.19999999999999
 20
19.83094424841991
 10
-76.19999999999999
 20
19.83094424841991
 10
-76.13892179474399
 20
19.83132788300764
 10
-76.07802771809966
 20
19.83247574165041
 10
-76.01732233774765
 20
19.83438325666755
 10
-75.9568102213686
 20
19.83704586037841
 10
-75.89649593664318
 20
19.84045898510234
 10
-75.83638405125204
 20
19.84461806315866
 10
-75.77647913287584
 20
19.84951852686674
 10
-75.71678574919525
 20
19.85515580854591
 10
-75.65730846789091
 20
19.86152534051552
 10
-75.59805185664349
 20
19.8686225550949
 10
-75.53902048313364
 20
19.87644288460341
 10
-75.48021891504202
 20
19.88498176136039
 10
-75.42165172004927
 20
19.89423461768517
 10
-75.36332346583606
 20
19.90419688589711
 10
-75.30523872008304
 20
19.91486399831555
 10
-75.24740205047087
 20
19.92623138725983
 10
-75.18981802468021
 20
19.9382944850493
 10
-75.1324912103917
 20
19.95104872400329
 10
-75.07542617528603
 20
19.96448953644115
 10
-75.01862748704382
 20
19.97861235468223
 10
-74.96209971334576
 20
19.99341261104587
 10
-74.90584742187248
 20
20.00888573785141
 10
-74.84987518030465
 20
20.02502716741819
 10
-74.79418755632292
 20
20.04183233206557
 10
-74.73878911760795
 20
20.05929666411288
 10
-74.68368443184039
 20
20.07741559587946
 10
-74.6288780667009
 20
20.09618455968466
 10
-74.57437458987015
 20
20.11559898784783
 10
-74.52017856902877
 20
20.1356543126883
 10
-74.46629457185744
 20
20.15634596652543
 10
-74.41272716603681
 20
20.17766938167855
 10
-74.35948091924753
 20
20.199619990467
 10
-74.30656039917026
 20
20.22219322521014
 10
-74.25397017348567
 20
20.2453845182273
 10
-74.20171480987439
 20
20.26918930183783
 10
-74.14979887601709
 20
20.29360300836108
 10
-74.09822693959442
 20
20.31862107011637
 10
-74.04700356828705
 20
20.34423891942306
 10
-73.99613332977563
 20
20.37045198860051
 10
-73.94562079174082
 20
20.39725570996802
 10
-73.89547052186327
 20
20.42464551584498
 10
-73.84568708782365
 20
20.4526168385507
 10
-73.79627505730259
 20
20.48116511040455
 10
-73.74723899798077
 20
20.51028576372585
 10
-73.69858347753883
 20
20.53997423083395
 10
-73.65031306365743
 20
20.5702259440482
 10
-73.60243232401725
 20
20.60103633568795
 10
-73.55494582629891
 20
20.63240083807253
 10
-73.50785813818308
 20
20.66431488352128
 10
-73.46117382735044
 20
20.69677390435355
 10
-73.41489746148162
 20
20.72977333288869
 10
-73.36903360825728
 20
20.76330860144604
 10
-73.32358683535808
 20
20.79737514234494
 10
-73.27856171046469
 20
20.83196838790473
 10
-73.23396280125773
 20
20.86708377044477
 10
-73.18979467541788
 20
20.90271672228438
 10
-73.14606190062581
 20
20.93886267574292
 10
-73.10276904456215
 20
20.97551706313973
 10
-73.05992067490757
 20
21.01267531679416
 10
-73.01752135934274
 20
21.05033286902553
 10
-72.97557566554829
 20
21.08848515215322
 10
-72.93408816120489
 20
21.12712759849654
 10
-72.89306341399321
 20
21.16625564037485
 10
-72.85250599159387
 20
21.20586471010749
 10
-72.81242046168755
 20
21.24595024001381
 10
-72.77281139195491
 20
21.28650766241314
 10
-72.7336833500766
 20
21.32753240962483
 10
-72.69504090373328
 20
21.36901991396823
 10
-72.6568886206056
 20
21.41096560776267
 10
-72.61923106837421
 20
21.45336492332751
 10
-72.58207281471979
 20
21.49621329298208
 10
-72.54541842732298
 20
21.53950614904573
 10
-72.50927247386444
 20
21.58323892383781
 10
-72.47363952202483
 20
21.62740704967765
 10
-72.4385241394848
 20
21.6720059588846
 10
-72.40393089392501
 20
21.717031083778
 10
-72.3698643530261
 20
21.7624778566772
 10
-72.33632908446876
 20
21.80834170990154
 10
-72.30332965593362
 20
21.85461807577036
 10
-72.27087063510134
 20
21.90130238660301
 10
-72.23895658965258
 20
21.94839007471883
 10
-72.20759208726801
 20
21.99587657243716
 10
-72.17678169562827
 20
22.04375731207735
 10
-72.14652998241401
 20
22.09202772595875
 10
-72.1168415153059
 20
22.14068324640068
 10
-72.08772086198461
 20
22.18971930572251
 10
-72.05917259013077
 20
22.23913133624357
 10
-72.03120126742504
 20
22.2889147702832
 10
-72.0038114615481
 20
22.33906504016075
 10
-71.97700774018056
 20
22.38957757819556
 10
-71.95079467100313
 20
22.44044781670698
 10
-71.92517682169643
 20
22.49167118801435
 10
-71.90015875994115
 20
22.54324312443701
 10
-71.8757450534179
 20
22.59515905829431
 10
-71.85194026980737
 20
22.64741442190559
 10
-71.8287489767902
 20
22.70000464759019
 10
-71.80617574204707
 20
22.75292516766746
 10
-71.78422513325862
 20
22.80617141445674
 10
-71.76290171810549
 20
22.85973882027737
 10
-71.74221006426837
 20
22.9136228174487
 10
-71.72215473942791
 20
22.96781883829007
 10
-71.70274031126473
 20
23.02232231512082
 10
-71.68397134745953
 20
23.07712868026031
 10
-71.66585241569295
 20
23.13223336602787
 10
-71.64838808364564
 20
23.18763180474284
 10
-71.63158291899826
 20
23.24331942872456
 10
-71.61544148943147
 20
23.2992916702924
 10
-71.59996836262592
 20
23.35554396176568
 10
-71.58516810626228
 20
23.41207173546374
 10
-71.57104528802121
 20
23.46887042370594
 10
-71.55760447558335
 20
23.52593545881162
 10
-71.54485023662935
 20
23.58326227310012
 10
-71.53278713883989
 20
23.64084629889078
 10
-71.52141974989561
 20
23.69868296850295
 10
-71.51075263747718
 20
23.75676771425597
 10
-71.50079036926524
 20
23.81509596846917
 10
-71.49153751294045
 20
23.87366316346193
 10
-71.48299863618348
 20
23.93246473155356
 10
-71.47517830667498
 20
23.99149610506341
 10
-71.46808109209558
 20
24.05075271631084
 10
-71.46171156012598
 20
24.11022999761518
 10
-71.4560742784468
 20
24.16992338129577
 10
-71.45117381473872
 20
24.22982829967196
 10
-71.44701473668239
 20
24.28994018506309
 10
-71.44360161195847
 20
24.35025446978851
 10
-71.44093900824761
 20
24.41076658616756
 10
-71.43903149323048
 20
24.47147196651958
 10
-71.43788363458771
 20
24.53236604316392
 10
-71.43749999999997
 20
24.59344424841991
 10
-71.4375
 20
24.59344424841991
 10
-71.43788363458773
 20
24.65452245367591
 10
-71.4390314932305
 20
24.71541653032025
 10
-71.44093900824763
 20
24.77612191067227
 10
-71.4436016119585
 20
24.83663402705131
 10
-71.44701473668241
 20
24.89694831177673
 10
-71.45117381473875
 20
24.95706019716787
 10
-71.45607427844684
 20
25.01696511554405
 10
-71.461711560126
 20
25.07665849922465
 10
-71.46808109209562
 20
25.13613578052898
 10
-71.475178306675
 20
25.19539239177641
 10
-71.48299863618351
 20
25.25442376528626
 10
-71.49153751294048
 20
25.31322533337789
 10
-71.50079036926527
 20
25.37179252837065
 10
-71.51075263747721
 20
25.43012078258386
 10
-71.52141974989564
 20
25.48820552833687
 10
-71.53278713883992
 20
25.54604219794904
 10
-71.54485023662939
 20
25.60362622373971
 10
-71.55760447558337
 20
25.6609530380282
 10
-71.57104528802124
 20
25.71801807313388
 10
-71.58516810626231
 20
25.77481676137608
 10
-71.59996836262596
 20
25.83134453507414
 10
-71.6154414894315
 20
25.88759682654742
 10
-71.63158291899829
 20
25.94356906811526
 10
-71.64838808364567
 20
25.99925669209699
 10
-71.66585241569298
 20
26.05465513081196
 10
-71.68397134745956
 20
26.10975981657951
 10
-71.70274031126476
 20
26.164566181719
 10
-71.72215473942793
 20
26.21906965854976
 10
-71.7422100642684
 20
26.27326567939113
 10
-71.76290171810553
 20
26.32714967656245
 10
-71.78422513325864
 20
26.38071708238309
 10
-71.8061757420471
 20
26.43396332917236
 10
-71.82874897679024
 20
26.48688384924963
 10
-71.8519402698074
 20
26.53947407493423
 10
-71.87574505341792
 20
26.59172943854551
 10
-71.90015875994117
 20
26.64364537240281
 10
-71.92517682169647
 20
26.69521730882547
 10
-71.95079467100317
 20
26.74644068013284
 10
-71.97700774018059
 20
26.79731091864426
 10
-72.00381146154812
 20
26.84782345667907
 10
-72.03120126742508
 20
26.89797372655662
 10
-72.0591725901308
 20
26.94775716059626
 10
-72.08772086198464
 20
26.99716919111731
 10
-72.11684151530594
 20
27.04620525043914
 10
-72.14652998241404
 20
27.09486077088107
 10
-72.17678169562829
 20
27.14313118476247
 10
-72.20759208726803
 20
27.19101192440266
 10
-72.23895658965261
 20
27.238498422121
 10
-72.27087063510137
 20
27.28558611023681
 10
-72.30332965593365
 20
27.33227042106947
 10
-72.33632908446878
 20
27.37854678693829
 10
-72.36986435302613
 20
27.42441064016262
 10
-72.40393089392504
 20
27.46985741306182
 10
-72.43852413948483
 20
27.51488253795522
 10
-72.47363952202485
 20
27.55948144716218
 10
-72.50927247386447
 20
27.60364957300201
 10
-72.54541842732301
 20
27.64738234779409
 10
-72.58207281471982
 20
27.69067520385774
 10
-72.61923106837425
 20
27.73352357351231
 10
-72.65688862060563
 20
27.77592288907715
 10
-72.6950409037333
 20
27.8178685828716
 10
-72.73368335007662
 20
27.859356087215
 10
-72.77281139195493
 20
27.90038083442669
 10
-72.81242046168756
 20
27.94093825682602
 10
-72.85250599159389
 20
27.98102378673233
 10
-72.89306341399321
 20
28.02063285646497
 10
-72.93408816120491
 20
28.05976089834329
 10
-72.9755756655483
 20
28.09840334468661
 10
-73.01752135934275
 20
28.13655562781429
 10
-73.05992067490759
 20
28.17421318004567
 10
-73.10276904456216
 20
28.21137143370009
 10
-73.14606190062582
 20
28.24802582109691
 10
-73.1897946754179
 20
28.28417177455545
 10
-73.23396280125774
 20
28.31980472639506
 10
-73.2785617104647
 20
28.3549201089351
 10
-73.3235868353581
 20
28.38951335449489
 10
-73.36903360825729
 20
28.42357989539379
 10
-73.41489746148162
 20
28.45711516395114
 10
-73.46117382735044
 20
28.49011459248627
 10
-73.50785813818309
 20
28.52257361331855
 10
-73.55494582629892
 20
28.5544876587673
 10
-73.60243232401725
 20
28.58585216115188
 10
-73.65031306365745
 20
28.61666255279163
 10
-73.69858347753885
 20
28.64691426600588
 10
-73.74723899798079
 20
28.67660273311398
 10
-73.79627505730261
 20
28.70572338643528
 10
-73.84568708782366
 20
28.73427165828913
 10
-73.89547052186329
 20
28.76224298099485
 10
-73.94562079174083
 20
28.7896327868718
 10
-73.99613332977565
 20
28.81643650823932
 10
-74.04700356828707
 20
28.84264957741676
 10
-74.09822693959444
 20
28.86826742672346
 10
-74.1497988760171
 20
28.89328548847876
 10
-74.2017148098744
 20
28.917699195002
 10
-74.25397017348569
 20
28.94150397861253
 10
-74.30656039917028
 20
28.96469527162969
 10
-74.35948091924754
 20
28.98726850637283
 10
-74.41272716603683
 20
29.00921911516128
 10
-74.46629457185746
 20
29.0305425303144
 10
-74.52017856902878
 20
29.05123418415153
 10
-74.57437458987016
 20
29.071289508992
 10
-74.62887806670092
 20
29.09070393715517
 10
-74.6836844318404
 20
29.10947290096037
 10
-74.73878911760796
 20
29.12759183272696
 10
-74.79418755632294
 20
29.14505616477426
 10
-74.84987518030466
 20
29.16186132942164
 10
-74.90584742187249
 20
29.17800275898842
 10
-74.96209971334578
 20
29.19347588579396
 10
-75.01862748704384
 20
29.2082761421576
 10
-75.07542617528604
 20
29.22239896039867
 10
-75.13249121039172
 20
29.23583977283654
 10
-75.18981802468022
 20
29.24859401179053
 10
-75.24740205047088
 20
29.26065710957999
 10
-75.30523872008306
 20
29.27202449852428
 10
-75.36332346583607
 20
29.28269161094272
 10
-75.42165172004928
 20
29.29265387915465
 10
-75.48021891504203
 20
29.30190673547944
 10
-75.53902048313365
 20
29.31044561223642
 10
-75.59805185664351
 20
29.31826594174492
 10
-75.65730846789093
 20
29.32536315632431
 10
-75.71678574919527
 20
29.33173268829392
 10
-75.77647913287586
 20
29.33736996997309
 10
-75.83638405125205
 20
29.34227043368116
 10
-75.89649593664319
 20
29.34642951173749
 10
-75.95681022136862
 20
29.34984263646141
 10
-76.01732233774765
 20
29.35250524017227
 10
-76.07802771809968
 20
29.35441275518941
 10
-76.13892179474401
 20
29.35556061383218
 10
-76.2
 20
29.35594424841991
 10
-76.19999999999999
 20
29.35594424841991
 10
-573.0925972545096
 20
29.3559442484198
210
0.0
220
0.0
230
-1.0
  0
LWPOLYLINE
  5
26A
330
1F
100
AcDbEntity
  8
Vector Layer 1
 62
    18
420
        0
370
    30
100
AcDbPolyline
 90
        6
 70
     0
 43
0.0
 10
43.04731944085676
 20
-81.23543971361556
 10
43.04731944085676
 20
-100.2861891228143
 10
43.04731944085676
 20
-100.2861891228143
 10
573.0925972548408
 20
-100.2861891228143
 10
573.0925972548408
 20
-100.2861891228143
 10
573.0925972545096
 20
-81.23543971361558
  0
LINE
  5
26B
330
1F
100
AcDbEntity
  8
Vector Layer 1
 62
    18
420
        0
370
    30
100
AcDbLine
 10
573.0925972545096
 20
-81.23543971361558
 30
0.0
 11
43.04731944085688
 21
-81.23543971361558
 31
0.0
  0
LINE
  5
26C
330
1F
100
AcDbEntity
  8
Vector Layer 1
 62
    18
420
        0
370
    30
100
AcDbLine
 10
-2.388792300133456
 20
64.26170607519373
 30
0.0
 11
-2.38746106649545
 21
64.26096381155462
 31
0.0
  0
LINE
  5
26D
330
1F
100
AcDbEntity
  8
Vector Layer 1
 62
    18
420
        0
370
    30
100
AcDbLine
 10
17.67035551363931
 20
46.36366648526766
 30
0.0
 11
17.67035551363931
 21
-46.16642056894309
 31
0.0
  0
LWPOLYLINE
  5
26E
330
1F
100
AcDbEntity
  8
Vector Layer 1
 62
    18
420
        0
370
    30
100
AcDbPolyline
 90
      464
 70
     0
 43
0.0
 10
13.09659706919575
 20
46.35944850526284
 10
13.09659706919575
 20
43.21866754613822
 10
13.09659706919575
 20
43.21866754613822
 10
12.13980969159985
 20
42.99109773005696
 10
12.13980969159985
 20
42.99109773005696
 10
11.4191433635273
 20
42.76352791397569
 10
11.4191433635273
 20
42.76352791397569
 10
10.8996854570427
 20
42.53595809789444
 10
10.8996854570427
 20
42.53595809789444
 10
10.44529822140122
 20
42.28563130020504
 10
10.44529822140122
 20
42.28563130020504
 10
10.03361292748833
 20
42.01254752090752
 10
10.03361292748833
 20
42.01254752090752
 10
9.599444600633626
 20
41.67119279678563
 10
9.599444600633626
 20
41.67119279678563
 10
9.235459580711369
 20
41.32983807266373
 10
9.235459580711369
 20
41.32983807266373
 10
8.865572395614629
 20
40.92021240371745
 10
8.865572395614629
 20
40.92021240371745
 10
8.540266731075291
 20
40.48782975316306
 10
8.540266731075291
 20
40.48782975316306
 10
8.257261809400564
 20
40.03269012100052
 10
8.257261809400564
 20
40.03269012100052
 10
8.015015664390569
 20
39.55479350722987
 10
8.015015664390569
 20
39.55479350722987
 10
7.822153314641957
 20
39.07689689345922
 10
7.822153314641957
 20
39.07689689345922
 10
7.673285826734548
 20
38.59900027968856
 10
7.673285826734548
 20
38.59900027968856
 10
7.565659311107641
 20
38.1211036659179
 10
7.565659311107641
 20
38.1211036659179
 10
7.496743943981176
 20
37.64320705214725
 10
7.496743943981176
 20
37.64320705214725
 10
7.464934172920232
 20
37.14255345676846
 10
7.464934172920232
 20
37.14255345676846
 10
7.474712827495579
 20
36.61914287978156
 10
7.474712827495579
 20
36.61914287978156
 10
7.530793615869527
 20
36.09573230279464
 10
7.530793615869527
 20
36.09573230279464
 10
7.621455475381856
 20
35.61783568902399
 10
7.621455475381856
 20
35.61783568902399
 10
7.752061602167135
 20
35.13993907525333
 10
7.752061602167135
 20
35.13993907525333
 10
7.925541504911428
 20
34.66204246148268
 10
7.925541504911428
 20
34.66204246148268
 10
8.134401091627125
 20
34.20690282932015
 10
8.134401091627125
 20
34.20690282932015
 10
8.377002259782797
 20
33.77452017876575
 10
8.377002259782797
 20
33.77452017876575
 10
8.651754596523289
 20
33.36489450981947
 10
8.651754596523289
 20
33.36489450981947
 10
8.977766522459035
 20
32.95526884087319
 10
8.977766522459035
 20
32.95526884087319
 10
9.368289711765294
 20
32.54564317192692
 10
9.368289711765294
 20
32.54564317192692
 10
9.731174084238057
 20
32.22704542941315
 10
9.731174084238057
 20
32.22704542941315
 10
10.19003885059738
 20
31.88569070529125
 10
10.19003885059738
 20
31.88569070529125
 10
10.67771272330666
 20
31.58984994438561
 10
10.67771272330666
 20
31.58984994438561
 10
11.14196718006516
 20
31.36228012830434
 10
11.14196718006516
 20
31.36228012830434
 10
11.66448858051682
 20
31.15746729383121
 10
11.66448858051682
 20
31.15746729383121
 10
12.53057587116146
 20
30.92989747774994
 10
12.53057587116146
 20
30.92989747774994
 10
13.05197921364689
 20
30.7250846432768
 10
13.05197921364689
 20
30.7250846432768
 10
13.09659706919575
 20
30.70232766166868
 10
13.09659706919575
 20
30.70232766166868
 10
13.09659706919575
 20
29.58723556287047
 10
13.09659706919575
 20
29.58723556287047
 10
13.11560632555867
 20
29.56447858126235
 10
13.11560632555867
 20
29.56447858126235
 10
14.13724598555947
 20
29.24588083874858
 10
14.13724598555947
 20
29.24588083874858
 10
14.54136186807537
 20
29.10933894909982
 10
14.54136186807537
 20
29.10933894909982
 10
15.00775933235073
 20
28.88176913301855
 10
15.00775933235073
 20
28.88176913301855
 10
15.40678415267849
 20
28.63144233532917
 10
15.40678415267849
 20
28.63144233532917
 10
15.76124032109166
 20
28.35835855603165
 10
15.76124032109166
 20
28.35835855603165
 10
16.10429941385174
 20
28.03976081351788
 10
16.10429941385174
 20
28.03976081351788
 10
16.40732245563651
 20
27.69840608939598
 10
16.40732245563651
 20
27.69840608939598
 10
16.70330530895973
 20
27.2887804204497
 10
16.70330530895973
 20
27.2887804204497
 10
16.95002624063874
 20
26.8563977698953
 10
16.95002624063874
 20
26.8563977698953
 10
17.15019026777828
 20
26.40125813773277
 10
17.15019026777828
 20
26.40125813773277
 10
17.30340134843373
 20
25.92336152396212
 10
17.30340134843373
 20
25.92336152396212
 10
17.40292284271801
 20
25.44546491019145
 10
17.40292284271801
 20
25.44546491019145
 10
17.45188528454984
 20
24.99032527802886
 10
17.45188528454984
 20
24.99032527802886
 10
17.45699058740521
 20
24.53518564586627
 10
17.45699058740521
 20
24.53518564586627
 10
17.41875013790214
 20
24.08004601370369
 10
17.41875013790214
 20
24.08004601370369
 10
17.33602510846341
 20
23.62490638154111
 10
17.33602510846341
 20
23.62490638154111
 10
17.2059713870951
 20
23.16976674937852
 10
17.2059713870951
 20
23.16976674937852
 10
17.02483667626166
 20
22.71462711721593
 10
17.02483667626166
 20
22.71462711721593
 10
16.79949576451564
 20
22.28224446666148
 10
16.79949576451564
 20
22.28224446666148
 10
16.52820755287194
 20
21.87261879771515
 10
16.52820755287194
 20
21.87261879771515
 10
16.25002014010334
 20
21.53126407359321
 10
16.25002014010334
 20
21.53126407359321
 10
15.89136027812148
 20
21.16715236786314
 10
15.89136027812148
 20
21.16715236786314
 10
15.5274666634121
 20
20.87131160695746
 10
15.5274666634121
 20
20.87131160695746
 10
15.15121782689476
 20
20.62098480926804
 10
15.15121782689476
 20
20.62098480926804
 10
14.77281954853916
 20
20.41617197479487
 10
14.77281954853916
 20
20.41617197479487
 10
14.35654469101811
 20
20.23411612192984
 10
14.35654469101811
 20
20.23411612192984
 10
13.5779248085537
 20
20.00654630584855
 10
13.5779248085537
 20
20.00654630584855
 10
13.12404134242916
 20
19.80173347137538
 10
13.12404134242916
 20
19.80173347137538
 10
13.09659706919575
 20
19.77897648976725
 10
13.09659706919575
 20
19.77897648976725
 10
13.09659706919575
 20
18.66388439096892
 10
13.09659706919575
 20
18.66388439096892
 10
12.80254971652413
 20
18.5728564645364
 10
12.80254971652413
 20
18.5728564645364
 10
11.91029555468941
 20
18.32252966684698
 10
11.91029555468941
 20
18.32252966684698
 10
11.46430245905304
 20
18.1859877771982
 10
11.46430245905304
 20
18.1859877771982
 10
10.93417341976548
 20
17.95841796111691
 10
10.93417341976548
 20
17.95841796111691
 10
10.47304831414604
 20
17.70809116342749
 10
10.47304831414604
 20
17.70809116342749
 10
10.05619285374069
 20
17.43500738412994
 10
10.05619285374069
 20
17.43500738412994
 10
9.589561482957844
 20
17.07089567839987
 10
9.589561482957844
 20
17.07089567839987
 10
9.20691617398644
 20
16.7067839726698
 10
9.20691617398644
 20
16.7067839726698
 10
8.860948010972981
 20
16.3199152853316
 10
8.860948010972981
 20
16.3199152853316
 10
8.536537095598225
 20
15.88753263477715
 10
8.536537095598225
 20
15.88753263477715
 10
8.254019668392187
 20
15.43239300261456
 10
8.254019668392187
 20
15.43239300261456
 10
8.022597565940861
 20
14.97725337045197
 10
8.022597565940861
 20
14.97725337045197
 10
7.827781453422551
 20
14.49935675668126
 10
7.827781453422551
 20
14.49935675668126
 10
7.677617260507588
 20
14.02146014291054
 10
7.677617260507588
 20
14.02146014291054
 10
7.56856383948708
 20
13.54356352913983
 10
7.56856383948708
 20
13.54356352913983
 10
7.498525115541463
 20
13.06566691536911
 10
7.498525115541463
 20
13.06566691536911
 10
7.464417913249974
 20
12.54225633838214
 10
7.464417913249974
 20
12.54225633838214
 10
7.475712796739583
 20
12.01884576139517
 10
7.475712796739583
 20
12.01884576139517
 10
7.528409132055287
 20
11.51819216601632
 10
7.528409132055287
 20
11.51819216601632
 10
7.62299214272881
 20
11.01753857063748
 10
7.62299214272881
 20
11.01753857063748
 10
7.761330052904134
 20
10.51688497525863
 10
7.761330052904134
 20
10.51688497525863
 10
7.9463205781498
 20
10.01623137987979
 10
7.9463205781498
 20
10.01623137987979
 10
8.184669795326238
 20
9.515577784500946
 10
8.184669795326238
 20
9.515577784500946
 10
8.452398124031072
 20
9.06043815233836
 10
8.452398124031072
 20
9.06043815233836
 10
8.776855972103124
 20
8.605298520175773
 10
8.776855972103124
 20
8.605298520175773
 10
9.148836961082464
 20
8.172915869621316
 10
9.148836961082464
 20
8.172915869621316
 10
9.550408258728031
 20
7.786047182283119
 10
9.550408258728031
 20
7.786047182283119
 10
9.94295258193398
 20
7.467449439769309
 10
9.94295258193398
 20
7.467449439769309
 10
10.34344745545769
 20
7.194365660471757
 10
10.34344745545769
 20
7.194365660471757
 10
10.78159824877167
 20
6.944038862782336
 10
10.78159824877167
 20
6.944038862782336
 10
11.21907381682778
 20
6.739226028309172
 10
11.21907381682778
 20
6.739226028309172
 10
11.62524186938191
 20
6.579927157052267
 10
11.62524186938191
 20
6.579927157052267
 10
12.5019480612793
 20
6.329600359362845
 10
12.5019480612793
 20
6.329600359362845
 10
13.07775813310528
 20
6.147544506497811
 10
13.07775813310528
 20
6.147544506497811
 10
13.09659706919575
 20
6.102030543281553
 10
13.09659706919575
 20
6.102030543281553
 10
13.09659706919575
 20
5.009695426091346
 10
13.09659706919575
 20
5.009695426091346
 10
13.86028516261959
 20
4.736611646793795
 10
13.86028516261959
 20
4.736611646793795
 10
14.4453288641491
 20
4.554555793928761
 10
14.4453288641491
 20
4.554555793928761
 10
14.93666670440817
 20
4.326985977847468
 10
14.93666670440817
 20
4.326985977847468
 10
15.35117704390669
 20
4.076659180158046
 10
15.35117704390669
 20
4.076659180158046
 10
15.68849161236668
 20
3.826332382468624
 10
15.68849161236668
 20
3.826332382468624
 10
16.01946383237028
 20
3.530491621562943
 10
16.01946383237028
 20
3.530491621562943
 10
16.35813083841586
 20
3.166379915832876
 10
16.35813083841586
 20
3.166379915832876
 10
16.63099697276139
 20
2.802268210102814
 10
16.63099697276139
 20
2.802268210102814
 10
16.85589571415568
 20
2.43815650437275
 10
16.85589571415568
 20
2.43815650437275
 10
17.06937192647839
 20
2.0057738538183
 10
17.06937192647839
 20
2.0057738538183
 10
17.23876788026774
 20
1.550634221655722
 10
17.23876788026774
 20
1.550634221655722
 10
17.35815813324535
 20
1.095494589493143
 10
17.35815813324535
 20
1.095494589493143
 10
17.4309545789578
 20
0.640354957330564
 10
17.4309545789578
 20
0.640354957330564
 10
17.45960514552081
 20
0.1852153251679835
 10
17.45960514552081
 20
0.1852153251679835
 10
17.4446326688596
 20
-0.2699243069945967
 10
17.4446326688596
 20
-0.2699243069945967
 10
17.38591655275905
 20
-0.7250639391571771
 10
17.38591655275905
 20
-0.7250639391571771
 10
17.28141125074709
 20
-1.180203571319755
 10
17.28141125074709
 20
-1.180203571319755
 10
17.12810725092078
 20
-1.635343203482334
 10
17.12810725092078
 20
-1.635343203482334
 10
16.93313652544403
 20
-2.067725854036784
 10
16.93313652544403
 20
-2.067725854036784
 10
16.6826961775043
 20
-2.500108504591234
 10
16.6826961775043
 20
-2.500108504591234
 10
16.41691186546469
 20
-2.864220210321297
 10
16.41691186546469
 20
-2.864220210321297
 10
16.11867122768545
 20
-3.205574934443233
 10
16.11867122768545
 20
-3.205574934443233
 10
15.802908797256
 20
-3.501415695348914
 10
15.802908797256
 20
-3.501415695348914
 10
15.42262431650543
 20
-3.797256456254595
 10
15.42262431650543
 20
-3.797256456254595
 10
14.94944337426806
 20
-4.093097217160275
 10
14.94944337426806
 20
-4.093097217160275
 10
14.46425523131275
 20
-4.320667033241568
 10
14.46425523131275
 20
-4.320667033241568
 10
13.67018957107449
 20
-4.570993830930991
 10
13.67018957107449
 20
-4.570993830930991
 10
13.09886838465119
 20
-4.775806665404154
 10
13.09886838465119
 20
-4.775806665404154
 10
13.09659706919575
 20
-5.913655745810618
 10
13.09659706919575
 20
-5.913655745810618
 10
12.21549320786381
 20
-6.186739525108169
 10
12.21549320786381
 20
-6.186739525108169
 10
11.56632846563244
 20
-6.368795377973205
 10
11.56632846563244
 20
-6.368795377973205
 10
11.01290983229065
 20
-6.596365194054497
 10
11.01290983229065
 20
-6.596365194054497
 10
10.53756033449555
 20
-6.846691991743919
 10
10.53756033449555
 20
-6.846691991743919
 10
10.14269284277344
 20
-7.097018789433342
 10
10.14269284277344
 20
-7.097018789433342
 10
9.747636863283162
 20
-7.392859550339022
 10
9.747636863283162
 20
-7.392859550339022
 10
9.334790363601689
 20
-7.756971256069091
 10
9.334790363601689
 20
-7.756971256069091
 10
8.949647023967747
 20
-8.166596925015419
 10
8.949647023967747
 20
-8.166596925015419
 10
8.628179999879842
 20
-8.576222593961745
 10
8.628179999879842
 20
-8.576222593961745
 10
8.357145186952596
 20
-8.985848262908072
 10
8.357145186952596
 20
-8.985848262908072
 10
8.118017795375829
 20
-9.418230913462529
 10
8.118017795375829
 20
-9.418230913462529
 10
7.912394293836598
 20
-9.873370545625114
 10
7.912394293836598
 20
-9.873370545625114
 10
7.749100300363545
 20
-10.3285101777877
 10
7.749100300363545
 20
-10.3285101777877
 10
7.624415263227468
 20
-10.78364980995028
 10
7.624415263227468
 20
-10.78364980995028
 10
7.532820048622136
 20
-11.261546423721
 10
7.532820048622136
 20
-11.261546423721
 10
7.477917876533513
 20
-11.76220001909984
 10
7.477917876533513
 20
-11.76220001909984
 10
7.463397505573277
 20
-12.28561059608682
 10
7.463397505573277
 20
-12.28561059608682
 10
7.495379867843633
 20
-12.80902117307379
 10
7.495379867843633
 20
-12.80902117307379
 10
7.563171878150945
 20
-13.28691778684451
 10
7.563171878150945
 20
-13.28691778684451
 10
7.669938465646748
 20
-13.76481440061522
 10
7.669938465646748
 20
-13.76481440061522
 10
7.817651560596471
 20
-14.24271101438594
 10
7.817651560596471
 20
-14.24271101438594
 10
8.009813704780583
 20
-14.72060762815665
 10
8.009813704780583
 20
-14.72060762815665
 10
8.250637486270909
 20
-15.19850424192737
 10
8.250637486270909
 20
-15.19850424192737
 10
8.547430023244862
 20
-15.67640085569808
 10
8.547430023244862
 20
-15.67640085569808
 10
8.892380049518591
 20
-16.13154048786067
 10
8.892380049518591
 20
-16.13154048786067
 10
9.245209470085148
 20
-16.51840917519887
 10
9.245209470085148
 20
-16.51840917519887
 10
9.637317773393636
 20
-16.88252088092893
 10
9.637317773393636
 20
-16.88252088092893
 10
10.04760189919853
 20
-17.20111862344274
 10
10.04760189919853
 20
-17.20111862344274
 10
10.53693961172486
 20
-17.51971636595655
 10
10.53693961172486
 20
-17.51971636595655
 10
11.02130245833779
 20
-17.77004316364598
 10
11.02130245833779
 20
-17.77004316364598
 10
11.50854485302353
 20
-17.97485599811914
 10
11.50854485302353
 20
-17.97485599811914
 10
12.52585837810421
 20
-18.27069675902482
 10
12.52585837810421
 20
-18.27069675902482
 10
13.09659706919575
 20
-18.42999563028173
 10
13.09659706919575
 20
-18.42999563028173
 10
13.09659706919575
 20
-19.54508772908006
 10
13.09659706919575
 20
-19.54508772908006
 10
13.11022420494938
 20
-19.56784471068819
 10
13.11022420494938
 20
-19.56784471068819
 10
13.62243630855465
 20
-19.79541452676948
 10
13.62243630855465
 20
-19.79541452676948
 10
14.40598223178768
 20
-20.02298434285078
 10
14.40598223178768
 20
-20.02298434285078
 10
14.90702416419173
 20
-20.25055415893207
 10
14.90702416419173
 20
-20.25055415893207
 10
15.32631842165375
 20
-20.50088095662149
 10
15.32631842165375
 20
-20.50088095662149
 10
15.66795515089417
 20
-20.75120775431091
 10
15.66795515089417
 20
-20.75120775431091
 10
16.00303019701624
 20
-21.0470485152166
 10
16.00303019701624
 20
-21.0470485152166
 10
16.34452158629084
 20
-21.41116022094667
 10
16.34452158629084
 20
-21.41116022094667
 10
16.63624359413171
 20
-21.79802890828486
 10
16.63624359413171
 20
-21.79802890828486
 10
16.87194915681267
 20
-22.18489759562306
 10
16.87194915681267
 20
-22.18489759562306
 10
17.0623279531219
 20
-22.57176628296126
 10
17.0623279531219
 20
-22.57176628296126
 10
17.22662579535628
 20
-23.00414893351572
 10
17.22662579535628
 20
-23.00414893351572
 10
17.35006768374825
 20
-23.4592885656783
 10
17.35006768374825
 20
-23.4592885656783
 10
17.42653221308375
 20
-23.91442819784089
 10
17.42653221308375
 20
-23.91442819784089
 10
17.45881935401941
 20
-24.36956783000348
 10
17.45881935401941
 20
-24.36956783000348
 10
17.44780389039898
 20
-24.82470746216606
 10
17.44780389039898
 20
-24.82470746216606
 10
17.39275590523267
 20
-25.27984709432864
 10
17.39275590523267
 20
-25.27984709432864
 10
17.29234699501777
 20
-25.73498672649118
 10
17.29234699501777
 20
-25.73498672649118
 10
17.14350988089228
 20
-26.19012635865371
 10
17.14350988089228
 20
-26.19012635865371
 10
16.95335533960843
 20
-26.62250900920811
 10
16.95335533960843
 20
-26.62250900920811
 10
16.70708235024596
 20
-27.05489165976251
 10
16.70708235024596
 20
-27.05489165976251
 10
16.44731933294917
 20
-27.41900336549254
 10
16.44731933294917
 20
-27.41900336549254
 10
16.1333806541481
 20
-27.78311507122256
 10
16.1333806541481
 20
-27.78311507122256
 10
15.82109559594775
 20
-28.0789558321282
 10
15.82109559594775
 20
-28.0789558321282
 10
15.38446178852701
 20
-28.4203105562501
 10
15.38446178852701
 20
-28.4203105562501
 10
14.9763556805172
 20
-28.67063735393949
 10
14.9763556805172
 20
-28.67063735393949
 10
14.49740220575714
 20
-28.89820717002075
 10
14.49740220575714
 20
-28.89820717002075
 10
13.43624899952793
 20
-29.23956189414265
 10
13.43624899952793
 20
-29.23956189414265
 10
13.09659706919575
 20
-29.35334680218328
 10
13.09659706919575
 20
-29.35334680218328
 10
13.09659706919575
 20
-30.46843890098148
 10
13.09659706919575
 20
-30.46843890098148
 10
12.66231595247174
 20
-30.65049475384649
 10
12.66231595247174
 20
-30.65049475384649
 10
12.03747521608258
 20
-30.8325506067115
 10
12.03747521608258
 20
-30.8325506067115
 10
11.61626901893997
 20
-30.94633551475214
 10
11.61626901893997
 20
-30.94633551475214
 10
11.04935534267807
 20
-31.1739053308334
 10
11.04935534267807
 20
-31.1739053308334
 10
10.56643983989144
 20
-31.42423212852279
 10
10.56643983989144
 20
-31.42423212852279
 10
10.13420332341576
 20
-31.69731590782031
 10
10.13420332341576
 20
-31.69731590782031
 10
9.682034036211017
 20
-32.0386706319422
 10
9.682034036211017
 20
-32.0386706319422
 10
9.306237116149906
 20
-32.38002535606411
 10
9.306237116149906
 20
-32.38002535606411
 10
8.924675044111257
 20
-32.78965102501038
 10
8.924675044111257
 20
-32.78965102501038
 10
8.589548334173207
 20
-33.22203367556478
 10
8.589548334173207
 20
-33.22203367556478
 10
8.297700383953099
 20
-33.67717330772731
 10
8.297700383953099
 20
-33.67717330772731
 10
8.047932138732916
 20
-34.15506992149797
 10
8.047932138732916
 20
-34.15506992149797
 10
7.847814902357106
 20
-34.63296653526863
 10
7.847814902357106
 20
-34.63296653526863
 10
7.69273337393189
 20
-35.11086314903927
 10
7.69273337393189
 20
-35.11086314903927
 10
7.579144134811406
 20
-35.58875976280994
 10
7.579144134811406
 20
-35.58875976280994
 10
7.501901998809819
 20
-36.08941335818871
 10
7.501901998809819
 20
-36.08941335818871
 10
7.46495763926888
 20
-36.61282393517563
 10
7.46495763926888
 20
-36.61282393517563
 10
7.47376130490685
 20
-37.13623451216253
 10
7.47376130490685
 20
-37.13623451216253
 10
7.523837735942845
 20
-37.63688810754132
 10
7.523837735942845
 20
-37.63688810754132
 10
7.615564664892201
 20
-38.1375417029201
 10
7.615564664892201
 20
-38.1375417029201
 10
7.757749542287831
 20
-38.66095227990701
 10
7.757749542287831
 20
-38.66095227990701
 10
7.942954292587285
 20
-39.16160587528579
 10
7.942954292587285
 20
-39.16160587528579
 10
8.156193759731298
 20
-39.61674550744832
 10
8.156193759731298
 20
-39.61674550744832
 10
8.41744764714623
 20
-40.07188513961085
 10
8.41744764714623
 20
-40.07188513961085
 10
8.73474220304871
 20
-40.52702477177337
 10
8.73474220304871
 20
-40.52702477177337
 10
9.097874107650762
 20
-40.95940742232778
 10
9.097874107650762
 20
-40.95940742232778
 10
9.489480533889775
 20
-41.34627610966592
 10
9.489480533889775
 20
-41.34627610966592
 10
9.870951768449788
 20
-41.6648738521797
 10
9.870951768449788
 20
-41.6648738521797
 10
10.25828731923485
 20
-41.93795763147721
 10
10.25828731923485
 20
-41.93795763147721
 10
10.67870739369774
 20
-42.1882844291666
 10
10.67870739369774
 20
-42.1882844291666
 10
11.09308904676819
 20
-42.39309726363974
 10
11.09308904676819
 20
-42.39309726363974
 10
11.54343098669434
 20
-42.57515311650475
 10
11.54343098669434
 20
-42.57515311650475
 10
12.20947711735153
 20
-42.77996595097789
 10
12.20947711735153
 20
-42.77996595097789
 10
13.0730958995142
 20
-42.98477878545103
 10
13.0730958995142
 20
-42.98477878545103
 10
13.09659706919575
 20
-43.00753576705916
 10
13.09659706919575
 20
-43.00753576705916
 10
13.09659706919575
 20
-46.18243227984701
  0
LINE
  5
26F
330
1F
100
AcDbEntity
  8
Vector Layer 1
 62
    18
420
        0
370
    30
100
AcDbLine
 10
6.804766632147402
 20
46.35743141926313
 30
0.0
 11
17.67035551363931
 21
46.36366648526766
 31
0.0
  0
LWPOLYLINE
  5
270
330
1F
100
AcDbEntity
  8
Vector Layer 1
 62
    18
420
        0
370
    30
100
AcDbPolyline
 90
        6
 70
     0
 43
0.0
 10
-17.67035551363931
 20
-46.16642056894309
 10
-13.71633996949845
 20
-46.18014978974145
 10
-13.71633996949845
 20
-46.18014978974145
 10
-13.09659706919575
 20
-46.18191433192878
 10
-13.09659706919575
 20
-46.18191433192878
 10
-6.804766632147397
 20
-46.19982853511887
210
0.0
220
0.0
230
-1.0
  0
LINE
  5
271
330
1F
100
AcDbEntity
  8
Vector Layer 1
 62
    18
420
        0
370
    30
100
AcDbLine
 10
6.804766632147395
 20
-62.53431335875849
 30
0.0
 11
16.32999189173381
 21
-62.53431335875849
 31
0.0
  0
POLYLINE
  5
272
330
1F
100
AcDbEntity
  8
Vector Layer 1
 62
    18
420
        0
370
    30
100
AcDb3dPolyline
 66
     1
 10
0.0
 20
0.0
 30
0.0
 70
     8
  0
VERTEX
  5
273
330
272
100
AcDbEntity
  8
0
 62
    18
420
        0
100
AcDbVertex
100
AcDb3dPolylineVertex
 10
25.85551604134615
 20
-62.53431335875849
 30
0.0
 70
    32
  0
VERTEX
  5
274
330
272
100
AcDbEntity
  8
0
 62
    18
420
        0
100
AcDbVertex
100
AcDb3dPolylineVertex
 10
16.32999189173381
 20
-62.53431335875849
 30
0.0
 70
    32
  0
VERTEX
  5
275
330
272
100
AcDbEntity
  8
0
 62
    18
420
        0
100
AcDbVertex
100
AcDb3dPolylineVertex
 10
16.21061464604718
 20
-62.53431335875849
 30
0.0
 70
    32
  0
SEQEND
  5
276
330
272
100
AcDbEntity
  8
Vector Layer 1
 62
    18
420
        0
370
    30
  0
LINE
  5
277
330
1F
100
AcDbEntity
  8
Vector Layer 1
 62
    18
420
        0
370
    30
100
AcDbLine
 10
6.804766632147405
 20
64.26170607519373
 30
0.0
 11
25.85551604134617
 21
64.26170607519373
 31
0.0
  0
LINE
  5
278
330
1F
100
AcDbEntity
  8
Vector Layer 1
 62
    18
420
        0
370
    30
100
AcDbLine
 10
25.85551604134616
 20
-62.53431335875848
 30
0.0
 11
25.85551604134617
 21
64.26170607519376
 31
0.0
  0
LINE
  5
279
330
1F
100
AcDbEntity
  8
Vector Layer 1
 62
    18
420
        0
370
    30
100
AcDbLine
 10
6.804766632147405
 20
64.26170607519374
 30
0.0
 11
6.804766632147405
 21
46.35743141926314
 31
0.0
  0
LINE
  5
27A
330
1F
100
AcDbEntity
  8
Vector Layer 1
 62
    18
420
        0
370
    30
100
AcDbLine
 10
6.804766632147397
 20
-46.19982853511889
 30
0.0
 11
6.804766632147393
 21
-62.53431335875848
 31
0.0
  0
ENDSEC
  0
SECTION
  2
OBJECTS
  0
DICTIONARY
  5
C
330
0
100
AcDbDictionary
281
     1
  3
ACAD_CIP_PREVIOUS_PRODUCT_INFO
350
216
  3
ACAD_COLOR
350
6B
  3
ACAD_DETAILVIEWSTYLE
350
21B
  3
ACAD_GROUP
350
D
  3
ACAD_LAYOUT
350
1A
  3
ACAD_MATERIAL
350
6A
  3
ACAD_MLEADERSTYLE
350
12D
  3
ACAD_MLINESTYLE
350
17
  3
ACAD_PLOTSETTINGS
350
19
  3
ACAD_PLOTSTYLENAME
350
E
  3
ACAD_SCALELIST
350
10C
  3
ACAD_SECTIONVIEWSTYLE
350
219
  3
ACAD_TABLESTYLE
350
7E
  3
ACAD_VISUALSTYLE
350
EF
  3
ACDB_RECOMPOSE_DATA
350
27D
  3
AcDbVariableDictionary
350
5E
  3
AcDsDecomposeData
350
283
  0
DICTIONARY
  5
1FF
330
2
100
AcDbDictionary
280
     1
281
     1
  3
ACAD_LAYERSTATES
360
200
  0
DICTIONARY
  5
13C
330
10
100
AcDbDictionary
280
     1
281
     1
  0
DICTIONARY
  5
1CE
330
1F
100
AcDbDictionary
280
     1
281
     1
  0
XRECORD
  5
216
102
{ACAD_REACTORS
330
C
102
}
330
C
100
AcDbXrecord
280
     1
300
ACD
300
2015
300

  0
DICTIONARY
  5
6B
102
{ACAD_REACTORS
330
C
102
}
330
C
100
AcDbDictionary
281
     1
  0
DICTIONARY
  5
21B
102
{ACAD_REACTORS
330
C
102
}
330
C
100
AcDbDictionary
281
     1
  3
Metric50
350
21C
  0
DICTIONARY
  5
D
102
{ACAD_REACTORS
330
C
102
}
330
C
100
AcDbDictionary
281
     1
  0
DICTIONARY
  5
1A
102
{ACAD_REACTORS
330
C
102
}
330
C
100
AcDbDictionary
281
     1
  3
Layout1
350
D3
  3
Layout2
350
D7
  3
Model
350
22
  0
DICTIONARY
  5
6A
102
{ACAD_REACTORS
330
C
102
}
330
C
100
AcDbDictionary
281
     1
  3
ByBlock
350
ED
  3
ByLayer
350
EC
  3
Global
350
EE
  0
DICTIONARY
  5
12D
102
{ACAD_REACTORS
330
C
102
}
330
C
100
AcDbDictionary
281
     1
  3
Annotative
350
13B
  3
Standard
350
12E
  0
DICTIONARY
  5
17
102
{ACAD_REACTORS
330
C
102
}
330
C
100
AcDbDictionary
281
     1
  3
Standard
350
18
  0
DICTIONARY
  5
19
102
{ACAD_REACTORS
330
C
102
}
330
C
100
AcDbDictionary
281
     1
  0
ACDBDICTIONARYWDFLT
  5
E
102
{ACAD_REACTORS
330
C
102
}
330
C
100
AcDbDictionary
281
     1
  3
Normal
350
F
100
AcDbDictionaryWithDefault
340
F
  0
DICTIONARY
  5
10C
102
{ACAD_REACTORS
330
C
102
}
330
C
100
AcDbDictionary
281
     1
  3
A0
350
10D
  3
A1
350
1BE
  3
A2
350
1BF
  3
A3
350
1C0
  3
A4
350
1C1
  3
A5
350
1C2
  3
A6
350
1C3
  3
A7
350
1C4
  3
A8
350
1C5
  3
A9
350
1C6
  3
B0
350
1C7
  3
B1
350
1C8
  3
B2
350
1C9
  3
B3
350
1CA
  3
B4
350
1CB
  3
B5
350
1CC
  3
B6
350
1CD
  0
DICTIONARY
  5
219
102
{ACAD_REACTORS
330
C
102
}
330
C
100
AcDbDictionary
281
     1
  3
Metric50
350
21A
  0
DICTIONARY
  5
7E
102
{ACAD_REACTORS
330
C
102
}
330
C
100
AcDbDictionary
281
     1
  3
Standard
350
7F
  0
DICTIONARY
  5
EF
102
{ACAD_REACTORS
330
C
102
}
330
C
100
AcDbDictionary
281
     1
  3
2dWireframe
350
F5
  3
Basic
350
F4
  3
Brighten
350
FB
  3
ColorChange
350
FF
  3
Conceptual
350
F8
  3
Dim
350
FA
  3
EdgeColorOff
350
1E6
  3
Facepattern
350
FE
  3
Flat
350
F0
  3
FlatWithEdges
350
F1
  3
Gouraud
350
F2
  3
GouraudWithEdges
350
F3
  3
Hidden
350
F7
  3
JitterOff
350
1E4
  3
Linepattern
350
FD
  3
OverhangOff
350
1E5
  3
Realistic
350
F9
  3
Shaded
350
1F3
  3
Shaded with edges
350
1F2
  3
Shades of Gray
350
1EF
  3
Sketchy
350
1F0
  3
Thicken
350
FC
  3
Wireframe
350
F6
  3
X-Ray
350
1F1
  0
XRECORD
  5
27D
102
{ACAD_REACTORS
330
C
102
}
330
C
100
AcDbXrecord
280
     1
 90
        1
330
7F
  0
DICTIONARY
  5
5E
102
{ACAD_REACTORS
330
C
102
}
330
C
100
AcDbDictionary
281
     1
  3
CANNOSCALE
350
146
  3
CMLEADERSTYLE
350
145
  3
CTABLESTYLE
350
84
  3
CVIEWDETAILSTYLE
350
227
  3
CVIEWSECTIONSTYLE
350
228
  3
DIMASSOC
350
5F
  3
HIDETEXT
350
63
  3
LAYEREVAL
350
1AE
  3
LAYERNOTIFY
350
1AF
  3
XCLIPFRAME
350
27B
  0
DICTIONARY
  5
283
102
{ACAD_REACTORS
330
C
102
}
330
C
100
AcDbDictionary
281
     1
  3
AcDsRecords
350
285
  3
AcDsSchemas
350
284
1001
ACAD
1070
     2
  0
DICTIONARY
  5
200
102
{ACAD_REACTORS
330
1FF
102
}
330
1FF
100
AcDbDictionary
281
     1
  0
ACDBDETAILVIEWSTYLE
  5
21C
102
{ACAD_XDICTIONARY
360
236
102
}
102
{ACAD_REACTORS
330
21B
102
}
330
21B
100
AcDbModelDocViewStyle
 70
     0
  3
Metric50
290
     0
100
AcDbDetailViewStyle
 70
     0
 71
     0
 90
        3
 71
     1
340
11
 62
   256
 40
5.0
340
0
 62
   256
 40
5.0
300

 40
0.0
280
     1
 71
     2
340
16
 90
       25
 62
   256
 71
     3
340
11
 62
   256
 40
5.0
 90
        0
 40
15.0
 90
        1
300
%<\AcVar ViewDetailId>% (%<\AcVar ViewScale \f "%sn">%)
 71
     4
340
16
 90
       25
 62
   256
340
16
 90
       25
 62
   256
280
     0
  0
LAYOUT
  5
D3
102
{ACAD_REACTORS
330
1A
102
}
330
1A
100
AcDbPlotSettings
  1

  2
C:\Documents and Settings\basas\Application Data\Autodesk\AutoCAD 2005\R16.1\enu\plotters\Default Windows System Printer.pc3
  4

  6

 40
0.0
 41
0.0
 42
0.0
 43
0.0
 44
0.0
 45
0.0
 46
0.0
 47
0.0
 48
0.0
 49
0.0
140
0.0
141
0.0
142
1.0
143
1.0
 70
   688
 72
     0
 73
     0
 74
     5
  7

 75
    16
147
1.0
 76
     0
 77
     2
 78
   300
148
0.0
149
0.0
100
AcDbLayout
  1
Layout1
 70
     1
 71
     1
 10
0.0
 20
0.0
 11
12.0
 21
9.0
 12
0.0
 22
0.0
 32
0.0
 14
0.0
 24
0.0
 34
0.0
 15
0.0
 25
0.0
 35
0.0
146
0.0
 13
0.0
 23
0.0
 33
0.0
 16
1.0
 26
0.0
 36
0.0
 17
0.0
 27
1.0
 37
0.0
 76
     0
330
D2
  0
LAYOUT
  5
D7
102
{ACAD_REACTORS
330
1A
102
}
330
1A
100
AcDbPlotSettings
  1

  2
C:\Documents and Settings\basas\Application Data\Autodesk\AutoCAD 2005\R16.1\enu\plotters\Default Windows System Printer.pc3
  4

  6

 40
0.0
 41
0.0
 42
0.0
 43
0.0
 44
0.0
 45
0.0
 46
0.0
 47
0.0
 48
0.0
 49
0.0
140
0.0
141
0.0
142
1.0
143
1.0
 70
   688
 72
     0
 73
     0
 74
     5
  7

 75
    16
147
1.0
 76
     0
 77
     2
 78
   300
148
0.0
149
0.0
100
AcDbLayout
  1
Layout2
 70
     1
 71
     2
 10
0.0
 20
0.0
 11
12.0
 21
9.0
 12
0.0
 22
0.0
 32
0.0
 14
0.0
 24
0.0
 34
0.0
 15
0.0
 25
0.0
 35
0.0
146
0.0
 13
0.0
 23
0.0
 33
0.0
 16
1.0
 26
0.0
 36
0.0
 17
0.0
 27
1.0
 37
0.0
 76
     0
330
D6
  0
LAYOUT
  5
22
102
{ACAD_XDICTIONARY
360
205
102
}
102
{ACAD_REACTORS
330
1A
102
}
330
1A
100
AcDbPlotSettings
  1

  2
none_device
  4
ISO_A4_(210.00_x_297.00_MM)
  6

 40
7.5
 41
20.0
 42
7.5
 43
20.0
 44
210.0
 45
297.0
 46
11.54999923706054
 47
-13.65000009536743
 48
0.0
 49
0.0
140
0.0
141
0.0
142
1.0
143
8.704084754739808
 70
 11952
 72
     1
 73
     0
 74
     0
  7

 75
     0
147
0.1148885871608098
 76
     0
 77
     2
 78
   300
148
0.0
149
0.0
100
AcDbLayout
  1
Model
 70
     1
 71
     0
 10
0.0
 20
0.0
 11
12.0
 21
9.0
 12
0.0
 22
0.0
 32
0.0
 14
0.0
 24
0.0
 34
0.0
 15
0.0
 25
0.0
 35
0.0
146
0.0
 13
0.0
 23
0.0
 33
0.0
 16
1.0
 26
0.0
 36
0.0
 17
0.0
 27
1.0
 37
0.0
 76
     0
330
1F
331
EA
1001
ACAD_PSEXT
1000
None
1000
None
1000
Not applicable
1000
The layout will not be plotted unless a new plotter configuration name is selected.
1070
     0
  0
MATERIAL
  5
ED
102
{ACAD_XDICTIONARY
360
1F9
102
}
102
{ACAD_REACTORS
330
6A
102
}
330
6A
100
AcDbMaterial
  1
ByBlock
 94
       63
  0
MATERIAL
  5
EC
102
{ACAD_XDICTIONARY
360
1F7
102
}
102
{ACAD_REACTORS
330
6A
102
}
330
6A
100
AcDbMaterial
  1
ByLayer
 94
       63
  0
MATERIAL
  5
EE
102
{ACAD_XDICTIONARY
360
173
102
}
102
{ACAD_REACTORS
330
6A
102
}
330
6A
100
AcDbMaterial
  1
Global
 43
0.0007999999797903
 43
0.0
 43
0.0
 43
0.0
 43
0.0
 43
0.0007999999797903
 43
0.0
 43
0.0
 43
0.0
 43
0.0
 43
1.0
 43
0.0
 43
0.0
 43
0.0
 43
0.0
 43
1.0
 49
0.0007999999797903
 49
0.0
 49
0.0
 49
0.0
 49
0.0
 49
0.0007999999797903
 49
0.0
 49
0.0
 49
0.0
 49
0.0
 49
1.0
 49
0.0
 49
0.0
 49
0.0
 49
0.0
 49
1.0
142
0.0007999999797903
142
0.0
142
0.0
142
0.0
142
0.0
142
0.0007999999797903
142
0.0
142
0.0
142
0.0
142
0.0
142
1.0
142
0.0
142
0.0
142
0.0
142
0.0
142
1.0
144
0.0007999999797903
144
0.0
144
0.0
144
0.0
144
0.0
144
0.0007999999797903
144
0.0
144
0.0
144
0.0
144
0.0
144
1.0
144
0.0
144
0.0
144
0.0
144
0.0
144
1.0
 94
       63
1001
ACAD
1070
    -1
1070
     3
1070
     0
1000

1071
        0
1070
     0
  0
MLEADERSTYLE
  5
13B
102
{ACAD_REACTORS
330
12D
102
}
330
12D
100
AcDbMLeaderStyle
170
     2
171
     1
172
     0
 90
        2
 40
0.0
 41
0.0
173
     1
 91
-1056964608
340
14
 92
       -2
290
     1
 42
2.0
291
     1
 43
8.0
  3
Standard
 44
4.0
300

342
11
174
     1
178
     1
175
     1
176
     0
 93
-1056964608
 45
4.0
292
     0
297
     0
 46
4.0
 94
-1056964608
 47
1.0
 49
1.0
140
1.0
293
     1
141
0.0
294
     1
177
     0
142
1.0
295
     0
296
     1
143
3.75
1001
ACAD_MLEADERVER
1070
     2
  0
MLEADERSTYLE
  5
12E
102
{ACAD_REACTORS
330
12D
102
}
330
12D
100
AcDbMLeaderStyle
170
     2
171
     1
172
     0
 90
        2
 40
0.0
 41
0.0
173
     1
 91
-1056964608
340
14
 92
       -2
290
     1
 42
2.0
291
     1
 43
8.0
  3
Standard
 44
4.0
300

342
11
174
     1
178
     1
175
     1
176
     0
 93
-1056964608
 45
4.0
292
     0
297
     0
 46
4.0
 94
-1056964608
 47
1.0
 49
1.0
140
1.0
293
     1
141
0.0
294
     1
177
     0
142
1.0
295
     0
296
     0
143
3.75
1001
ACAD_MLEADERVER
1070
     2
  0
MLINESTYLE
  5
18
102
{ACAD_REACTORS
330
17
102
}
330
17
100
AcDbMlineStyle
  2
STANDARD
 70
     0
  3

 62
   256
 51
90.0
 52
90.0
 71
     2
 49
0.5
 62
   256
  6
BYLAYER
 49
-0.5
 62
   256
  6
BYLAYER
  0
ACDBPLACEHOLDER
  5
F
102
{ACAD_REACTORS
330
E
102
}
330
E
  0
SCALE
  5
10D
102
{ACAD_REACTORS
330
10C
102
}
330
10C
100
AcDbScale
 70
     0
300
1:1
140
1.0
141
1.0
290
     1
  0
SCALE
  5
1BE
102
{ACAD_REACTORS
330
10C
102
}
330
10C
100
AcDbScale
 70
     0
300
1:2
140
1.0
141
2.0
290
     0
  0
SCALE
  5
1BF
102
{ACAD_REACTORS
330
10C
102
}
330
10C
100
AcDbScale
 70
     0
300
1:4
140
1.0
141
4.0
290
     0
  0
SCALE
  5
1C0
102
{ACAD_REACTORS
330
10C
102
}
330
10C
100
AcDbScale
 70
     0
300
1:5
140
1.0
141
5.0
290
     0
  0
SCALE
  5
1C1
102
{ACAD_REACTORS
330
10C
102
}
330
10C
100
AcDbScale
 70
     0
300
1:8
140
1.0
141
8.0
290
     0
  0
SCALE
  5
1C2
102
{ACAD_REACTORS
330
10C
102
}
330
10C
100
AcDbScale
 70
     0
300
1:10
140
1.0
141
10.0
290
     0
  0
SCALE
  5
1C3
102
{ACAD_REACTORS
330
10C
102
}
330
10C
100
AcDbScale
 70
     0
300
1:16
140
1.0
141
16.0
290
     0
  0
SCALE
  5
1C4
102
{ACAD_REACTORS
330
10C
102
}
330
10C
100
AcDbScale
 70
     0
300
1:20
140
1.0
141
20.0
290
     0
  0
SCALE
  5
1C5
102
{ACAD_REACTORS
330
10C
102
}
330
10C
100
AcDbScale
 70
     0
300
1:30
140
1.0
141
30.0
290
     0
  0
SCALE
  5
1C6
102
{ACAD_REACTORS
330
10C
102
}
330
10C
100
AcDbScale
 70
     0
300
1:40
140
1.0
141
40.0
290
     0
  0
SCALE
  5
1C7
102
{ACAD_REACTORS
330
10C
102
}
330
10C
100
AcDbScale
 70
     0
300
1:50
140
1.0
141
50.0
290
     0
  0
SCALE
  5
1C8
102
{ACAD_REACTORS
330
10C
102
}
330
10C
100
AcDbScale
 70
     0
300
1:100
140
1.0
141
100.0
290
     0
  0
SCALE
  5
1C9
102
{ACAD_REACTORS
330
10C
102
}
330
10C
100
AcDbScale
 70
     0
300
2:1
140
2.0
141
1.0
290
     0
  0
SCALE
  5
1CA
102
{ACAD_REACTORS
330
10C
102
}
330
10C
100
AcDbScale
 70
     0
300
4:1
140
4.0
141
1.0
290
     0
  0
SCALE
  5
1CB
102
{ACAD_REACTORS
330
10C
102
}
330
10C
100
AcDbScale
 70
     0
300
8:1
140
8.0
141
1.0
290
     0
  0
SCALE
  5
1CC
102
{ACAD_REACTORS
330
10C
102
}
330
10C
100
AcDbScale
 70
     0
300
10:1
140
10.0
141
1.0
290
     0
  0
SCALE
  5
1CD
102
{ACAD_REACTORS
330
10C
102
}
330
10C
100
AcDbScale
 70
     0
300
100:1
140
100.0
141
1.0
290
     0
  0
ACDBSECTIONVIEWSTYLE
  5
21A
102
{ACAD_XDICTIONARY
360
234
102
}
102
{ACAD_REACTORS
330
219
102
}
330
219
100
AcDbModelDocViewStyle
 70
     0
  3
Metric50
290
     0
100
AcDbSectionViewStyle
 70
     0
 71
     0
 90
      102
 71
     1
340
11
 62
   256
 40
5.0
340
0
340
0
 62
   256
 40
5.0
300
I, O, Q, S, X, Z
 40
10.0
 90
        0
 40
2.5
 90
        0
 71
     2
340
16
 90
       25
 62
   256
340
16
 90
       50
 62
   256
 40
5.0
 40
2.5
 40
5.0
 71
     3
340
11
 62
   256
 40
5.0
 90
        0
 40
15.0
 90
        1
300
%<\AcVar ViewSectionStartId>%-%<\AcVar ViewSectionEndId>% (%<\AcVar ViewScale \f "%sn">%)
 71
     4
 62
   256
 62
   257
300
ANSI31
 40
1.0
 90
        0
290
     0
290
     0
 90
        6
 40
0.0
 40
1.570796326794896
 40
0.2617993877991494
 40
1.308996938995747
 40
-0.2617993877991494
 40
1.832595714594046
  0
TABLESTYLE
  5
7F
102
{ACAD_XDICTIONARY
360
162
102
}
102
{ACAD_REACTORS
330
7E
102
}
330
7E
100
AcDbTableStyle
  3
Standard
 70
     0
 71
     0
 40
1.5
 41
1.5
280
     0
281
     0
  7
Standard
140
4.5
170
     2
 62
     0
 63
     7
283
     0
 90
      512
 91
        0
  1

274
    -2
284
     1
 64
     0
275
    -2
285
     1
 65
     0
276
    -2
286
     1
 66
     0
277
    -2
287
     1
 67
     0
278
    -2
288
     1
 68
     0
279
    -2
289
     1
 69
     0
  7
Standard
140
6.0
170
     5
 62
     0
 63
     7
283
     0
 90
      512
 91
        0
  1

274
    -2
284
     1
 64
     0
275
    -2
285
     1
 65
     0
276
    -2
286
     1
 66
     0
277
    -2
287
     1
 67
     0
278
    -2
288
     1
 68
     0
279
    -2
289
     1
 69
     0
  7
Standard
140
4.5
170
     5
 62
     0
 63
     7
283
     0
 90
      512
 91
        0
  1

274
    -2
284
     1
 64
     0
275
    -2
285
     1
 65
     0
276
    -2
286
     1
 66
     0
277
    -2
287
     1
 67
     0
278
    -2
288
     1
 68
     0
279
    -2
289
     1
 69
     0
  0
VISUALSTYLE
  5
F5
102
{ACAD_XDICTIONARY
360
290
102
}
102
{ACAD_REACTORS
330
EF
102
}
330
EF
100
AcDbVisualStyle
  2
2dWireframe
 70
     4
 71
     0
 72
     2
 73
     1
 90
        0
 40
-0.6
 41
-30.0
 62
     5
 63
     7
421
 16777215
 74
     1
 91
        4
 64
     7
 65
   257
 75
     1
175
     1
 42
1.0
 92
        0
 66
   257
 43
1.0
 76
     1
 77
     6
 78
     2
 67
     7
 79
     5
170
     0
171
     0
290
     0
174
     0
 93
        1
 44
0.0
173
     0
291
     0
 45
0.0
1001
ACAD
1000
AcDbSavedByObjectVersion
1070
     0
  0
VISUALSTYLE
  5
F4
102
{ACAD_XDICTIONARY
360
28E
102
}
102
{ACAD_REACTORS
330
EF
102
}
330
EF
100
AcDbVisualStyle
  2
Basic
 70
     7
 71
     1
 72
     0
 73
     1
 90
        0
 40
-0.6
 41
-30.0
 62
     5
 63
     7
421
 16777215
 74
     0
 91
        4
 64
     7
 65
   257
 75
     1
175
     1
 42
1.0
 92
        8
 66
     7
 43
1.0
 76
     1
 77
     6
 78
     2
 67
     7
 79
     5
170
     0
171
     0
290
     0
174
     0
 93
        1
 44
0.0
173
     0
291
     1
 45
0.0
1001
ACAD
1000
AcDbSavedByObjectVersion
1070
     0
  0
VISUALSTYLE
  5
FB
102
{ACAD_XDICTIONARY
360
29C
102
}
102
{ACAD_REACTORS
330
EF
102
}
330
EF
100
AcDbVisualStyle
  2
Brighten
 70
    12
 71
     2
 72
     2
 73
     1
 90
        0
 40
-0.6
 41
-30.0
 62
     5
 63
     7
421
 16777215
 74
     1
 91
        4
 64
     7
 65
   257
 75
     1
175
     1
 42
1.0
 92
        8
 66
     7
 43
1.0
 76
     1
 77
     6
 78
     2
 67
     7
 79
     5
170
     0
171
     0
290
     0
174
     0
 93
        1
 44
50.0
173
     0
291
     1
 45
0.0
1001
ACAD
1000
AcDbSavedByObjectVersion
1070
     0
  0
VISUALSTYLE
  5
FF
102
{ACAD_XDICTIONARY
360
2A4
102
}
102
{ACAD_REACTORS
330
EF
102
}
330
EF
100
AcDbVisualStyle
  2
ColorChange
 70
    16
 71
     2
 72
     2
 73
     3
 90
        0
 40
-0.6
 41
-30.0
 62
     5
 63
     8
421
  8421504
 74
     1
 91
        4
 64
     7
 65
   257
 75
     1
175
     1
 42
1.0
 92
        8
 66
     8
424
  8421504
 43
1.0
 76
     1
 77
     6
 78
     2
 67
     7
 79
     5
170
     0
171
     0
290
     0
174
     0
 93
        1
 44
0.0
173
     0
291
     1
 45
0.0
1001
ACAD
1000
AcDbSavedByObjectVersion
1070
     0
  0
VISUALSTYLE
  5
F8
102
{ACAD_XDICTIONARY
360
296
102
}
102
{ACAD_REACTORS
330
EF
102
}
330
EF
100
AcDbVisualStyle
  2
Conceptual
 70
     9
 71
     3
 72
     2
 73
     1
 90
        0
 40
-0.6
 41
-30.0
 62
     5
 63
     7
421
 16777215
 74
     2
 91
        2
 64
     7
 65
   257
 75
     1
175
     1
 42
40.0
 92
        8
 66
     7
 43
1.0
 76
     1
 77
     6
 78
     2
 67
     7
 79
     3
170
     0
171
     0
290
     0
174
     0
 93
        1
 44
0.0
173
     0
291
     0
 45
0.0
1001
ACAD
1000
AcDbSavedByObjectVersion
1070
     0
  0
VISUALSTYLE
  5
FA
102
{ACAD_XDICTIONARY
360
29A
102
}
102
{ACAD_REACTORS
330
EF
102
}
330
EF
100
AcDbVisualStyle
  2
Dim
 70
    11
 71
     2
 72
     2
 73
     1
 90
        0
 40
-0.6
 41
-30.0
 62
     5
 63
     7
421
 16777215
 74
     1
 91
        4
 64
     7
 65
   257
 75
     1
175
     1
 42
1.0
 92
        8
 66
     7
 43
1.0
 76
     1
 77
     6
 78
     2
 67
     7
 79
     5
170
     0
171
     0
290
     0
174
     0
 93
        1
 44
-50.0
173
     0
291
     1
 45
0.0
1001
ACAD
1000
AcDbSavedByObjectVersion
1070
     0
  0
VISUALSTYLE
  5
1E6
102
{ACAD_XDICTIONARY
360
2AA
102
}
102
{ACAD_REACTORS
330
EF
102
}
330
EF
100
AcDbVisualStyle
  2
EdgeColorOff
 70
    22
 71
     2
 72
     2
 73
     0
 90
        0
 40
-0.6
 41
-30.0
 62
     5
 63
     7
421
 16777215
 74
     1
 91
        4
 64
     7
 65
   257
 75
     1
175
     1
 42
1.0
 92
        8
 66
     7
 43
1.0
 76
     1
 77
     6
 78
     2
 67
     7
 79
     5
170
     0
171
     0
290
     0
174
     0
 93
        1
 44
0.0
173
     0
291
     1
 45
0.0
1001
ACAD
1000
AcDbSavedByObjectVersion
1070
     0
  0
VISUALSTYLE
  5
FE
102
{ACAD_XDICTIONARY
360
2A2
102
}
102
{ACAD_REACTORS
330
EF
102
}
330
EF
100
AcDbVisualStyle
  2
Facepattern
 70
    15
 71
     2
 72
     2
 73
     1
 90
        0
 40
-0.6
 41
-30.0
 62
     5
 63
     7
421
 16777215
 74
     1
 91
        4
 64
     7
 65
   257
 75
     1
175
     1
 42
1.0
 92
        8
 66
     7
 43
1.0
 76
     1
 77
     6
 78
     2
 67
     7
 79
     5
170
     0
171
     0
290
     0
174
     0
 93
        1
 44
0.0
173
     0
291
     1
 45
0.0
1001
ACAD
1000
AcDbSavedByObjectVersion
1070
     0
  0
VISUALSTYLE
  5
F0
102
{ACAD_XDICTIONARY
360
286
102
}
102
{ACAD_REACTORS
330
EF
102
}
330
EF
100
AcDbVisualStyle
  2
Flat
 70
     0
 71
     2
 72
     1
 73
     1
 90
        2
 40
-0.6
 41
30.0
 62
     5
 63
     7
421
 16777215
 74
     0
 91
        0
 64
     7
 65
   257
 75
     1
175
     1
 42
1.0
 92
        8
 66
     7
 43
1.0
 76
     1
 77
     6
 78
     2
 67
     7
 79
     5
170
     0
171
     0
290
     0
174
     0
 93
       13
 44
0.0
173
     0
291
     1
 45
0.0
1001
ACAD
1000
AcDbSavedByObjectVersion
1070
     0
  0
VISUALSTYLE
  5
F1
102
{ACAD_XDICTIONARY
360
288
102
}
102
{ACAD_REACTORS
330
EF
102
}
330
EF
100
AcDbVisualStyle
  2
FlatWithEdges
 70
     1
 71
     2
 72
     1
 73
     1
 90
        2
 40
-0.6
 41
30.0
 62
     5
 63
     7
421
 16777215
 74
     1
 91
        0
 64
     7
 65
   257
 75
     1
175
     1
 42
1.0
 92
        0
 66
   257
 43
1.0
 76
     1
 77
     6
 78
     2
 67
     7
 79
     5
170
     0
171
     0
290
     0
174
     0
 93
       13
 44
0.0
173
     0
291
     1
 45
0.0
1001
ACAD
1000
AcDbSavedByObjectVersion
1070
     0
  0
VISUALSTYLE
  5
F2
102
{ACAD_XDICTIONARY
360
28A
102
}
102
{ACAD_REACTORS
330
EF
102
}
330
EF
100
AcDbVisualStyle
  2
Gouraud
 70
     2
 71
     2
 72
     2
 73
     1
 90
        2
 40
-0.6
 41
30.0
 62
     5
 63
     7
421
 16777215
 74
     0
 91
        0
 64
     7
 65
   257
 75
     1
175
     1
 42
1.0
 92
        0
 66
     7
 43
1.0
 76
     1
 77
     6
 78
     2
 67
     7
 79
     5
170
     0
171
     0
290
     0
174
     0
 93
       13
 44
0.0
173
     0
291
     1
 45
0.0
1001
ACAD
1000
AcDbSavedByObjectVersion
1070
     0
  0
VISUALSTYLE
  5
F3
102
{ACAD_XDICTIONARY
360
28C
102
}
102
{ACAD_REACTORS
330
EF
102
}
330
EF
100
AcDbVisualStyle
  2
GouraudWithEdges
 70
     3
 71
     2
 72
     2
 73
     1
 90
        2
 40
-0.6
 41
30.0
 62
     5
 63
     7
421
 16777215
 74
     1
 91
        0
 64
     7
 65
   257
 75
     1
175
     1
 42
1.0
 92
        0
 66
   257
 43
1.0
 76
     1
 77
     6
 78
     2
 67
     7
 79
     5
170
     0
171
     0
290
     0
174
     0
 93
       13
 44
0.0
173
     0
291
     1
 45
0.0
1001
ACAD
1000
AcDbSavedByObjectVersion
1070
     0
  0
VISUALSTYLE
  5
F7
102
{ACAD_XDICTIONARY
360
294
102
}
102
{ACAD_REACTORS
330
EF
102
}
330
EF
100
AcDbVisualStyle
  2
Hidden
 70
     6
 71
     1
 72
     2
 73
     2
 90
        0
 40
-0.6
 41
-30.0
 62
     5
 63
     7
421
 16777215
 74
     2
 91
        2
 64
     7
 65
   257
 75
     2
175
     1
 42
40.0
 92
        0
 66
   257
 43
1.0
 76
     1
 77
     6
 78
     2
 67
     7
 79
     3
170
     0
171
     0
290
     0
174
     0
 93
        1
 44
0.0
173
     0
291
     0
 45
0.0
1001
ACAD
1000
AcDbSavedByObjectVersion
1070
     0
  0
VISUALSTYLE
  5
1E4
102
{ACAD_XDICTIONARY
360
2A6
102
}
102
{ACAD_REACTORS
330
EF
102
}
330
EF
100
AcDbVisualStyle
  2
JitterOff
 70
    20
 71
     2
 72
     2
 73
     0
 90
        0
 40
-0.6
 41
-30.0
 62
     5
 63
     7
421
 16777215
 74
     1
 91
        4
 64
     7
 65
   257
 75
     1
175
     1
 42
1.0
 92
       10
 66
     7
 43
1.0
 76
     1
 77
     6
 78
     2
 67
     7
 79
     5
170
     0
171
     0
290
     0
174
     0
 93
        1
 44
0.0
173
     0
291
     1
 45
0.0
1001
ACAD
1000
AcDbSavedByObjectVersion
1070
     0
  0
VISUALSTYLE
  5
FD
102
{ACAD_XDICTIONARY
360
2A0
102
}
102
{ACAD_REACTORS
330
EF
102
}
330
EF
100
AcDbVisualStyle
  2
Linepattern
 70
    14
 71
     2
 72
     2
 73
     1
 90
        0
 40
-0.6
 41
-30.0
 62
     5
 63
     7
421
 16777215
 74
     1
 91
        4
 64
     7
 65
   257
 75
     7
175
     7
 42
1.0
 92
        8
 66
     7
 43
1.0
 76
     1
 77
     6
 78
     2
 67
     7
 79
     5
170
     0
171
     0
290
     0
174
     0
 93
        1
 44
0.0
173
     0
291
     1
 45
0.0
1001
ACAD
1000
AcDbSavedByObjectVersion
1070
     0
  0
VISUALSTYLE
  5
1E5
102
{ACAD_XDICTIONARY
360
2A8
102
}
102
{ACAD_REACTORS
330
EF
102
}
330
EF
100
AcDbVisualStyle
  2
OverhangOff
 70
    21
 71
     2
 72
     2
 73
     0
 90
        0
 40
-0.6
 41
-30.0
 62
     5
 63
     7
421
 16777215
 74
     1
 91
        4
 64
     7
 65
   257
 75
     1
175
     1
 42
1.0
 92
        9
 66
     7
 43
1.0
 76
     1
 77
     6
 78
     2
 67
     7
 79
     5
170
     0
171
     0
290
     0
174
     0
 93
        1
 44
0.0
173
     0
291
     1
 45
0.0
1001
ACAD
1000
AcDbSavedByObjectVersion
1070
     0
  0
VISUALSTYLE
  5
F9
102
{ACAD_XDICTIONARY
360
298
102
}
102
{ACAD_REACTORS
330
EF
102
}
330
EF
100
AcDbVisualStyle
  2
Realistic
 70
     8
 71
     2
 72
     3
 73
     0
 90
        2
 40
-0.6
 41
30.0
 62
     5
 63
     7
421
 16777215
 74
     0
 91
        0
 64
     7
 65
   257
 75
     1
175
     1
 42
1.0
 92
        8
 66
   257
 43
1.0
 76
     1
 77
     6
 78
     2
 67
     7
 79
     3
170
     0
171
     0
290
     0
174
     0
 93
       13
 44
0.0
173
     0
291
     0
 45
0.0
1001
ACAD
1000
AcDbSavedByObjectVersion
1070
     0
  0
VISUALSTYLE
  5
1F3
102
{ACAD_XDICTIONARY
360
2B4
102
}
102
{ACAD_REACTORS
330
EF
102
}
330
EF
100
AcDbVisualStyle
  2
Shaded
 70
    27
 71
     2
 72
     2
 73
     1
 90
        2
 40
-0.6
 41
30.0
 62
     5
 63
     7
421
 16777215
 74
     0
 91
        4
 64
     7
 65
   257
 75
     1
175
     1
 42
1.0
 92
        8
 66
   257
 43
1.0
 76
     1
 77
     6
 78
     2
 67
     8
425
  7895160
 79
     3
170
     0
171
     0
290
     0
174
     0
 93
        5
 44
0.0
173
     0
291
     0
 45
0.0
1001
ACAD
1000
AcDbSavedByObjectVersion
1070
     0
  0
VISUALSTYLE
  5
1F2
102
{ACAD_XDICTIONARY
360
2B2
102
}
102
{ACAD_REACTORS
330
EF
102
}
330
EF
100
AcDbVisualStyle
  2
Shaded with edges
 70
    26
 71
     2
 72
     2
 73
     1
 90
        2
 40
-0.6
 41
30.0
 62
     5
 63
     7
421
 16777215
 74
     1
 91
       10
 64
     7
 65
   257
 75
     2
175
     1
 42
1.0
 92
        8
 66
   257
 43
1.0
 76
     1
 77
     6
 78
     2
 67
     7
 79
     3
170
     0
171
     0
290
     0
174
     0
 93
        5
 44
0.0
173
     0
291
     0
 45
0.0
1001
ACAD
1000
AcDbSavedByObjectVersion
1070
     0
  0
VISUALSTYLE
  5
1EF
102
{ACAD_XDICTIONARY
360
2AC
102
}
102
{ACAD_REACTORS
330
EF
102
}
330
EF
100
AcDbVisualStyle
  2
Shades of Gray
 70
    23
 71
     2
 72
     2
 73
     3
 90
        0
 40
-0.6
 41
-30.0
 62
     5
 63
     7
421
 16777215
 74
     2
 91
        2
 64
     7
 65
     7
 75
     1
175
     1
 42
40.0
 92
        8
 66
     7
 43
1.0
 76
     1
 77
     6
 78
     2
 67
     7
 79
     3
170
     0
171
     0
290
     0
174
     0
 93
        1
 44
0.0
173
     0
291
     0
 45
0.0
1001
ACAD
1000
AcDbSavedByObjectVersion
1070
     0
  0
VISUALSTYLE
  5
1F0
102
{ACAD_XDICTIONARY
360
2AE
102
}
102
{ACAD_REACTORS
330
EF
102
}
330
EF
100
AcDbVisualStyle
  2
Sketchy
 70
    24
 71
     1
 72
     2
 73
     2
 90
        0
 40
-0.6
 41
-30.0
 62
     5
 63
     7
421
 16777215
 74
     2
 91
        2
 64
     7
 65
     7
 75
     1
175
     1
 42
40.0
 92
       11
 66
     7
 43
1.0
 76
     1
 77
     6
 78
     2
 67
     7
 79
     6
170
     0
171
     0
290
     0
174
     0
 93
        1
 44
0.0
173
     0
291
     0
 45
0.0
1001
ACAD
1000
AcDbSavedByObjectVersion
1070
     0
  0
VISUALSTYLE
  5
FC
102
{ACAD_XDICTIONARY
360
29E
102
}
102
{ACAD_REACTORS
330
EF
102
}
330
EF
100
AcDbVisualStyle
  2
Thicken
 70
    13
 71
     2
 72
     2
 73
     1
 90
        0
 40
-0.6
 41
-30.0
 62
     5
 63
     7
421
 16777215
 74
     1
 91
        4
 64
     7
 65
   257
 75
     1
175
     1
 42
1.0
 92
       12
 66
     7
 43
1.0
 76
     1
 77
     6
 78
     2
 67
     7
 79
     5
170
     0
171
     0
290
     0
174
     0
 93
        1
 44
0.0
173
     0
291
     1
 45
0.0
1001
ACAD
1000
AcDbSavedByObjectVersion
1070
     0
  0
VISUALSTYLE
  5
F6
102
{ACAD_XDICTIONARY
360
292
102
}
102
{ACAD_REACTORS
330
EF
102
}
330
EF
100
AcDbVisualStyle
  2
Wireframe
 70
     5
 71
     0
 72
     2
 73
     0
 90
        0
 40
-0.6
 41
-30.0
 62
     5
 63
     7
421
 16777215
 74
     1
 91
        4
 64
     7
 65
   257
 75
     1
175
     1
 42
1.0
 92
        0
 66
   257
 43
1.0
 76
     1
 77
     6
 78
     2
 67
     7
 79
     3
170
     0
171
     0
290
     0
174
     0
 93
        1
 44
0.0
173
     0
291
     0
 45
0.0
1001
ACAD
1000
AcDbSavedByObjectVersion
1070
     0
  0
VISUALSTYLE
  5
1F1
102
{ACAD_XDICTIONARY
360
2B0
102
}
102
{ACAD_REACTORS
330
EF
102
}
330
EF
100
AcDbVisualStyle
  2
X-Ray
 70
    25
 71
     2
 72
     2
 73
     1
 90
        1
 40
0.5
 41
-30.0
 62
     5
 63
     7
421
 16777215
 74
     1
 91
        0
 64
     7
 65
   257
 75
     1
175
     1
 42
1.0
 92
        8
 66
     7
 43
1.0
 76
     1
 77
     6
 78
     2
 67
     7
 79
     3
170
     0
171
     0
290
     0
174
     0
 93
       13
 44
0.0
173
     0
291
     0
 45
0.0
1001
ACAD
1000
AcDbSavedByObjectVersion
1070
     0
  0
DICTIONARYVAR
  5
146
102
{ACAD_REACTORS
330
5E
102
}
330
5E
100
DictionaryVariables
280
     0
  1
1:1
  0
DICTIONARYVAR
  5
145
102
{ACAD_REACTORS
330
5E
102
}
330
5E
100
DictionaryVariables
280
     0
  1
STANDARD
  0
DICTIONARYVAR
  5
84
102
{ACAD_REACTORS
330
5E
102
}
330
5E
100
DictionaryVariables
280
     0
  1
STANDARD
  0
DICTIONARYVAR
  5
227
102
{ACAD_REACTORS
330
5E
102
}
330
5E
100
DictionaryVariables
280
     0
  1
Metric50
  0
DICTIONARYVAR
  5
228
102
{ACAD_REACTORS
330
5E
102
}
330
5E
100
DictionaryVariables
280
     0
  1
Metric50
  0
DICTIONARYVAR
  5
5F
102
{ACAD_REACTORS
330
5E
102
}
330
5E
100
DictionaryVariables
280
     0
  1
2
  0
DICTIONARYVAR
  5
63
102
{ACAD_REACTORS
330
5E
102
}
330
5E
100
DictionaryVariables
280
     0
  1
1
  0
DICTIONARYVAR
  5
1AE
102
{ACAD_REACTORS
330
5E
102
}
330
5E
100
DictionaryVariables
280
     0
  1
0
  0
DICTIONARYVAR
  5
1AF
102
{ACAD_REACTORS
330
5E
102
}
330
5E
100
DictionaryVariables
280
     0
  1
0
  0
DICTIONARYVAR
  5
27B
102
{ACAD_REACTORS
330
5E
102
}
330
5E
100
DictionaryVariables
280
     0
  1
2
  0
DICTIONARY
  5
285
102
{ACAD_REACTORS
330
283
102
}
330
283
100
AcDbDictionary
281
     1
  0
DICTIONARY
  5
284
102
{ACAD_REACTORS
330
283
102
}
330
283
100
AcDbDictionary
281
     1
  3
140687889686624
350
27E
  3
140687889686640
350
27F
  3
140687889686656
350
280
  3
140687889686672
350
281
  3
140687889686688
350
282
  0
DICTIONARY
  5
236
330
21C
100
AcDbDictionary
280
     1
281
     1
  3
ACAD_XREC_ROUNDTRIP
360
2B7
  0
DICTIONARY
  5
205
330
22
100
AcDbDictionary
280
     1
281
     1
  0
DICTIONARY
  5
1F9
330
ED
100
AcDbDictionary
280
     1
281
     1
  3
FBXASSET
360
1FA
  0
DICTIONARY
  5
1F7
330
EC
100
AcDbDictionary
280
     1
281
     1
  3
FBXASSET
360
1F8
  0
DICTIONARY
  5
173
330
EE
100
AcDbDictionary
280
     1
281
     1
  3
BUMPTILE
360
175
  3
DIFFUSETILE
360
174
  3
FBXASSET
360
1FB
  3
OPACITYTILE
360
176
  3
REFLECTIONTILE
360
177
  0
DICTIONARY
  5
234
330
21A
100
AcDbDictionary
280
     1
281
     1
  3
ACAD_XREC_ROUNDTRIP
360
2B6
  0
DICTIONARY
  5
162
330
7F
100
AcDbDictionary
280
     1
281
     1
  3
ACAD_ROUNDTRIP_2008_TABLESTYLE_CELLSTYLEMAP
360
27C
  0
DICTIONARY
  5
290
330
F5
100
AcDbDictionary
280
     1
281
     1
  3
ACAD_XREC_ROUNDTRIP
360
291
  0
DICTIONARY
  5
28E
330
F4
100
AcDbDictionary
280
     1
281
     1
  3
ACAD_XREC_ROUNDTRIP
360
28F
  0
DICTIONARY
  5
29C
330
FB
100
AcDbDictionary
280
     1
281
     1
  3
ACAD_XREC_ROUNDTRIP
360
29D
  0
DICTIONARY
  5
2A4
330
FF
100
AcDbDictionary
280
     1
281
     1
  3
ACAD_XREC_ROUNDTRIP
360
2A5
  0
DICTIONARY
  5
296
330
F8
100
AcDbDictionary
280
     1
281
     1
  3
ACAD_XREC_ROUNDTRIP
360
297
  0
DICTIONARY
  5
29A
330
FA
100
AcDbDictionary
280
     1
281
     1
  3
ACAD_XREC_ROUNDTRIP
360
29B
  0
DICTIONARY
  5
2AA
330
1E6
100
AcDbDictionary
280
     1
281
     1
  3
ACAD_XREC_ROUNDTRIP
360
2AB
  0
DICTIONARY
  5
2A2
330
FE
100
AcDbDictionary
280
     1
281
     1
  3
ACAD_XREC_ROUNDTRIP
360
2A3
  0
DICTIONARY
  5
286
330
F0
100
AcDbDictionary
280
     1
281
     1
  3
ACAD_XREC_ROUNDTRIP
360
287
  0
DICTIONARY
  5
288
330
F1
100
AcDbDictionary
280
     1
281
     1
  3
ACAD_XREC_ROUNDTRIP
360
289
  0
DICTIONARY
  5
28A
330
F2
100
AcDbDictionary
280
     1
281
     1
  3
ACAD_XREC_ROUNDTRIP
360
28B
  0
DICTIONARY
  5
28C
330
F3
100
AcDbDictionary
280
     1
281
     1
  3
ACAD_XREC_ROUNDTRIP
360
28D
  0
DICTIONARY
  5
294
330
F7
100
AcDbDictionary
280
     1
281
     1
  3
ACAD_XREC_ROUNDTRIP
360
295
  0
DICTIONARY
  5
2A6
330
1E4
100
AcDbDictionary
280
     1
281
     1
  3
ACAD_XREC_ROUNDTRIP
360
2A7
  0
DICTIONARY
  5
2A0
330
FD
100
AcDbDictionary
280
     1
281
     1
  3
ACAD_XREC_ROUNDTRIP
360
2A1
  0
DICTIONARY
  5
2A8
330
1E5
100
AcDbDictionary
280
     1
281
     1
  3
ACAD_XREC_ROUNDTRIP
360
2A9
  0
DICTIONARY
  5
298
330
F9
100
AcDbDictionary
280
     1
281
     1
  3
ACAD_XREC_ROUNDTRIP
360
299
  0
DICTIONARY
  5
2B4
330
1F3
100
AcDbDictionary
280
     1
281
     1
  3
ACAD_XREC_ROUNDTRIP
360
2B5
  0
DICTIONARY
  5
2B2
330
1F2
100
AcDbDictionary
280
     1
281
     1
  3
ACAD_XREC_ROUNDTRIP
360
2B3
  0
DICTIONARY
  5
2AC
330
1EF
100
AcDbDictionary
280
     1
281
     1
  3
ACAD_XREC_ROUNDTRIP
360
2AD
  0
DICTIONARY
  5
2AE
330
1F0
100
AcDbDictionary
280
     1
281
     1
  3
ACAD_XREC_ROUNDTRIP
360
2AF
  0
DICTIONARY
  5
29E
330
FC
100
AcDbDictionary
280
     1
281
     1
  3
ACAD_XREC_ROUNDTRIP
360
29F
  0
DICTIONARY
  5
292
330
F6
100
AcDbDictionary
280
     1
281
     1
  3
ACAD_XREC_ROUNDTRIP
360
293
  0
DICTIONARY
  5
2B0
330
1F1
100
AcDbDictionary
280
     1
281
     1
  3
ACAD_XREC_ROUNDTRIP
360
2B1
  0
XRECORD
  5
27E
102
{ACAD_REACTORS
330
284
102
}
330
284
100
AcDbXrecord
280
     1
  1
AcDb_Thumbnail_Schema
102
{ATTRRECORD
341
27F
  2
AcDbDs::TreatedAsObjectData
280
     1
291
     1
102
ATTRRECORD}
102
{ATTRRECORD
341
280
  2
AcDbDs::Legacy
280
     1
291
     1
102
ATTRRECORD}
  2
AcDbDs::ID
280
    10
 91
        8
102
{ATTRRECORD
341
281
  2
AcDs:Indexable
280
     1
291
     1
102
ATTRRECORD}
102
{ATTRRECORD
341
282
  2
AcDbDs::HandleAttribute
280
     7
282
     1
102
ATTRRECORD}
  2
Thumbnail_Data
280
    15
 91
        0
  0
XRECORD
  5
27F
102
{ACAD_REACTORS
330
284
102
}
330
284
100
AcDbXrecord
280
     1
  1
AcDbDs::TreatedAsObjectDataSchema
  2
AcDbDs::TreatedAsObjectData
280
     1
 91
        0
  0
XRECORD
  5
280
102
{ACAD_REACTORS
330
284
102
}
330
284
100
AcDbXrecord
280
     1
  1
AcDbDs::LegacySchema
  2
AcDbDs::Legacy
280
     1
 91
        0
  0
XRECORD
  5
281
102
{ACAD_REACTORS
330
284
102
}
330
284
100
AcDbXrecord
280
     1
  1
AcDbDs::IndexedPropertySchema
  2
AcDs:Indexable
280
     1
 91
        0
  0
XRECORD
  5
282
102
{ACAD_REACTORS
330
284
102
}
330
284
100
AcDbXrecord
280
     1
  1
AcDbDs::HandleAttributeSchema
  2
AcDbDs::HandleAttribute
280
     7
 91
        1
284
     1
  0
XRECORD
  5
2B7
102
{ACAD_REACTORS
330
236
102
}
330
236
100
AcDbXrecord
280
     1
102
DISPLAYNAME
  1
Metric50
102
FLAGS
 90
        0
  0
XRECORD
  5
1FA
102
{ACAD_REACTORS
330
1F9
102
}
330
1F9
100
AcDbXrecord
280
     1
 70
     1
 90
429727718
  1
D62C5603-E3A1-4AEA-B7FB-FE5D8D0755AF
310
504B03040A0000080000CC70623B3DEE336E79000000790000001B0000006175746F6465736B2D64657369676E2D7061636B6167652E786D6C3C3F786D6C2076657273696F6E3D22312E302220656E636F64696E673D227574662D3822203F3E3C666F726D6174733E3C666F726D61743E687474703A2F2F736368656D612E
310
6175746F6465736B2E636F6D2F64657369676E2D7061636B6167652F323030393C2F666F726D61743E3C2F666F726D6174733E504B0304140006080800CC70623BD486FD9CA0000000F4000000130000005B436F6E74656E745F54797065735D2E786D6C7D8EC10E82300C865F65E91D8A1E8C310C0EEA1BF002731658846E
310
D98AC1B77784ABF1D8FE5FBFBF75BBCE937A534CCEB38643598122B6FEE978D0B0485F9C41B54DDD7D022595594E1A469170414C76A4D9A4D207E29CF43ECE46F218070CC6BECC4078ACAA135ACF422C856C0E68EA1BF5669944DDD7BCDE7B1F8E415D77AECB980613C2E4AC91FC167A2B244592486606FC29C8FD7F045B9A
310
EF7053A7E60B504B0304140006080800CC70623B853B8169EB0000007C01000008000000636F72652E786D6C8D90416EC3201045AF62CDB6C206821CC7C244919D9CA01740401C94182C03558F5F9C3852BBEB6A467FFE9B197D7EFC9E1EC5975982F5AE035262288C535E5B377690E21535501C055FBC8FBF6C503839990E
310
5619041F179FE64D52DE45E362569DD7661365082642A11EB9E920A89B99642953CC8E702F67A9EE7234257977194EC9EAE275C4EABCCF5EAD5940D4AC6F0E35A568B8F43562CD7046CD199FD07E60174276A7BE677B5EADB0E0D14EEFFB6A31321A0D82627C4084204C3F096B71DD52F6819B16635EADF63F509AF53FA164
310
5DDCD1EDDD17164090FCC8732078B56691CB33A85CD7DCC40F504B0304140006080800CC70623B55019EA25F0000007C00000007000000636E782E786D6C4DCB3B0E80201045D1AD90E915ED2CF8AC45050C11660C8261F98AB1B07AC9C97D42D718D865D3E909258CFD00CCE24AC6E326A164D74DC0B4128928FF32603847
310
2BA13128B1252AC747C6BAB984FC68F0B87FE8960A5C09FE86CFB69FBA01504B0304140006080800CC70623BDBABAAF470010000D40300000C0000006662782F636F72652E786D6CC553D16E823014FD95A6AF4B694182CC941A83FA05FB810A9511A125A5257EFE2E82712ECEB8A7F100CD39F7F69E734AF9FADC366850B6
310
AF8DCE7018308C942E4C59EB2AC3DE1D498AD15A706B8CFB56869196ADCAF00863C12B6B7C374385D14E6907A836A59A41D9F7CA615434B0C8705F7CAA5606D23BA8E84F41278B93AC54100640439DE0BDB320004D43C63716C7C399D30917DCFBBA9CD9BA8469F5B156168B24CED3F7248AC8769F27244EB73B92EED8862C
310
B7F13E0C179B3C8F979C8ECD82BBBABDAA2BAC924E9558448CBD9330242CFA08E3154B5651FCC6D215639C8EE5774DBE2B5F6CF2B5768B68963BB5F5588420E442FC700B1139D4CB01F450C1E918227C2E09DF070D8140C84E1E9AAB8F1340832A9CB13130A5F1376A908D57309505ECF2A0DF179C4E9D30F5B239B87E3823
310
7A79C6F31DE1A8A5AEC08474B03C7837EAE4938639B44E5932B833D2C6B6B279CDC613877FA26EE21F4A2A4C63EC7F29A2F301D1F9F7A0E37D145F504B0304140006080800CC70623B9C113CC27E0000009D0000000B0000006662782F636E782E786D6C4DCCDF0A83201C86E15B91DFB94BFB330DD428C8FB886521330DA7
310
6397BF1A1DECE883878F57749FCDA1B7892F1BBC047A23808C7F84D9FA55424E0BE6803A256208E9EF06C84F9B91703228B1C690F78B66B34CD9A5439DF5CF0BFBF65E35BCA1B8D6A5C6F540381E886698B5741C695F9503EBA150A2F8958E3DC3EA0B504B0304140006080800CC70623B7DF2F77C2A010000120200003100
310
00006662782F41393633353835312D344632462D344230382D423046372D3739314545314133324237412F636F72652E786D6C8D51DB8EC22014FC15C2939B0D2DB4B45643319AE817EC0F6041255A68B86CFCFC856D4D76DF7CE190393373060EDB3DC707F856CE6B6B7A480A0C81328395DA5C7B18C3057510EC3873D686
310
3F34088C18550F330C39BB3A1BA7051AAC09CA84841A2BD5020AEF55806078A44B0FFD7053A328440C89E1EFC52486BBB8AA8214A99D789CF9E05200300FC927E4FB4D5B375D43103D5527440FB843077C5AA3F5861C8F645F5787F59E95B390B318B55CE45AA638FAA2957BD7248B390B7A7CC51F9C124149C82B8C378810
310
84AB2F42B7B8DD56F413775B8C5999E9FF4471926F8AA236A1AE96B8B3CC434E5839373893369E1FAF30EA395917409EB7F26AF8801C171837A4A6AC9C89E9F9C9B1A58BA30FD6A5EF5DDDCF894B9AD9B6A59C957943A9FCAE2FD5BC4DFE03504B0304140006080800CC70623BAD7543B64E01000033030000300000006662
310
782F41393633353835312D344632462D344230382D423046372D3739314545314133324237412F636E782E786D6CD593CD6EC32010845F0571AD6CE3D48AD20813A9873E410FBD12D82434182C7EAAE6EDBB2424CD25871E7B41D6EC30B3FA84F9E67BB2E40B4234DE8DB46F1925E094D7C6ED479AD3AE5951B2113C789FEE
310
6C943839C1488B4C05DF079FE72A69D8C96C13AAD6B8631503449F83828872B949AC57D26200B826A308D316B4064D6E46FCDA41C05550DC9E483A00797BFD207EFB092A45DE9514C1BBD22178396BD39D891265658C238DEA00936C654E5E433CB65A26D9F6EDB5EBC14EBF49A45CB856E66048291F6939A9A81BB5C89177
310
38143CA680F4AA299D66A042CEB3354A2684DC9D8D178FE0D9B8B41CAAD720F880EE7EF93C0C18769E099ECC04D5A102C8049A8A05632F4DDF376CF1DE0F6BB65C2F8627B65A33C6BB62177CEBBDAD973006829F89F22E814B54F4BC2BE347F8AA8F681390B50FA73F804400B5F542E796F19FF974E7F78DB802FE05E20750
310
4B0304140006080800CC70623BE75B7789680500003C100000340000006662782F41393633353835312D344632462D344230382D423046372D3739314545314133324237412F6F626A656374732E786D6CAD575B8F9B3818FD2B887D06C22499CB8AA1CA655245D5B455A356FB305264C061D8018C6C3393D95FBFC7600890
310
A4CD5EF210B0B1BFEBF98E3F7B1FF6596ABC522E1296DF9BAE3D320D9A872C4AF2F8DE2CE5CEBA358D0FBEC719939D65A691938CDE9B6ADAF4BD98B3B2D05311DD91329583D9D5FC0F438434A7A611A644887B5384CF34233629258BA878B12322891DEFF6B66BD70BFB62634E8AE781D082709A4B588AF91C528CDA28B73F
310
1C998EEF39EABBEFA97FBD6A7C7E9553F9D3D79FE442923C3C523610337627CB87ABE99D359D4CC6D6E4FACAB5E6ABF9D2726FC6A3C5F56271377BB88362213924694B38DD99FE47C48627A1E7D49F5A8BB5E1A74C0A599ED3B0F21F1E56366B89112D681E218F0915D0D6F17AD41FBA2A369DCF6335D62ABBD39779D5DDD1
310
11D4D8DE3CBB96B2E04FB8202E41051754A1AA8E8F76B4C6DFE810B580B1547F4B84911149794252234D024EF8BBE963A95AE27B3D310A9D5C215C7960FAEE415ED75694C6AFB17BCACA5D99A60A9AA65F217B0BFC53292ACB92BF283FAD0D3621576592CB5BED907C2FA8E9DF794E35E97BEA31BED21FEB401ABB94C44839
310
DCACBF0E1C5DA8DA5B2F4DFFD32AD86F543D9E565E7056502E157C00AD2671CD534549AB752FCA9CDA00677A313F04E51B22FF19E57B300579E3C97EB29F682D92935CEC18CF901B7B54FD8C51F362B56FC72FE0B3C1EAE335EDCCBF5AEC39ADB17DC238973F804BA5E6F6BFE7AF1FB32E523BE9F3BD571418E3631DCA4D48
310
5250CF639223210A9446CA30052EDF057BD35F8329C1ECD84552BF0DC8D18BE7BCE23BFE6BD960AB4A7DE79923A103BEBD80F911CBAA2C60DB19B01CF164A5583B772EE6D3FFA56666CBCDA74DC97724A48F9A58967497E489C4D979006FD7A05E227A1EBDD0F737C623387A9C844D3709995625106D157315F8B8392CD4E0
310
A0B9A720C4BE9829CEF37EA1E13111214D53925356365ADA634861B52519DD27A00AEB808EAF0628E6F435519D446F45CF2C9CF5214F0A15B2F6D06B79DA3EE3CBF7F56780D2F4E7EF73A0F5E5B02A38D07DC852C6B7C1FBB6664213E0C39E3EBA7FF4E1AD23EA2829407C85E586727488B751B2DB9502BC7B228A3FD68B6E
310
A65A22397E690AA8D158D7E404EC8CDA235CC3B7D1898680131CEC2CDF2638C65196279577750F15884AEE19F94199155B92B13297978469D4F8D358DF0AEF7631E28DC8F0D9F437D5D39A83B2231A1D52D543813A824EF8D44BCFF2FA6A31BD1E8DAD87F1CCB526B3879935BF59CDADD5C37479BB1CDD4CA7B3556B516589
310
EF352754B706114D9C885EC9131DE6EFEB43D99AFE2391C2F958179413D7CFEF6B1B6DB1E7600F00DE6E5C67454A339A4BA2E0FBA85ED26F045D454F463DBFCE484C2F90F2E5E3666003662ED8F755951A7D1BECD5B30B550B2785C8E7320B7292A4838DDA71BBC863ED7613CAF659337A3354231D4FF4A182A54904C2898C
310
98B28C4AD0CE056CCF332A80986E571EE9DBC305BB5FEB7E509220A58D25CF042D712A806AC0AD0C657FDEF80D2D9CEAA2EE4D1C76F60BFE74219A06527D6F82DF6412526107381E55E353090704D085B52408A8913C4ED159D79BDA71BB4BC506F4831350EB6F975CD22D69BF7AC49B91A2C0A9DDA3D5CA36AD20FC478E37
310
E61844E2352865EBCB61A275A65283CAAA9DD27703B4102F5AF51EF5F573B75CBB5AD38BC845F7A49F82A0966A49C2E3EA5EA0ECD326CD965F1DB402C6FA8B51A4658C5C5E2EC9E214602E55810345408596591009A82E7E7FFACA19EEA299B14A0081A705CB3296EBC14CDF658DCD336EA6D1136881AAEB87B81AB9EE53D5
310
F5EB8BC8362082DA24122F98680A4E7930C01A0079749CEA14382A0783E5EBA5A10F8C098456A03D6A4AEB6BB881E2513747552A5DB22C7EDAF83BD5528081A365F7FF06504B0304140006080000CC70623B000000000000000000000000350000006662782F41393633353835312D344632462D344230382D423046372D37
310
39314545314133324237412F76657274696365732E62696E504B0304140006080800CC70623BF270F1330600000004000000360000006662782F41393633353835312D344632462D344230382D423046372D3739314545314133324237412F747269616E676C65732E62696E636660600000504B0304140006080000CC7062
310
3B000000000000000000000000370000006662782F41393633353835312D344632462D344230382D423046372D3739314545314133324237412F617474726962757465732E62696E504B0304140006080800CC70623B08DA0BD19000000041010000360000006662782F41393633353835312D344632462D344230382D4230
310
46372D3739314545314133324237412F6469726563746F72792E786D6C858F410AC3201045AF22B36F53E9A60B35CBEEBAE80D244E44489C6234F4F835464A48035D0DF398FF9F8AF63D0E6CC63039F212F8F9020C7D47C6792B21C5FE7403D62A1188E2E60C98D7234A5830286103A55745067B9D86B8A3CF9C7F90C11DE6
310
07FB144396D7B6A82D282E9A152AD114D5EF2CB866EEE831B8EEA07A7BB5A8D7D61A2BAAEB7FD5F70921FF497D00504B0304140006080800CC70623BEDD1DC58FD000000A00100003B0000006662782F41393633353835312D344632462D344230382D423046372D3739314545314133324237412F7265736F75726365732F
310
636F72652E786D6C8D504B6E833010BD0A9A6D65B00922041947112427E8052C33A156828DFCA97AFC9A40A576D7CDCCE87D344F8F9FBFE667F689CE6B6B3A6039850C8DB2A336530731DC4903D95970676DF82583CCC8193B5861107C72362E3BA4AC096842428D1D7107A5F7182053CF7474E0D507CE32973124857FE48B
310
540F3961CEF244279DE03EB81420DB9EAC1384436FA353E879B1B182C7A8C75DA3C7F453DF353A1075D537A7BA6464B8F535A99AE14A9A2BBD90E350DD183B5CFABE3AF262350B1EF4FC9351399401471025A527C218A1E53BAB5A5AB765F5469B96525EACF23FA6B88CFF34456DC2A1DCE36E360F82A5202F42F062ED2BAD
310
579969AFDD8A6F504B010214000A0000080000CC70623B3DEE336E79000000790000001B00000000000000000000000000000000006175746F6465736B2D64657369676E2D7061636B6167652E786D6C504B01021400140006080800CC70623BD486FD9CA0000000F40000001300000000000000000000000000B20000005B
310
436F6E74656E745F54797065735D2E786D6C504B01021400140006080800CC70623B853B8169EB0000007C010000080000000000000000000000000083010000636F72652E786D6C504B01021400140006080800CC70623B55019EA25F0000007C000000070000000000000000000000000094020000636E782E786D6C504B
310
01021400140006080800CC70623BDBABAAF470010000D40300000C00000000000000000000000000180300006662782F636F72652E786D6C504B01021400140006080800CC70623B9C113CC27E0000009D0000000B00000000000000000000000000B20400006662782F636E782E786D6C504B01021400140006080800CC70
310
623B7DF2F77C2A010000120200003100000000000000000000000000590500006662782F41393633353835312D344632462D344230382D423046372D3739314545314133324237412F636F72652E786D6C504B01021400140006080800CC70623BAD7543B64E010000330300003000000000000000000000000000D2060000
310
6662782F41393633353835312D344632462D344230382D423046372D3739314545314133324237412F636E782E786D6C504B01021400140006080800CC70623BE75B7789680500003C10000034000000000000000000000000006E0800006662782F41393633353835312D344632462D344230382D423046372D3739314545
310
314133324237412F6F626A656374732E786D6C504B01021400140006080000CC70623B0000000000000000000000003500000000000000000000000000280E00006662782F41393633353835312D344632462D344230382D423046372D3739314545314133324237412F76657274696365732E62696E504B01021400140006
310
080800CC70623BF270F133060000000400000036000000000000000000000000007B0E00006662782F41393633353835312D344632462D344230382D423046372D3739314545314133324237412F747269616E676C65732E62696E504B01021400140006080000CC70623B0000000000000000000000003700000000000000
310
000000000000D50E00006662782F41393633353835312D344632462D344230382D423046372D3739314545314133324237412F617474726962757465732E62696E504B01021400140006080800CC70623B08DA0BD1900000004101000036000000000000000000000000002A0F00006662782F41393633353835312D344632
310
462D344230382D423046372D3739314545314133324237412F6469726563746F72792E786D6C504B01021400140006080800CC70623BEDD1DC58FD000000A00100003B000000000000000000000000000E1000006662782F41393633353835312D344632462D344230382D423046372D3739314545314133324237412F7265
310
736F75726365732F636F72652E786D6C504B0506000000000E000E0080040000641100000000
  0
XRECORD
  5
1F8
102
{ACAD_REACTORS
330
1F7
102
}
330
1F7
100
AcDbXrecord
280
     1
 70
     1
 90
429727718
  1
30362254-06B7-45E0-A893-8CFA70E3D6BC
310
504B03040A0000080000CC70623B3DEE336E79000000790000001B0000006175746F6465736B2D64657369676E2D7061636B6167652E786D6C3C3F786D6C2076657273696F6E3D22312E302220656E636F64696E673D227574662D3822203F3E3C666F726D6174733E3C666F726D61743E687474703A2F2F736368656D612E
310
6175746F6465736B2E636F6D2F64657369676E2D7061636B6167652F323030393C2F666F726D61743E3C2F666F726D6174733E504B0304140006080800CC70623BD486FD9CA0000000F4000000130000005B436F6E74656E745F54797065735D2E786D6C7D8EC10E82300C865F65E91D8A1E8C310C0EEA1BF002731658846E
310
D98AC1B77784ABF1D8FE5FBFBF75BBCE937A534CCEB38643598122B6FEE978D0B0485F9C41B54DDD7D022595594E1A469170414C76A4D9A4D207E29CF43ECE46F218070CC6BECC4078ACAA135ACF422C856C0E68EA1BF5669944DDD7BCDE7B1F8E415D77AECB980613C2E4AC91FC167A2B244592486606FC29C8FD7F045B9A
310
EF7053A7E60B504B0304140006080800CC70623B1EC5D7A3EB0000007C01000008000000636F72652E786D6C8D90416EC3201045AF82665B6103C6756C6122AB4D4ED00B204C5C94182C03558F5F9C3852BBEB6A467FFE9B197D71FC9E6FE8CBACC17AD7032D0820E3B41FAD9B7A48F1820F808E52ACDEC75F36404ECDA687
310
4D0629A6D5A76597B477D1B89855E747B38B2A041301E95B6E7A08FAD3CCAA50296647B8168BD2573599823EBB0CA76447F43862C7BCCF5EAC59410E4DDD9C7973C2755553CCCFA4C603E3040F1565ED3B1FDE4E432BCA0D9622DAF9795FAF464533826484B498524CD807E51D79ED187F21878E10516EF63F505AC67F42C9
310
BA58B1FDDD071640D2FCC87D2045B96591CB3DA85CB7DCE40F504B0304140006080800CC70623B55019EA25F0000007C00000007000000636E782E786D6C4DCB3B0E80201045D1AD90E915ED2CF8AC45050C11660C8261F98AB1B07AC9C97D42D718D865D3E909258CFD00CCE24AC6E326A164D74DC0B4128928FF32603847
310
2BA13128B1252AC747C6BAB984FC68F0B87FE8960A5C09FE86CFB69FBA01504B0304140006080800CC70623B8C9102E971010000D40300000C0000006662782F636F72652E786D6CC5535B6E833010BC8AE5DF0A6C08340F1947A84D4ED00B38C6A128602363A31CBFCB234A53A551FA553EC09AD9F5CE8C31DB9E9B1AF5CA
310
7695D1198E428A91D2D214952E33ECDD315861B4E5CC1AE3BE9561A445A3323CC098B3D21ADFCE9034DA29ED00D5A6503328BA4E398C640D8B0C77F253352214DE4145770A5B214FA2546114020D759C75CE8200340D19DE981F0F6746269C33EFAB6266AB02A655C74A59CCF365BADC27CB5D902ED22848F6340DF238A141
310
BE88E2F57B92BFEDF23523433367AE6A2EEAA455C2A902F398D2751045018D3FA264435F3771F242571B4A1919CA6F9A7C5B3CD9E42BED16F12C776AEB308F40C848FC700B1139D4891EF410CEC810227CC6846F8386402064270EF5C5C709A05E49676C024C61FC95EA45ED154CA5211D1FF4FB8291A913A68E9B83EBBB33
310
E2A7673CDE118E5AE8124C0807CB8377834E366998436B950D7A7746DAD846D4CFD978E0F04FD455FC5D49D2D4C6FE9722321F10997F0F32DC47FE05504B0304140006080800CC70623BFFEA85907E0000009D0000000B0000006662782F636E782E786D6C4DCCD10A83201886E15B91FFDC95D95A811AB6F23E625948A6C3
310
E9D8E5AF46073BFAE0E1E365ED67B3E8ADC3CB78C7815C7240DA3DFC64DCC221C519D7805AC182F7F1EF06C88D9BE6703008B6049F9E274D7A1E938DBB5AE3D6131B2589BA0D3D965551E0B2EA732C9B9A624AAEB41E3A557677029960D9AFB4EF11165F504B0304140006080800CC70623B4FEEA4082C0100001202000031
310
0000006662782F39464131463745442D413632322D343644302D413938332D3331353338454246344243312F636F72652E786D6C8D515B6EC32010BC0AE2AB55850DD871ED0813254D72825EC00192A2C460F1A872FC42ED48ED5F7E00CDCECCCEB26C731F6FE05B39AFADE921293004CA082BB5B9F43086336A21D870E6AC
310
0D7F68109861543DCC30E4ECE26C9C164858139409093556AA051CBC570102714B8F1E7AF1A5C6A11862480C7F2DA6415C878B2A4891CA89C7990F2E050073937C42DE1DB7E4F87ED8A36D4329AA9B3D46DBAEAD504556557BD81DEBDD0761E52CE42C462D17B996298E3E6BE59E35C962CE821E1FF18553435012728A7187
310
0841987E927A8D9B35ADDF70BBC6989599FE4F1427F9A4286A132ABAC49D651EF234CD5CE04CDA78BA3DC2A8FB645D00B9DF8B57E215725C60BCA2A463E54C4CE327C7A65E1C7DB02E7DEFCBF594B864C5CA6CDBD49C957943E9FA5D5FBAF336F90F504B0304140006080800CC70623BAD7543B64E01000033030000300000
310
006662782F39464131463745442D413632322D343644302D413938332D3331353338454246344243312F636E782E786D6CD593CD6EC32010845F0571AD6CE3D48AD20813A9873E410FBD12D82434182C7EAAE6EDBB2424CD25871E7B41D6EC30B3FA84F9E67BB2E40B4234DE8DB46F1925E094D7C6ED479AD3AE5951B2113C
310
789FEE6C943839C1488B4C05DF079FE72A69D8C96C13AAD6B8631503449F83828872B949AC57D26200B826A308D316B4064D6E46FCDA41C05550DC9E483A00797BFD207EFB092A45DE9514C1BBD22178396BD39D891265658C238DEA00936C654E5E433CB65A26D9F6EDB5EBC14EBF49A45CB856E66048291F6939A9A81BB5
310
C8917738143CA680F4AA299D66A042CEB3354A2684DC9D8D178FE0D9B8B41CAAD720F880EE7EF93C0C18769E099ECC04D5A102C8049A8A05632F4DDF376CF1DE0F6BB65C2F8627B65A33C6BB62177CEBBDAD973006829F89F22E814B54F4BC2BE347F8AA8F681390B50FA73F804400B5F542E796F19FF974E7F78DB802FE05
310
E207504B0304140006080800CC70623B16AB87BA640500003C100000340000006662782F39464131463745442D413632322D343644302D413938332D3331353338454246344243312F6F626A656374732E786D6CAD575B6FA33818FD2B887DE6924B3BED8A326A92B68A663B534DD4D13E548A0C38942D60649B369D5FBFC7
310
600890A493BDE42160637FD7F31D7FF63E6FB3D478A55C242CBF3247B66B1A340F5994E4F19559CA8D75611A9F7D8F33263BCB4C232719BD32D5B4E97B316765A1A722BA21652A07B3B7B33F0D11D29C9A46981221AE4C113ED38CD8A4942CA2E2C58E882476BCD9DA23BB5ED8171B73523C0F841684D35CC252CCE79062D4
310
468DFA43D7747CCF51DF7D4FFDEB5593E3AB9CCA9FBEFE241792E4E19EB28198C968BAB8199F5D5A67D3E9C49A9E8F47D6EC76B6B0469F26EEFC7C3EBFBCBEB98462213924694B38DD98FE1D62C393D073EA4FADC5DAF04326852CCF6958F90F0F2B9BB5C48816348F90C7840A68EB78EDF68723159BCEE7891A6B95DDE9D3
310
BCEAEEE8086A6C6F9E5D4B59F0175C10A7A0820BAA5055C7473B5AE3CFDD452D602CD5DF12616444529E90D448938013FE6EFA58AA96F85E4F8C42275708571E98FE6827AF6B2B4AE3D7D83D64E5A64C53054DD3AF90BD06FEA9149565C94FCA0F6B834DC85599E4F2423B24DF0B6AFA979E534DFA9E7A4CC6FA631D486393
310
921829879BF5D781A373557BCB85E97FB90DB62B558F8795179C15944B051F40AB495CF35451D26A4727654E6D8033BD98EF82F21D91FF8AF2DD9982BCF1643BDD4EB516C9492E368C67C88DED563FC36D5EACF66DFF057C3658BDBFA69DF9578B3DA735B64F18C7F20770A9D45CFCF7FCF563D6456A277DBEF78A02637CA2
310
43B90A490AEAB94F72244481D24819A6C0E59B606BFA4B3025981DBB48EAB701D97BF19C577CC77F2D1B6C55A9EF3C732474C0B727303F625995056C3B02963D9EAC146BE78EC5FCEC7FA999EBC5EACBAAE41B12D27B4D2C0BBA49F244E2ECDC81B76B502F113D8F5EE8FB1BE3111CDD4FC2AA9B844CAB1288B68AB90A7CDC
310
1C166AB0D3DC5310625FCC14E779BFD0709F8890A629C9292B1B2DED31A4B0DA928CEE135085754027E3018A397D4D5427D15BD1330B677DC8934285AC3DF45A9EB68FF8F2B8FC0A509AFEECFD0FF2DE25CC6047F7214B195F07EFEB9A094D800F7BFAE8FED187B78EA8A3A400F115961BCAD1215E47C966530AF0EE8128FE
310
58CEBB996A8964FFA529A046635D9353B0336A8F700DDF46271A024E70B0B37C9DE01847591E54DED53D54202AB947E4076556AC49C6CA5C9E1226B7F1A7B1BE15DEED62C41B91E1B3E9AFAAA735036547343A925075041DF0A9979E893B391F8FCFA6967B3EFB644DCF6E5CEBFAE272625DCC6FAF3FB93793C5F90CE1EF57
310
407342756B10D1C489E8953CD1617E5CEECAD6F4EF8914CE5D5D504E5C3F1F9736DA62CFC11E00BCDDB8CC8A9466349744C1F75EBDA4DF09BA8A9E8C7A7E9991989E20E5DBDD6A6003664ED8F7A04A8DBE0DF6EAD9B9AA858342E47399053949D2C146EDB85DE4B176BB0965FBAC19BD19AA918E27FA50C1D22402E144464C
310
59462568E704B6E71915404CB72B8FF4EDE184DDAF753F284990D2C6926782963815403548A70C657FDEF80D2D9CEAA2AE4C1C76F60BFE74219A06527D6582DF6412526107381E55E353090704D085B52408D0933C4ED159D79BDA71BB4BC506F4831350EB6F979CD22D69BF7AC49B91A2C0A9DDA3D5CA36AD20FC478E37E6
310
1844E2352865EBCB6EA275A652E3836BE04EFB400BF1A2556F515F1FBB35B2AB35BD889C744FFA1004B5544B121E57F70215746DD2F5E2C1412B602CBF19455AC6C8E5E9922C4E01E65215385004546899059180EAFCF7A707CE7017CD8CDB0410789AB32C63B91E5CEBBBACB17AC6CD347A022D5075FD106377347AAABA7E
310
7D11590744509B44E205134DC1290F06580320F78E537D3D73540E06CB970B431F185308AD40BBD794D6D77003C5A36E8EAA54BA64597CD8F83BD552A080A365F7FF06504B0304140006080000CC70623B000000000000000000000000350000006662782F39464131463745442D413632322D343644302D413938332D3331
310
353338454246344243312F76657274696365732E62696E504B0304140006080800CC70623BF270F1330600000004000000360000006662782F39464131463745442D413632322D343644302D413938332D3331353338454246344243312F747269616E676C65732E62696E636660600000504B0304140006080000CC70623B
310
000000000000000000000000370000006662782F39464131463745442D413632322D343644302D413938332D3331353338454246344243312F617474726962757465732E62696E504B0304140006080800CC70623B08DA0BD19000000041010000360000006662782F39464131463745442D413632322D343644302D413938
310
332D3331353338454246344243312F6469726563746F72792E786D6C858F410AC3201045AF22B36F53E9A60B35CBEEBAE80D244E44489C6234F4F835464A48035D0DF398FF9F8AF63D0E6CC63039F212F8F9020C7D47C6792B21C5FE7403D62A1188E2E60C98D7234A5830286103A55745067B9D86B8A3CF9C7F90C11DE607
310
FB144396D7B6A82D282E9A152AD114D5EF2CB866EEE831B8EEA07A7BB5A8D7D61A2BAAEB7FD5F70921FF497D00504B0304140006080800CC70623B0D6EF93BFE000000A00100003B0000006662782F39464131463745442D413632322D343644302D413938332D3331353338454246344243312F7265736F75726365732F63
310
6F72652E786D6C8D50596E833010BD0A9ADFCA60B334011947A8694ED00B586642AC041B79A97AFC9A40A5F6AF3F33A3B7689E1E3F7DCD8FEC139DD7D6F4C0720A191A65476DA61E62B892236427C19DB5E1970C322367EC618541F0C9D9B8EC90B226A009093576C41D94DE63804C3DD2D18357379C652E63480A7FCF17A9
310
EE72C29CE5894E3AC17D702940B63D59270887DE46A7D0F36263058F518FBB468FE9A7BE6A7420864373B8D4873369AA8691FA421B3294352543C5CAF65C0F6FEF43CB8BD52C78D0F34F46E550061C419494B6843142CB0F5677F4B52BEB177AEC28E5C52AFF638ACBF84F53D42654E51E77B379102C05791282176B5F693D
310
CB4C7BED567C03504B010214000A0000080000CC70623B3DEE336E79000000790000001B00000000000000000000000000000000006175746F6465736B2D64657369676E2D7061636B6167652E786D6C504B01021400140006080800CC70623BD486FD9CA0000000F40000001300000000000000000000000000B20000005B
310
436F6E74656E745F54797065735D2E786D6C504B01021400140006080800CC70623B1EC5D7A3EB0000007C010000080000000000000000000000000083010000636F72652E786D6C504B01021400140006080800CC70623B55019EA25F0000007C000000070000000000000000000000000094020000636E782E786D6C504B
310
01021400140006080800CC70623B8C9102E971010000D40300000C00000000000000000000000000180300006662782F636F72652E786D6C504B01021400140006080800CC70623BFFEA85907E0000009D0000000B00000000000000000000000000B30400006662782F636E782E786D6C504B01021400140006080800CC70
310
623B4FEEA4082C0100001202000031000000000000000000000000005A0500006662782F39464131463745442D413632322D343644302D413938332D3331353338454246344243312F636F72652E786D6C504B01021400140006080800CC70623BAD7543B64E010000330300003000000000000000000000000000D5060000
310
6662782F39464131463745442D413632322D343644302D413938332D3331353338454246344243312F636E782E786D6C504B01021400140006080800CC70623B16AB87BA640500003C1000003400000000000000000000000000710800006662782F39464131463745442D413632322D343644302D413938332D3331353338
310
454246344243312F6F626A656374732E786D6C504B01021400140006080000CC70623B0000000000000000000000003500000000000000000000000000270E00006662782F39464131463745442D413632322D343644302D413938332D3331353338454246344243312F76657274696365732E62696E504B01021400140006
310
080800CC70623BF270F133060000000400000036000000000000000000000000007A0E00006662782F39464131463745442D413632322D343644302D413938332D3331353338454246344243312F747269616E676C65732E62696E504B01021400140006080000CC70623B0000000000000000000000003700000000000000
310
000000000000D40E00006662782F39464131463745442D413632322D343644302D413938332D3331353338454246344243312F617474726962757465732E62696E504B01021400140006080800CC70623B08DA0BD190000000410100003600000000000000000000000000290F00006662782F39464131463745442D413632
310
322D343644302D413938332D3331353338454246344243312F6469726563746F72792E786D6C504B01021400140006080800CC70623B0D6EF93BFE000000A00100003B000000000000000000000000000D1000006662782F39464131463745442D413632322D343644302D413938332D3331353338454246344243312F7265
310
736F75726365732F636F72652E786D6C504B0506000000000E000E0080040000641100000000
  0
XRECORD
  5
175
102
{ACAD_REACTORS
330
173
102
}
330
173
100
AcDbXrecord
280
     1
270
     1
271
     1
  0
XRECORD
  5
174
102
{ACAD_REACTORS
330
173
102
}
330
173
100
AcDbXrecord
280
     1
270
     1
271
     1
  0
XRECORD
  5
1FB
102
{ACAD_REACTORS
330
173
102
}
330
173
100
AcDbXrecord
280
     1
 70
     0
 90
1673772943
  1
ECE7A1D2-D628-4531-984C-D00F80459256
310
504B03040A0000080000CC70623B3DEE336E79000000790000001B0000006175746F6465736B2D64657369676E2D7061636B6167652E786D6C3C3F786D6C2076657273696F6E3D22312E302220656E636F64696E673D227574662D3822203F3E3C666F726D6174733E3C666F726D61743E687474703A2F2F736368656D612E
310
6175746F6465736B2E636F6D2F64657369676E2D7061636B6167652F323030393C2F666F726D61743E3C2F666F726D6174733E504B0304140006080800CC70623BD486FD9CA0000000F4000000130000005B436F6E74656E745F54797065735D2E786D6C7D8EC10E82300C865F65E91D8A1E8C310C0EEA1BF002731658846E
310
D98AC1B77784ABF1D8FE5FBFBF75BBCE937A534CCEB38643598122B6FEE978D0B0485F9C41B54DDD7D022595594E1A469170414C76A4D9A4D207E29CF43ECE46F218070CC6BECC4078ACAA135ACF422C856C0E68EA1BF5669944DDD7BCDE7B1F8E415D77AECB980613C2E4AC91FC167A2B244592486606FC29C8FD7F045B9A
310
EF7053A7E60B504B0304140006080800CC70623BD9DDAED0EC0000007C01000008000000636F72652E786D6C8D90416EC3201045AF82665B61836D9CD8C2444DD39CA01740405C94182C03558F5F9C3852BBEB6A467FFE9B197D7EF89E6EE8CB2CC17A37002D0820E394D7D68D03A478C17B4007C117EFE32F1B20272733C0
310
2A83E0E3E2D3BC49CABB685CCCAAF3DA6CA20CC14440EA969B0182FA34932C648AD911AEC52CD5558EA6A0CF2EC329598D1E47ACCEFBECC59A050463A7EA5833865FEBDD0E37353BE3EE8DBDE3F6786A48D375FBF6CC78B9C282473B3DEFABC5C86834888A900E538A49F5419B9EB47DD5BC907D4F082F57FB1F28CDFA9F50
310
B22ED6D5F6EE030B20687EE43E10BC5CB3C8E51E54AE6B6EE207504B0304140006080800CC70623B55019EA25F0000007C00000007000000636E782E786D6C4DCB3B0E80201045D1AD90E915ED2CF8AC45050C11660C8261F98AB1B07AC9C97D42D718D865D3E909258CFD00CCE24AC6E326A164D74DC0B4128928FF326038
310
472BA13128B1252AC747C6BAB984FC68F0B87FE8960A5C09FE86CFB69FBA01504B0304140006080800CC70623BA24EB22D72010000D40300000C0000006662782F636F72652E786D6CC5535B6E833010BC8AE5DF0A6C5E49888CA3A6694ED00B38E05014B091B1518EDFE511A5A9D228FD2A1F60CDEC7A67C6986DCE4D8D7A
310
69BA4AAB0C073EC548AA5C17952A33ECECD15B61B4E1CC686DBF9561A44423333CC098B3D268D7CE50AE9595CA02AA74216750749DB418E5352C32DCE59FB211BE70162ABA93DF8AFC244AE9073ED050C759670D0840D390E18DF9F1706664C23973AE2A66B62A605A75ACA4C13C4976E1364A12EF355A2EBD384AF65EFA96
310
BC7B8BED2EA6719AAE16FB8491A199335B351775B991C2CA02F390D2D40B028F861F41BCA68B7518BFD0D59A524686F29B26D7164F36B94AD9289CE54E6D1DE6010819891F6E21228B3AD1831EC219194284CF98F06DD01008846CC5A1BEF83801D4CBDC6A1303536877A57A513B0953A94FC707FDBE6064EA84A9E3E6E0FA
310
EE8CF0E9198F7784A316AA0413C2C2F2E0ECA0934D1AE6D05A69BCDE9E91D2A611F573361E38FC1375157F5752AE6B6DFE4B11990F88CCBF0719EE23FF02504B0304140006080800CC70623B408A7D3B7C0000009D0000000B0000006662782F636E782E786D6C4DCCD10A83201886E15B91FFDC552A92A0064DBC8F581632
310
D3703A76F9ABD1C18E3E78F878E5F0D9027ABBFCF2292AE86E2D20171F69F6715550CB827B40839639A5F2770314A7CD293819B45C73AAFB45B35BA61ACAA1C1C7E7855C58C15BC331339661262CC762340413D68D77DA5B42298546CBE6573AF60CEB2F504B0304140006080800CC70623B449FB9BD290100001202000031
310
0000006662782F36394639363044362D344446342D343946362D394244322D3234314243333846323333332F636F72652E786D6C8D515B6EC32010BC0AE22B55850D98B871848994463E412FE002495162B07854397EA176A4F62F3F2C9A9D991D587EB84F37F0AD7D30CEF6905418026DA553C65E7A98E219ED203808EE9D
310
8B7F6810D871D23D2C3014FCE25D9A57483A1BB58D19B54EE9151C43D0110279CB971E06F9A5A7B11A53CC8C70ADE6515EC78BAE4895DB992778883E0700CB907242D17643D7E2538BD869608875438BBAE38922CAC8F1BDD90DB4691A5E2F42C153326A951B95E398B3D1FE599322163C9AE9115F7A3D46ADA0A018778810
310
84E907617BDCEE297BC5BB3DC6BC2EF47FA234AB2745C9D8D8D035EE220B50105E2F0DC1954B9FB747187D9F9D8FA0CCDB042D5FA0C015C65B42DF78BD10F3F3B363CB56C7109DCFDFBBB97E662ED92EB62D13BC2E1BCAE5777DB9966D8A1F504B0304140006080800CC70623BAD7543B64E01000033030000300000006662
310
782F36394639363044362D344446342D343946362D394244322D3234314243333846323333332F636E782E786D6CD593CD6EC32010845F0571AD6CE3D48AD20813A9873E410FBD12D82434182C7EAAE6EDBB2424CD25871E7B41D6EC30B3FA84F9E67BB2E40B4234DE8DB46F1925E094D7C6ED479AD3AE5951B2113C789FEE
310
6C943839C1488B4C05DF079FE72A69D8C96C13AAD6B8631503449F83828872B949AC57D26200B826A308D316B4064D6E46FCDA41C05550DC9E483A00797BFD207EFB092A45DE9514C1BBD22178396BD39D891265658C238DEA00936C654E5E433CB65A26D9F6EDB5EBC14EBF49A45CB856E66048291F6939A9A81BB5C89177
310
38143CA680F4AA299D66A042CEB3354A2684DC9D8D178FE0D9B8B41CAAD720F880EE7EF93C0C18769E099ECC04D5A102C8049A8A05632F4DDF376CF1DE0F6BB65C2F8627B65A33C6BB62177CEBBDAD973006829F89F22E814B54F4BC2BE347F8AA8F681390B50FA73F804400B5F542E796F19FF974E7F78DB802FE05E20750
310
4B0304140006080800CC70623B8D05915C650500003B100000340000006662782F36394639363044362D344446342D343946362D394244322D3234314243333846323333332F6F626A656374732E786D6CAD575B6FA33814FE2B887D06429276DA1565D4266D158D3A339A6846FB502932E050B66023DB74D2FDF5FB190C01
310
9276B2973C046C8ECFF53B17071F77456EBD502133CEAE6CDF9DD81665314F32965ED995DA3A17B6F5310C04E7AA47665B8C14F4CAD6DB7618A48257A5D94AE89654B91AEDDEDDFC61C998326A5B714EA4BCB265FC440BE2924AF184CA6737218AB8E976E7FA6E4338649B0A523E8D98964450A6A029F619B8588D52FE7039
310
B1BD30F0F4F730D0FF866AF6369557DB33949F31A9088B0F848DD8CCFCF9F2767A76E99CCDE733677E3EF59D9BBB9BA5E37F984D16E78BC5E5F5ED25044B25C0C96822E8D60EEFE11B91C581D77CEA34368A1F5329E68CD1B8B61F16D63A1B8E092D294B10C78C4A48EB593D192E7DED9BDEE7995E1B91FDEDD3ACEA9FE831
310
6A756F9F7D4D79F4274C90A7A04248AA51D5F8C718DAE06FB2F75AC4796EBE65D22A88A22223B995679120E2D50E41AA49C260C046A35368846B0BECD0DFF3EBEB8AD4F835768F69B9ADF25C43D30E6B646F807FAA64AD59F61715C7A54127C4AACA98BA3006A9D792DAE165E0D59B61A01FB3A9F9D838D2DAE62445C86166
310
F37564E842E7DE6A69879FEEA2DD5AE7E371E1A5E025154AC307D06A03D73EB5978C58FFA4C8E9033066E0F3BD53BEC1F39F91BE7B55103791EDE6BBB991A2046172CB4581D8B893FA674DDA17A77B3B7C413D1B511FD2743BFF8A38F03A658705E3ADF8015C3A3417FF3D7E439FF591DA0B5F18BC20C1B8981957AE6392A3
310
F43C640C01D1A0B4728E2DD4F26DB4B3C3152A252A3B4E913CEC1C72F012782FF88EFF8637AA552DBEF76408E8A8DE9E50F9E1CB3A2DA0DB1B6039A893B56063DC5B3E3FFB5F72E67AB9FEB4AEC496C4F4C1149625DD662C53E89D7BF0F6151A046260D1337DFDC94502430F83B0EE07A130A224BCAD7DAE1D9FB6CD422FF6
310
920702629C4BB9AE79C12F243C6432A6794E18E5552BA56B431AAB5D91317302B2B071E86C3A42B1A02F999E24061403B5D0EB639195DA655DD3EBEAB4FB862DDF579F014AD0E73C22F99E28DA57FB98E75C6CA2D74D53086D600F4786E0FE3144B771A8A7B900F03594DB8A633CBC49B2EDB69228BB479CF863B5E807AAAB
310
23872F6DFEB4129B949CA33823F58830E86D65621E10047D9DB34D862E8EAC3C2ABC2F7B2C40D67CDFE01F5545B92105AF983AC54D93D69E56FB8E797F88913F898A9FEC705D3F9D1B54EC8426FB500D40A03BD0119B06E1B95DDC7EB8F6975367793EBD70E66733DFB9BC982F9CE564727731999F5D4ECFCE3B8D6A4DC2A0
310
6D50FD148437D110834A64C6CDDF57FBACB5C307A2A477DFE4939736CFEF2B175371E0E10CF0DD1D5C15654E0BCA14D1E87DD02FF93782A162C0A3D95F1524A52770F972BF1EE9809D13CE7DD599467F8ECE9ADD85CE85A34CD45355448C64F9E8A031DC2D596ACC6E5DD93D9B82DE2EF5CAF81363A8E47996A0DE24564A79
310
4115AACE09C55E14540231FDA13C319787134EBF34E3A022514E5B4D9E0826E25C02D5805B15ABE1BEF51B26383D445DD9E875EE33FE4C22DA16427D65A3BCA92CA6D28DD01DF5DC53330704308475351050232CCD31583787BA75774AFB06E5070DD0C8EF484E19968C5D83BA5B90B244D31E54D55A372320FE4786B7EA58
310
44E135AA5467CB7EA333A61683CC6A8C3257034C10CF46F40EF9F5BE59BE5BD30C3C72D235E95D10345C1D45445A5F0BB47E46A5EBE5570F9380B5FA629579952296A773720405982B9DE04011506178964401AA8BDF1FBF0A8EAB6861DD6580C0E38217056766716DAEB2D6FA0917D3E4116581EADB879C4E7CFFB11EFACD
310
3D641311495D92C8676CB409A72D18610D803CE8A626049E8EC1887CB5B44CC39883690DDA8399B4B9855B481E7D71D4A9D22F96E5BB73BF5793020C02137BF837504B0304140006080000CC70623B000000000000000000000000350000006662782F36394639363044362D344446342D343946362D394244322D32343142
310
43333846323333332F76657274696365732E62696E504B0304140006080800CC70623BF270F1330600000004000000360000006662782F36394639363044362D344446342D343946362D394244322D3234314243333846323333332F747269616E676C65732E62696E636660600000504B0304140006080000CC70623B0000
310
00000000000000000000370000006662782F36394639363044362D344446342D343946362D394244322D3234314243333846323333332F617474726962757465732E62696E504B0304140006080800CC70623B08DA0BD19000000041010000360000006662782F36394639363044362D344446342D343946362D394244322D
310
3234314243333846323333332F6469726563746F72792E786D6C858F410AC3201045AF22B36F53E9A60B35CBEEBAE80D244E44489C6234F4F835464A48035D0DF398FF9F8AF63D0E6CC63039F212F8F9020C7D47C6792B21C5FE7403D62A1188E2E60C98D7234A5830286103A55745067B9D86B8A3CF9C7F90C11DE607FB14
310
4396D7B6A82D282E9A152AD114D5EF2CB866EEE831B8EEA07A7BB5A8D7D61A2BAAEB7FD5F70921FF497D00504B0304140006080800CC70623BCA768048FE000000A00100003B0000006662782F36394639363044362D344446342D343946362D394244322D3234314243333846323333332F7265736F75726365732F636F72
310
652E786D6C8D50596E833010BD0A9ADFCA60D600328E9AA639412F609909B1126CE4A5EAF16B0295DABFFECC8CDEA2797AECF8353F924FB44E193D409E5248504B332A3D0D10FC95B4901C39B3C6F85F3248B49871801506CE266BC2B243D2688FDA47549B11775038871E12F988C7004EDE7016A9083E2ADC3D5D84BC8B09
310
D33C8D74D471E6BC8D0192EDC93A815B742658898E651BCB59086ADC356A8C3FD555A1055ED7E7E254D615792D0F075295F585746FF53B694EE78A565DD736979A65AB9933AFE69F8CD2A2F038022F28ED489E135A7CE4554F9BBEA85E68DB53CAB255FEC71496F19FA6A0B42F8B3DEE6673C0F318E4497096AD7DC5F52C33
310
EEB55BFE0D504B010214000A0000080000CC70623B3DEE336E79000000790000001B00000000000000000000000000000000006175746F6465736B2D64657369676E2D7061636B6167652E786D6C504B01021400140006080800CC70623BD486FD9CA0000000F40000001300000000000000000000000000B20000005B436F
310
6E74656E745F54797065735D2E786D6C504B01021400140006080800CC70623BD9DDAED0EC0000007C010000080000000000000000000000000083010000636F72652E786D6C504B01021400140006080800CC70623B55019EA25F0000007C000000070000000000000000000000000095020000636E782E786D6C504B0102
310
1400140006080800CC70623BA24EB22D72010000D40300000C00000000000000000000000000190300006662782F636F72652E786D6C504B01021400140006080800CC70623B408A7D3B7C0000009D0000000B00000000000000000000000000B50400006662782F636E782E786D6C504B01021400140006080800CC70623B
310
449FB9BD290100001202000031000000000000000000000000005A0500006662782F36394639363044362D344446342D343946362D394244322D3234314243333846323333332F636F72652E786D6C504B01021400140006080800CC70623BAD7543B64E010000330300003000000000000000000000000000D20600006662
310
782F36394639363044362D344446342D343946362D394244322D3234314243333846323333332F636E782E786D6C504B01021400140006080800CC70623B8D05915C650500003B10000034000000000000000000000000006E0800006662782F36394639363044362D344446342D343946362D394244322D32343142433338
310
46323333332F6F626A656374732E786D6C504B01021400140006080000CC70623B0000000000000000000000003500000000000000000000000000250E00006662782F36394639363044362D344446342D343946362D394244322D3234314243333846323333332F76657274696365732E62696E504B010214001400060808
310
00CC70623BF270F13306000000040000003600000000000000000000000000780E00006662782F36394639363044362D344446342D343946362D394244322D3234314243333846323333332F747269616E676C65732E62696E504B01021400140006080000CC70623B00000000000000000000000037000000000000000000
310
00000000D20E00006662782F36394639363044362D344446342D343946362D394244322D3234314243333846323333332F617474726962757465732E62696E504B01021400140006080800CC70623B08DA0BD190000000410100003600000000000000000000000000270F00006662782F36394639363044362D344446342D
310
343946362D394244322D3234314243333846323333332F6469726563746F72792E786D6C504B01021400140006080800CC70623BCA768048FE000000A00100003B000000000000000000000000000B1000006662782F36394639363044362D344446342D343946362D394244322D3234314243333846323333332F7265736F
310
75726365732F636F72652E786D6C504B0506000000000E000E0080040000621100000000
  0
XRECORD
  5
176
102
{ACAD_REACTORS
330
173
102
}
330
173
100
AcDbXrecord
280
     1
270
     1
271
     1
  0
XRECORD
  5
177
102
{ACAD_REACTORS
330
173
102
}
330
173
100
AcDbXrecord
280
     1
270
     1
271
     1
  0
XRECORD
  5
2B6
102
{ACAD_REACTORS
330
234
102
}
330
234
100
AcDbXrecord
280
     1
102
DISPLAYNAME
  1
Metric50
102
FLAGS
 90
        0
  0
CELLSTYLEMAP
  5
27C
102
{ACAD_REACTORS
330
162
102
}
330
162
100
AcDbCellStyleMap
 90
        3
300
CELLSTYLE
  1
TABLEFORMAT_BEGIN
 90
        5
170
     1
 91
        0
 92
    32768
 62
   257
 93
        1
300
CONTENTFORMAT
  1
CONTENTFORMAT_BEGIN
 90
        0
 91
        0
 92
      512
 93
        0
300

 40
0.0
140
1.0
 94
        5
 62
     0
340
11
144
6.0
309
CONTENTFORMAT_END
171
     1
301
MARGIN
  1
CELLMARGIN_BEGIN
 40
1.5
 40
1.5
 40
1.5
 40
1.5
 40
4.5
 40
4.5
309
CELLMARGIN_END
 94
        6
 95
        1
302
GRIDFORMAT
  1
GRIDFORMAT_BEGIN
 90
        0
 91
        1
 62
     0
 92
       -2
340
14
 93
        0
 40
1.125
309
GRIDFORMAT_END
 95
        2
302
GRIDFORMAT
  1
GRIDFORMAT_BEGIN
 90
        0
 91
        1
 62
     0
 92
       -2
340
14
 93
        0
 40
1.125
309
GRIDFORMAT_END
 95
        4
302
GRIDFORMAT
  1
GRIDFORMAT_BEGIN
 90
        0
 91
        1
 62
     0
 92
       -2
340
14
 93
        0
 40
1.125
309
GRIDFORMAT_END
 95
        8
302
GRIDFORMAT
  1
GRIDFORMAT_BEGIN
 90
        0
 91
        1
 62
     0
 92
       -2
340
14
 93
        0
 40
1.125
309
GRIDFORMAT_END
 95
       16
302
GRIDFORMAT
  1
GRIDFORMAT_BEGIN
 90
        0
 91
        1
 62
     0
 92
       -2
340
14
 93
        0
 40
1.125
309
GRIDFORMAT_END
 95
       32
302
GRIDFORMAT
  1
GRIDFORMAT_BEGIN
 90
        0
 91
        1
 62
     0
 92
       -2
340
14
 93
        0
 40
1.125
309
GRIDFORMAT_END
309
TABLEFORMAT_END
  1
CELLSTYLE_BEGIN
 90
        1
 91
        1
300
_TITLE
309
CELLSTYLE_END
300
CELLSTYLE
  1
TABLEFORMAT_BEGIN
 90
        5
170
     1
 91
        0
 92
        0
 62
   257
 93
        1
300
CONTENTFORMAT
  1
CONTENTFORMAT_BEGIN
 90
        0
 91
        0
 92
      512
 93
        0
300

 40
0.0
140
1.0
 94
        5
 62
     0
340
11
144
4.5
309
CONTENTFORMAT_END
171
     1
301
MARGIN
  1
CELLMARGIN_BEGIN
 40
1.5
 40
1.5
 40
1.5
 40
1.5
 40
4.5
 40
4.5
309
CELLMARGIN_END
 94
        6
 95
        1
302
GRIDFORMAT
  1
GRIDFORMAT_BEGIN
 90
        0
 91
        1
 62
     0
 92
       -2
340
14
 93
        0
 40
1.125
309
GRIDFORMAT_END
 95
        2
302
GRIDFORMAT
  1
GRIDFORMAT_BEGIN
 90
        0
 91
        1
 62
     0
 92
       -2
340
14
 93
        0
 40
1.125
309
GRIDFORMAT_END
 95
        4
302
GRIDFORMAT
  1
GRIDFORMAT_BEGIN
 90
        0
 91
        1
 62
     0
 92
       -2
340
14
 93
        0
 40
1.125
309
GRIDFORMAT_END
 95
        8
302
GRIDFORMAT
  1
GRIDFORMAT_BEGIN
 90
        0
 91
        1
 62
     0
 92
       -2
340
14
 93
        0
 40
1.125
309
GRIDFORMAT_END
 95
       16
302
GRIDFORMAT
  1
GRIDFORMAT_BEGIN
 90
        0
 91
        1
 62
     0
 92
       -2
340
14
 93
        0
 40
1.125
309
GRIDFORMAT_END
 95
       32
302
GRIDFORMAT
  1
GRIDFORMAT_BEGIN
 90
        0
 91
        1
 62
     0
 92
       -2
340
14
 93
        0
 40
1.125
309
GRIDFORMAT_END
309
TABLEFORMAT_END
  1
CELLSTYLE_BEGIN
 90
        2
 91
        1
300
_HEADER
309
CELLSTYLE_END
300
CELLSTYLE
  1
TABLEFORMAT_BEGIN
 90
        5
170
     1
 91
        0
 92
        0
 62
   257
 93
        1
300
CONTENTFORMAT
  1
CONTENTFORMAT_BEGIN
 90
        0
 91
        0
 92
      512
 93
        0
300

 40
0.0
140
1.0
 94
        2
 62
     0
340
11
144
4.5
309
CONTENTFORMAT_END
171
     1
301
MARGIN
  1
CELLMARGIN_BEGIN
 40
1.5
 40
1.5
 40
1.5
 40
1.5
 40
4.5
 40
4.5
309
CELLMARGIN_END
 94
        6
 95
        1
302
GRIDFORMAT
  1
GRIDFORMAT_BEGIN
 90
        0
 91
        1
 62
     0
 92
       -2
340
14
 93
        0
 40
1.125
309
GRIDFORMAT_END
 95
        2
302
GRIDFORMAT
  1
GRIDFORMAT_BEGIN
 90
        0
 91
        1
 62
     0
 92
       -2
340
14
 93
        0
 40
1.125
309
GRIDFORMAT_END
 95
        4
302
GRIDFORMAT
  1
GRIDFORMAT_BEGIN
 90
        0
 91
        1
 62
     0
 92
       -2
340
14
 93
        0
 40
1.125
309
GRIDFORMAT_END
 95
        8
302
GRIDFORMAT
  1
GRIDFORMAT_BEGIN
 90
        0
 91
        1
 62
     0
 92
       -2
340
14
 93
        0
 40
1.125
309
GRIDFORMAT_END
 95
       16
302
GRIDFORMAT
  1
GRIDFORMAT_BEGIN
 90
        0
 91
        1
 62
     0
 92
       -2
340
14
 93
        0
 40
1.125
309
GRIDFORMAT_END
 95
       32
302
GRIDFORMAT
  1
GRIDFORMAT_BEGIN
 90
        0
 91
        1
 62
     0
 92
       -2
340
14
 93
        0
 40
1.125
309
GRIDFORMAT_END
309
TABLEFORMAT_END
  1
CELLSTYLE_BEGIN
 90
        3
 91
        2
300
_DATA
309
CELLSTYLE_END
  0
XRECORD
  5
291
102
{ACAD_REACTORS
330
290
102
}
330
290
100
AcDbXrecord
280
     1
102
RTVSPost2010Prop28
280
     1
102
RTVSPost2010PropOp28
 70
     1
102
RTVSPost2010Prop29
280
     1
102
RTVSPost2010PropOp29
 70
     1
102
RTVSPost2010Prop30
280
     0
102
RTVSPost2010PropOp30
 70
     1
102
RTVSPost2010Prop31
280
     0
102
RTVSPost2010PropOp31
 70
     1
102
RTVSPost2010Prop32
280
     0
102
RTVSPost2010PropOp32
 70
     1
102
RTVSPost2010Prop33
280
     0
102
RTVSPost2010PropOp33
 70
     1
102
RTVSPost2010Prop34
280
     0
102
RTVSPost2010PropOp34
 70
     1
102
RTVSPost2010Prop35
280
     0
102
RTVSPost2010PropOp35
 70
     1
102
RTVSPost2010Prop36
280
     0
102
RTVSPost2010PropOp36
 70
     1
102
RTVSPost2010Prop37
 90
       50
102
RTVSPost2010PropOp37
 70
     1
102
RTVSPost2010Prop38
140
0.0
102
RTVSPost2010PropOp38
 70
     1
102
RTVSPost2010Prop39
140
1.0
102
RTVSPost2010PropOp39
 70
     1
102
RTVSPost2010Prop40
 90
        0
102
RTVSPost2010PropOp40
 70
     1
102
RTVSPost2010Prop41ColorIndex
 90
       18
102
RTVSPost2010Prop41ColorRGB
 90
        0
102
RTVSPost2010PropOp41
 70
     1
102
RTVSPost2010Prop42
 90
       50
102
RTVSPost2010PropOp42
 70
     1
102
RTVSPost2010Prop43
 90
        3
102
RTVSPost2010PropOp43
 70
     1
102
RTVSPost2010Prop44ColorIndex
 90
        5
102
RTVSPost2010Prop44ColorRGB
 90
      255
102
RTVSPost2010PropOp44
 70
     1
102
RTVSPost2010Prop45
280
     0
102
RTVSPost2010PropOp45
 70
     1
102
RTVSPost2010Prop46
 90
       50
102
RTVSPost2010PropOp46
 70
     1
102
RTVSPost2010Prop47
 90
       50
102
RTVSPost2010PropOp47
 70
     1
102
RTVSPost2010Prop48
 90
       50
102
RTVSPost2010PropOp48
 70
     1
102
RTVSPost2010Prop49
280
     0
102
RTVSPost2010PropOp49
 70
     1
102
RTVSPost2010Prop50
 90
       50
102
RTVSPost2010PropOp50
 70
     1
102
RTVSPost2010Prop51ColorIndex
 90
      256
102
RTVSPost2010Prop51ColorRGB
 90
-16777216
102
RTVSPost2010PropOp51
 70
     0
102
RTVSPost2010Prop52
140
1.0
102
RTVSPost2010PropOp52
 70
     0
102
RTVSPost2010Prop53
 90
        2
102
RTVSPost2010PropOp53
 70
     1
102
RTVSPost2010Prop54
  1
strokes_ogs.tif
102
RTVSPost2010PropOp54
 70
     1
102
RTVSPost2010Prop55
280
     0
102
RTVSPost2010PropOp55
 70
     1
102
RTVSPost2010Prop56
140
1.0
102
RTVSPost2010PropOp56
 70
     1
102
RTVSPost2010Prop57
140
1.0
102
RTVSPost2010PropOp57
 70
     1
102
RTVSPropertyOp0
 70
     1
102
RTVSPropertyOp1
 70
     1
102
RTVSPropertyOp2
 70
     1
102
RTVSPropertyOp3
 70
     1
102
RTVSPropertyOp4
 70
     1
102
RTVSPropertyOp5
 70
     1
102
RTVSPropertyOp6
 70
     1
102
RTVSPropertyOp7
 70
     1
102
RTVSPropertyOp8
 70
     1
102
RTVSPropertyOp9
 70
     1
102
RTVSPropertyOp10
 70
     1
102
RTVSPropertyOp11
 70
     1
102
RTVSPropertyOp12
 70
     1
102
RTVSPropertyOp13
 70
     1
102
RTVSPropertyOp14
 70
     1
102
RTVSPropertyOp15
 70
     1
102
RTVSPropertyOp16
 70
     1
102
RTVSPropertyOp17
 70
     1
102
RTVSPropertyOp18
 70
     1
102
RTVSPropertyOp19
 70
     1
102
RTVSPropertyOp20
 70
     1
102
RTVSPropertyOp21
 70
     1
102
RTVSPropertyOp22
 70
     1
102
RTVSPropertyOp23
 70
     1
102
RTVSPropertyOp24
 70
     1
102
RTVSPropertyOp25
 70
     1
102
RTVSPropertyOp26
 70
     1
102
RTVSPropertyOp27
 70
     1
102
RTVSPropertyOp28
 70
     1
102
RTVSPropertyOp29
 70
     1
102
RTVSPropertyOp30
 70
     1
102
RTVSPropertyOp31
 70
     1
102
RTVSPropertyOp32
 70
     1
102
RTVSPropertyOp33
 70
     1
102
RTVSPropertyOp34
 70
     1
102
RTVSPropertyOp35
 70
     1
102
RTVSPropertyOp36
 70
     1
102
RTVSPropertyOp37
 70
     1
102
RTVSPropertyOp38
 70
     1
102
RTVSPropertyOp39
 70
     1
102
RTVSPropertyOp40
 70
     1
102
RTVSPropertyOp41
 70
     1
102
RTVSPropertyOp42
 70
     1
102
RTVSPropertyOp43
 70
     1
102
RTVSPropertyOp44
 70
     1
102
RTVSPropertyOp45
 70
     1
102
RTVSPropertyOp46
 70
     1
102
RTVSPropertyOp47
 70
     1
102
RTVSPropertyOp48
 70
     1
102
RTVSPropertyOp49
 70
     1
102
RTVSPropertyOp50
 70
     1
102
RTVSPropertyOp51
 70
     0
102
RTVSPropertyOp52
 70
     0
102
RTVSPropertyOp53
 70
     1
102
RTVSPropertyOp54
 70
     1
102
RTVSPropertyOp55
 70
     1
102
RTVSPropertyOp56
 70
     1
102
RTVSPropertyOp57
 70
     1
102
RTVSPropertyOp58
 70
     1
102
RTVSPropertyOp59
 70
     1
102
RTVSPropertyOp60
 70
     1
102
RTVSPropertyOp61
 70
     1
102
RTVSPropertyOp62
 70
     1
  0
XRECORD
  5
28F
102
{ACAD_REACTORS
330
28E
102
}
330
28E
100
AcDbXrecord
280
     1
102
RTVSPost2010Prop28
280
     0
102
RTVSPost2010PropOp28
 70
     1
102
RTVSPost2010Prop29
280
     1
102
RTVSPost2010PropOp29
 70
     1
102
RTVSPost2010Prop30
280
     1
102
RTVSPost2010PropOp30
 70
     1
102
RTVSPost2010Prop31
280
     0
102
RTVSPost2010PropOp31
 70
     1
102
RTVSPost2010Prop32
280
     0
102
RTVSPost2010PropOp32
 70
     1
102
RTVSPost2010Prop33
280
     0
102
RTVSPost2010PropOp33
 70
     1
102
RTVSPost2010Prop34
280
     0
102
RTVSPost2010PropOp34
 70
     1
102
RTVSPost2010Prop35
280
     0
102
RTVSPost2010PropOp35
 70
     1
102
RTVSPost2010Prop36
280
     0
102
RTVSPost2010PropOp36
 70
     1
102
RTVSPost2010Prop37
 90
       50
102
RTVSPost2010PropOp37
 70
     1
102
RTVSPost2010Prop38
140
0.0
102
RTVSPost2010PropOp38
 70
     1
102
RTVSPost2010Prop39
140
1.0
102
RTVSPost2010PropOp39
 70
     1
102
RTVSPost2010Prop40
 90
        0
102
RTVSPost2010PropOp40
 70
     1
102
RTVSPost2010Prop41ColorIndex
 90
       18
102
RTVSPost2010Prop41ColorRGB
 90
        0
102
RTVSPost2010PropOp41
 70
     1
102
RTVSPost2010Prop42
 90
       50
102
RTVSPost2010PropOp42
 70
     1
102
RTVSPost2010Prop43
 90
        3
102
RTVSPost2010PropOp43
 70
     1
102
RTVSPost2010Prop44ColorIndex
 90
        5
102
RTVSPost2010Prop44ColorRGB
 90
      255
102
RTVSPost2010PropOp44
 70
     1
102
RTVSPost2010Prop45
280
     0
102
RTVSPost2010PropOp45
 70
     1
102
RTVSPost2010Prop46
 90
       50
102
RTVSPost2010PropOp46
 70
     1
102
RTVSPost2010Prop47
 90
       50
102
RTVSPost2010PropOp47
 70
     1
102
RTVSPost2010Prop48
 90
       50
102
RTVSPost2010PropOp48
 70
     1
102
RTVSPost2010Prop49
280
     0
102
RTVSPost2010PropOp49
 70
     1
102
RTVSPost2010Prop50
 90
       50
102
RTVSPost2010PropOp50
 70
     1
102
RTVSPost2010Prop51ColorIndex
 90
      256
102
RTVSPost2010Prop51ColorRGB
 90
-16777216
102
RTVSPost2010PropOp51
 70
     0
102
RTVSPost2010Prop52
140
1.0
102
RTVSPost2010PropOp52
 70
     0
102
RTVSPost2010Prop53
 90
        2
102
RTVSPost2010PropOp53
 70
     1
102
RTVSPost2010Prop54
  1
strokes_ogs.tif
102
RTVSPost2010PropOp54
 70
     1
102
RTVSPost2010Prop55
280
     0
102
RTVSPost2010PropOp55
 70
     1
102
RTVSPost2010Prop56
140
1.0
102
RTVSPost2010PropOp56
 70
     1
102
RTVSPost2010Prop57
140
1.0
102
RTVSPost2010PropOp57
 70
     1
102
RTVSPropertyOp0
 70
     1
102
RTVSPropertyOp1
 70
     1
102
RTVSPropertyOp2
 70
     1
102
RTVSPropertyOp3
 70
     1
102
RTVSPropertyOp4
 70
     1
102
RTVSPropertyOp5
 70
     1
102
RTVSPropertyOp6
 70
     1
102
RTVSPropertyOp7
 70
     1
102
RTVSPropertyOp8
 70
     1
102
RTVSPropertyOp9
 70
     1
102
RTVSPropertyOp10
 70
     1
102
RTVSPropertyOp11
 70
     1
102
RTVSPropertyOp12
 70
     1
102
RTVSPropertyOp13
 70
     1
102
RTVSPropertyOp14
 70
     1
102
RTVSPropertyOp15
 70
     1
102
RTVSPropertyOp16
 70
     1
102
RTVSPropertyOp17
 70
     1
102
RTVSPropertyOp18
 70
     1
102
RTVSPropertyOp19
 70
     1
102
RTVSPropertyOp20
 70
     1
102
RTVSPropertyOp21
 70
     1
102
RTVSPropertyOp22
 70
     1
102
RTVSPropertyOp23
 70
     1
102
RTVSPropertyOp24
 70
     1
102
RTVSPropertyOp25
 70
     1
102
RTVSPropertyOp26
 70
     1
102
RTVSPropertyOp27
 70
     1
102
RTVSPropertyOp28
 70
     1
102
RTVSPropertyOp29
 70
     1
102
RTVSPropertyOp30
 70
     1
102
RTVSPropertyOp31
 70
     1
102
RTVSPropertyOp32
 70
     1
102
RTVSPropertyOp33
 70
     1
102
RTVSPropertyOp34
 70
     1
102
RTVSPropertyOp35
 70
     1
102
RTVSPropertyOp36
 70
     1
102
RTVSPropertyOp37
 70
     1
102
RTVSPropertyOp38
 70
     1
102
RTVSPropertyOp39
 70
     1
102
RTVSPropertyOp40
 70
     1
102
RTVSPropertyOp41
 70
     1
102
RTVSPropertyOp42
 70
     1
102
RTVSPropertyOp43
 70
     1
102
RTVSPropertyOp44
 70
     1
102
RTVSPropertyOp45
 70
     1
102
RTVSPropertyOp46
 70
     1
102
RTVSPropertyOp47
 70
     1
102
RTVSPropertyOp48
 70
     1
102
RTVSPropertyOp49
 70
     1
102
RTVSPropertyOp50
 70
     1
102
RTVSPropertyOp51
 70
     0
102
RTVSPropertyOp52
 70
     0
102
RTVSPropertyOp53
 70
     1
102
RTVSPropertyOp54
 70
     1
102
RTVSPropertyOp55
 70
     1
102
RTVSPropertyOp56
 70
     1
102
RTVSPropertyOp57
 70
     1
102
RTVSPropertyOp58
 70
     1
102
RTVSPropertyOp59
 70
     1
102
RTVSPropertyOp60
 70
     1
102
RTVSPropertyOp61
 70
     1
102
RTVSPropertyOp62
 70
     1
  0
XRECORD
  5
29D
102
{ACAD_REACTORS
330
29C
102
}
330
29C
100
AcDbXrecord
280
     1
102
RTVSPost2010Prop28
280
     0
102
RTVSPost2010PropOp28
 70
     1
102
RTVSPost2010Prop29
280
     1
102
RTVSPost2010PropOp29
 70
     1
102
RTVSPost2010Prop30
280
     1
102
RTVSPost2010PropOp30
 70
     1
102
RTVSPost2010Prop31
280
     0
102
RTVSPost2010PropOp31
 70
     1
102
RTVSPost2010Prop32
280
     0
102
RTVSPost2010PropOp32
 70
     1
102
RTVSPost2010Prop33
280
     0
102
RTVSPost2010PropOp33
 70
     1
102
RTVSPost2010Prop34
280
     0
102
RTVSPost2010PropOp34
 70
     1
102
RTVSPost2010Prop35
280
     0
102
RTVSPost2010PropOp35
 70
     1
102
RTVSPost2010Prop36
280
     0
102
RTVSPost2010PropOp36
 70
     1
102
RTVSPost2010Prop37
 90
       50
102
RTVSPost2010PropOp37
 70
     1
102
RTVSPost2010Prop38
140
0.0
102
RTVSPost2010PropOp38
 70
     1
102
RTVSPost2010Prop39
140
1.0
102
RTVSPost2010PropOp39
 70
     1
102
RTVSPost2010Prop40
 90
        0
102
RTVSPost2010PropOp40
 70
     1
102
RTVSPost2010Prop41ColorIndex
 90
       18
102
RTVSPost2010Prop41ColorRGB
 90
        0
102
RTVSPost2010PropOp41
 70
     1
102
RTVSPost2010Prop42
 90
       50
102
RTVSPost2010PropOp42
 70
     1
102
RTVSPost2010Prop43
 90
        3
102
RTVSPost2010PropOp43
 70
     1
102
RTVSPost2010Prop44ColorIndex
 90
        5
102
RTVSPost2010Prop44ColorRGB
 90
      255
102
RTVSPost2010PropOp44
 70
     1
102
RTVSPost2010Prop45
280
     0
102
RTVSPost2010PropOp45
 70
     1
102
RTVSPost2010Prop46
 90
       50
102
RTVSPost2010PropOp46
 70
     1
102
RTVSPost2010Prop47
 90
       50
102
RTVSPost2010PropOp47
 70
     1
102
RTVSPost2010Prop48
 90
       50
102
RTVSPost2010PropOp48
 70
     1
102
RTVSPost2010Prop49
280
     0
102
RTVSPost2010PropOp49
 70
     1
102
RTVSPost2010Prop50
 90
       50
102
RTVSPost2010PropOp50
 70
     1
102
RTVSPost2010Prop51ColorIndex
 90
      256
102
RTVSPost2010Prop51ColorRGB
 90
-16777216
102
RTVSPost2010PropOp51
 70
     0
102
RTVSPost2010Prop52
140
1.0
102
RTVSPost2010PropOp52
 70
     0
102
RTVSPost2010Prop53
 90
        2
102
RTVSPost2010PropOp53
 70
     1
102
RTVSPost2010Prop54
  1
strokes_ogs.tif
102
RTVSPost2010PropOp54
 70
     1
102
RTVSPost2010Prop55
280
     0
102
RTVSPost2010PropOp55
 70
     1
102
RTVSPost2010Prop56
140
1.0
102
RTVSPost2010PropOp56
 70
     1
102
RTVSPost2010Prop57
140
1.0
102
RTVSPost2010PropOp57
 70
     1
102
RTVSPropertyOp0
 70
     1
102
RTVSPropertyOp1
 70
     1
102
RTVSPropertyOp2
 70
     1
102
RTVSPropertyOp3
 70
     1
102
RTVSPropertyOp4
 70
     1
102
RTVSPropertyOp5
 70
     1
102
RTVSPropertyOp6
 70
     1
102
RTVSPropertyOp7
 70
     1
102
RTVSPropertyOp8
 70
     1
102
RTVSPropertyOp9
 70
     1
102
RTVSPropertyOp10
 70
     1
102
RTVSPropertyOp11
 70
     1
102
RTVSPropertyOp12
 70
     1
102
RTVSPropertyOp13
 70
     1
102
RTVSPropertyOp14
 70
     1
102
RTVSPropertyOp15
 70
     1
102
RTVSPropertyOp16
 70
     1
102
RTVSPropertyOp17
 70
     1
102
RTVSPropertyOp18
 70
     1
102
RTVSPropertyOp19
 70
     1
102
RTVSPropertyOp20
 70
     1
102
RTVSPropertyOp21
 70
     1
102
RTVSPropertyOp22
 70
     1
102
RTVSPropertyOp23
 70
     1
102
RTVSPropertyOp24
 70
     1
102
RTVSPropertyOp25
 70
     1
102
RTVSPropertyOp26
 70
     1
102
RTVSPropertyOp27
 70
     1
102
RTVSPropertyOp28
 70
     1
102
RTVSPropertyOp29
 70
     1
102
RTVSPropertyOp30
 70
     1
102
RTVSPropertyOp31
 70
     1
102
RTVSPropertyOp32
 70
     1
102
RTVSPropertyOp33
 70
     1
102
RTVSPropertyOp34
 70
     1
102
RTVSPropertyOp35
 70
     1
102
RTVSPropertyOp36
 70
     1
102
RTVSPropertyOp37
 70
     1
102
RTVSPropertyOp38
 70
     1
102
RTVSPropertyOp39
 70
     1
102
RTVSPropertyOp40
 70
     1
102
RTVSPropertyOp41
 70
     1
102
RTVSPropertyOp42
 70
     1
102
RTVSPropertyOp43
 70
     1
102
RTVSPropertyOp44
 70
     1
102
RTVSPropertyOp45
 70
     1
102
RTVSPropertyOp46
 70
     1
102
RTVSPropertyOp47
 70
     1
102
RTVSPropertyOp48
 70
     1
102
RTVSPropertyOp49
 70
     1
102
RTVSPropertyOp50
 70
     1
102
RTVSPropertyOp51
 70
     0
102
RTVSPropertyOp52
 70
     0
102
RTVSPropertyOp53
 70
     1
102
RTVSPropertyOp54
 70
     1
102
RTVSPropertyOp55
 70
     1
102
RTVSPropertyOp56
 70
     1
102
RTVSPropertyOp57
 70
     1
102
RTVSPropertyOp58
 70
     1
102
RTVSPropertyOp59
 70
     1
102
RTVSPropertyOp60
 70
     1
102
RTVSPropertyOp61
 70
     1
102
RTVSPropertyOp62
 70
     1
  0
XRECORD
  5
2A5
102
{ACAD_REACTORS
330
2A4
102
}
330
2A4
100
AcDbXrecord
280
     1
102
RTVSPost2010Prop28
280
     0
102
RTVSPost2010PropOp28
 70
     1
102
RTVSPost2010Prop29
280
     1
102
RTVSPost2010PropOp29
 70
     1
102
RTVSPost2010Prop30
280
     1
102
RTVSPost2010PropOp30
 70
     1
102
RTVSPost2010Prop31
280
     0
102
RTVSPost2010PropOp31
 70
     1
102
RTVSPost2010Prop32
280
     0
102
RTVSPost2010PropOp32
 70
     1
102
RTVSPost2010Prop33
280
     0
102
RTVSPost2010PropOp33
 70
     1
102
RTVSPost2010Prop34
280
     0
102
RTVSPost2010PropOp34
 70
     1
102
RTVSPost2010Prop35
280
     0
102
RTVSPost2010PropOp35
 70
     1
102
RTVSPost2010Prop36
280
     0
102
RTVSPost2010PropOp36
 70
     1
102
RTVSPost2010Prop37
 90
       50
102
RTVSPost2010PropOp37
 70
     1
102
RTVSPost2010Prop38
140
0.0
102
RTVSPost2010PropOp38
 70
     1
102
RTVSPost2010Prop39
140
1.0
102
RTVSPost2010PropOp39
 70
     1
102
RTVSPost2010Prop40
 90
        0
102
RTVSPost2010PropOp40
 70
     1
102
RTVSPost2010Prop41ColorIndex
 90
       18
102
RTVSPost2010Prop41ColorRGB
 90
        0
102
RTVSPost2010PropOp41
 70
     1
102
RTVSPost2010Prop42
 90
       50
102
RTVSPost2010PropOp42
 70
     1
102
RTVSPost2010Prop43
 90
        3
102
RTVSPost2010PropOp43
 70
     1
102
RTVSPost2010Prop44ColorIndex
 90
        5
102
RTVSPost2010Prop44ColorRGB
 90
      255
102
RTVSPost2010PropOp44
 70
     1
102
RTVSPost2010Prop45
280
     0
102
RTVSPost2010PropOp45
 70
     1
102
RTVSPost2010Prop46
 90
       50
102
RTVSPost2010PropOp46
 70
     1
102
RTVSPost2010Prop47
 90
       50
102
RTVSPost2010PropOp47
 70
     1
102
RTVSPost2010Prop48
 90
       50
102
RTVSPost2010PropOp48
 70
     1
102
RTVSPost2010Prop49
280
     0
102
RTVSPost2010PropOp49
 70
     1
102
RTVSPost2010Prop50
 90
       50
102
RTVSPost2010PropOp50
 70
     1
102
RTVSPost2010Prop51ColorIndex
 90
      256
102
RTVSPost2010Prop51ColorRGB
 90
-16777216
102
RTVSPost2010PropOp51
 70
     0
102
RTVSPost2010Prop52
140
1.0
102
RTVSPost2010PropOp52
 70
     0
102
RTVSPost2010Prop53
 90
        2
102
RTVSPost2010PropOp53
 70
     1
102
RTVSPost2010Prop54
  1
strokes_ogs.tif
102
RTVSPost2010PropOp54
 70
     1
102
RTVSPost2010Prop55
280
     0
102
RTVSPost2010PropOp55
 70
     1
102
RTVSPost2010Prop56
140
1.0
102
RTVSPost2010PropOp56
 70
     1
102
RTVSPost2010Prop57
140
1.0
102
RTVSPost2010PropOp57
 70
     1
102
RTVSPropertyOp0
 70
     1
102
RTVSPropertyOp1
 70
     1
102
RTVSPropertyOp2
 70
     1
102
RTVSPropertyOp3
 70
     1
102
RTVSPropertyOp4
 70
     1
102
RTVSPropertyOp5
 70
     1
102
RTVSPropertyOp6
 70
     1
102
RTVSPropertyOp7
 70
     1
102
RTVSPropertyOp8
 70
     1
102
RTVSPropertyOp9
 70
     1
102
RTVSPropertyOp10
 70
     1
102
RTVSPropertyOp11
 70
     1
102
RTVSPropertyOp12
 70
     1
102
RTVSPropertyOp13
 70
     1
102
RTVSPropertyOp14
 70
     1
102
RTVSPropertyOp15
 70
     1
102
RTVSPropertyOp16
 70
     1
102
RTVSPropertyOp17
 70
     1
102
RTVSPropertyOp18
 70
     1
102
RTVSPropertyOp19
 70
     1
102
RTVSPropertyOp20
 70
     1
102
RTVSPropertyOp21
 70
     1
102
RTVSPropertyOp22
 70
     1
102
RTVSPropertyOp23
 70
     1
102
RTVSPropertyOp24
 70
     1
102
RTVSPropertyOp25
 70
     1
102
RTVSPropertyOp26
 70
     1
102
RTVSPropertyOp27
 70
     1
102
RTVSPropertyOp28
 70
     1
102
RTVSPropertyOp29
 70
     1
102
RTVSPropertyOp30
 70
     1
102
RTVSPropertyOp31
 70
     1
102
RTVSPropertyOp32
 70
     1
102
RTVSPropertyOp33
 70
     1
102
RTVSPropertyOp34
 70
     1
102
RTVSPropertyOp35
 70
     1
102
RTVSPropertyOp36
 70
     1
102
RTVSPropertyOp37
 70
     1
102
RTVSPropertyOp38
 70
     1
102
RTVSPropertyOp39
 70
     1
102
RTVSPropertyOp40
 70
     1
102
RTVSPropertyOp41
 70
     1
102
RTVSPropertyOp42
 70
     1
102
RTVSPropertyOp43
 70
     1
102
RTVSPropertyOp44
 70
     1
102
RTVSPropertyOp45
 70
     1
102
RTVSPropertyOp46
 70
     1
102
RTVSPropertyOp47
 70
     1
102
RTVSPropertyOp48
 70
     1
102
RTVSPropertyOp49
 70
     1
102
RTVSPropertyOp50
 70
     1
102
RTVSPropertyOp51
 70
     0
102
RTVSPropertyOp52
 70
     0
102
RTVSPropertyOp53
 70
     1
102
RTVSPropertyOp54
 70
     1
102
RTVSPropertyOp55
 70
     1
102
RTVSPropertyOp56
 70
     1
102
RTVSPropertyOp57
 70
     1
102
RTVSPropertyOp58
 70
     1
102
RTVSPropertyOp59
 70
     1
102
RTVSPropertyOp60
 70
     1
102
RTVSPropertyOp61
 70
     1
102
RTVSPropertyOp62
 70
     1
  0
XRECORD
  5
297
102
{ACAD_REACTORS
330
296
102
}
330
296
100
AcDbXrecord
280
     1
102
RTVSPost2010Prop28
280
     0
102
RTVSPost2010PropOp28
 70
     1
102
RTVSPost2010Prop29
280
     1
102
RTVSPost2010PropOp29
 70
     1
102
RTVSPost2010Prop30
280
     1
102
RTVSPost2010PropOp30
 70
     1
102
RTVSPost2010Prop31
280
     0
102
RTVSPost2010PropOp31
 70
     1
102
RTVSPost2010Prop32
280
     0
102
RTVSPost2010PropOp32
 70
     1
102
RTVSPost2010Prop33
280
     0
102
RTVSPost2010PropOp33
 70
     1
102
RTVSPost2010Prop34
280
     0
102
RTVSPost2010PropOp34
 70
     1
102
RTVSPost2010Prop35
280
     0
102
RTVSPost2010PropOp35
 70
     1
102
RTVSPost2010Prop36
280
     0
102
RTVSPost2010PropOp36
 70
     1
102
RTVSPost2010Prop37
 90
       50
102
RTVSPost2010PropOp37
 70
     1
102
RTVSPost2010Prop38
140
0.0
102
RTVSPost2010PropOp38
 70
     1
102
RTVSPost2010Prop39
140
1.0
102
RTVSPost2010PropOp39
 70
     1
102
RTVSPost2010Prop40
 90
        0
102
RTVSPost2010PropOp40
 70
     1
102
RTVSPost2010Prop41ColorIndex
 90
       18
102
RTVSPost2010Prop41ColorRGB
 90
        0
102
RTVSPost2010PropOp41
 70
     1
102
RTVSPost2010Prop42
 90
       50
102
RTVSPost2010PropOp42
 70
     1
102
RTVSPost2010Prop43
 90
        3
102
RTVSPost2010PropOp43
 70
     1
102
RTVSPost2010Prop44ColorIndex
 90
        5
102
RTVSPost2010Prop44ColorRGB
 90
      255
102
RTVSPost2010PropOp44
 70
     1
102
RTVSPost2010Prop45
280
     0
102
RTVSPost2010PropOp45
 70
     1
102
RTVSPost2010Prop46
 90
       50
102
RTVSPost2010PropOp46
 70
     1
102
RTVSPost2010Prop47
 90
       50
102
RTVSPost2010PropOp47
 70
     1
102
RTVSPost2010Prop48
 90
       50
102
RTVSPost2010PropOp48
 70
     1
102
RTVSPost2010Prop49
280
     0
102
RTVSPost2010PropOp49
 70
     1
102
RTVSPost2010Prop50
 90
       50
102
RTVSPost2010PropOp50
 70
     1
102
RTVSPost2010Prop51ColorIndex
 90
      256
102
RTVSPost2010Prop51ColorRGB
 90
-16777216
102
RTVSPost2010PropOp51
 70
     0
102
RTVSPost2010Prop52
140
1.0
102
RTVSPost2010PropOp52
 70
     0
102
RTVSPost2010Prop53
 90
        2
102
RTVSPost2010PropOp53
 70
     1
102
RTVSPost2010Prop54
  1
strokes_ogs.tif
102
RTVSPost2010PropOp54
 70
     1
102
RTVSPost2010Prop55
280
     0
102
RTVSPost2010PropOp55
 70
     1
102
RTVSPost2010Prop56
140
1.0
102
RTVSPost2010PropOp56
 70
     1
102
RTVSPost2010Prop57
140
1.0
102
RTVSPost2010PropOp57
 70
     1
102
RTVSPropertyOp0
 70
     1
102
RTVSPropertyOp1
 70
     1
102
RTVSPropertyOp2
 70
     1
102
RTVSPropertyOp3
 70
     1
102
RTVSPropertyOp4
 70
     1
102
RTVSPropertyOp5
 70
     1
102
RTVSPropertyOp6
 70
     1
102
RTVSPropertyOp7
 70
     1
102
RTVSPropertyOp8
 70
     1
102
RTVSPropertyOp9
 70
     1
102
RTVSPropertyOp10
 70
     1
102
RTVSPropertyOp11
 70
     1
102
RTVSPropertyOp12
 70
     1
102
RTVSPropertyOp13
 70
     1
102
RTVSPropertyOp14
 70
     1
102
RTVSPropertyOp15
 70
     1
102
RTVSPropertyOp16
 70
     1
102
RTVSPropertyOp17
 70
     1
102
RTVSPropertyOp18
 70
     1
102
RTVSPropertyOp19
 70
     1
102
RTVSPropertyOp20
 70
     1
102
RTVSPropertyOp21
 70
     1
102
RTVSPropertyOp22
 70
     1
102
RTVSPropertyOp23
 70
     1
102
RTVSPropertyOp24
 70
     1
102
RTVSPropertyOp25
 70
     1
102
RTVSPropertyOp26
 70
     1
102
RTVSPropertyOp27
 70
     1
102
RTVSPropertyOp28
 70
     1
102
RTVSPropertyOp29
 70
     1
102
RTVSPropertyOp30
 70
     1
102
RTVSPropertyOp31
 70
     1
102
RTVSPropertyOp32
 70
     1
102
RTVSPropertyOp33
 70
     1
102
RTVSPropertyOp34
 70
     1
102
RTVSPropertyOp35
 70
     1
102
RTVSPropertyOp36
 70
     1
102
RTVSPropertyOp37
 70
     1
102
RTVSPropertyOp38
 70
     1
102
RTVSPropertyOp39
 70
     1
102
RTVSPropertyOp40
 70
     1
102
RTVSPropertyOp41
 70
     1
102
RTVSPropertyOp42
 70
     1
102
RTVSPropertyOp43
 70
     1
102
RTVSPropertyOp44
 70
     1
102
RTVSPropertyOp45
 70
     1
102
RTVSPropertyOp46
 70
     1
102
RTVSPropertyOp47
 70
     1
102
RTVSPropertyOp48
 70
     1
102
RTVSPropertyOp49
 70
     1
102
RTVSPropertyOp50
 70
     1
102
RTVSPropertyOp51
 70
     0
102
RTVSPropertyOp52
 70
     0
102
RTVSPropertyOp53
 70
     1
102
RTVSPropertyOp54
 70
     1
102
RTVSPropertyOp55
 70
     1
102
RTVSPropertyOp56
 70
     1
102
RTVSPropertyOp57
 70
     1
102
RTVSPropertyOp58
 70
     1
102
RTVSPropertyOp59
 70
     1
102
RTVSPropertyOp60
 70
     1
102
RTVSPropertyOp61
 70
     1
102
RTVSPropertyOp62
 70
     1
  0
XRECORD
  5
29B
102
{ACAD_REACTORS
330
29A
102
}
330
29A
100
AcDbXrecord
280
     1
102
RTVSPost2010Prop28
280
     0
102
RTVSPost2010PropOp28
 70
     1
102
RTVSPost2010Prop29
280
     1
102
RTVSPost2010PropOp29
 70
     1
102
RTVSPost2010Prop30
280
     1
102
RTVSPost2010PropOp30
 70
     1
102
RTVSPost2010Prop31
280
     0
102
RTVSPost2010PropOp31
 70
     1
102
RTVSPost2010Prop32
280
     0
102
RTVSPost2010PropOp32
 70
     1
102
RTVSPost2010Prop33
280
     0
102
RTVSPost2010PropOp33
 70
     1
102
RTVSPost2010Prop34
280
     0
102
RTVSPost2010PropOp34
 70
     1
102
RTVSPost2010Prop35
280
     0
102
RTVSPost2010PropOp35
 70
     1
102
RTVSPost2010Prop36
280
     0
102
RTVSPost2010PropOp36
 70
     1
102
RTVSPost2010Prop37
 90
       50
102
RTVSPost2010PropOp37
 70
     1
102
RTVSPost2010Prop38
140
0.0
102
RTVSPost2010PropOp38
 70
     1
102
RTVSPost2010Prop39
140
1.0
102
RTVSPost2010PropOp39
 70
     1
102
RTVSPost2010Prop40
 90
        0
102
RTVSPost2010PropOp40
 70
     1
102
RTVSPost2010Prop41ColorIndex
 90
       18
102
RTVSPost2010Prop41ColorRGB
 90
        0
102
RTVSPost2010PropOp41
 70
     1
102
RTVSPost2010Prop42
 90
       50
102
RTVSPost2010PropOp42
 70
     1
102
RTVSPost2010Prop43
 90
        3
102
RTVSPost2010PropOp43
 70
     1
102
RTVSPost2010Prop44ColorIndex
 90
        5
102
RTVSPost2010Prop44ColorRGB
 90
      255
102
RTVSPost2010PropOp44
 70
     1
102
RTVSPost2010Prop45
280
     0
102
RTVSPost2010PropOp45
 70
     1
102
RTVSPost2010Prop46
 90
       50
102
RTVSPost2010PropOp46
 70
     1
102
RTVSPost2010Prop47
 90
       50
102
RTVSPost2010PropOp47
 70
     1
102
RTVSPost2010Prop48
 90
       50
102
RTVSPost2010PropOp48
 70
     1
102
RTVSPost2010Prop49
280
     0
102
RTVSPost2010PropOp49
 70
     1
102
RTVSPost2010Prop50
 90
       50
102
RTVSPost2010PropOp50
 70
     1
102
RTVSPost2010Prop51ColorIndex
 90
      256
102
RTVSPost2010Prop51ColorRGB
 90
-16777216
102
RTVSPost2010PropOp51
 70
     0
102
RTVSPost2010Prop52
140
1.0
102
RTVSPost2010PropOp52
 70
     0
102
RTVSPost2010Prop53
 90
        2
102
RTVSPost2010PropOp53
 70
     1
102
RTVSPost2010Prop54
  1
strokes_ogs.tif
102
RTVSPost2010PropOp54
 70
     1
102
RTVSPost2010Prop55
280
     0
102
RTVSPost2010PropOp55
 70
     1
102
RTVSPost2010Prop56
140
1.0
102
RTVSPost2010PropOp56
 70
     1
102
RTVSPost2010Prop57
140
1.0
102
RTVSPost2010PropOp57
 70
     1
102
RTVSPropertyOp0
 70
     1
102
RTVSPropertyOp1
 70
     1
102
RTVSPropertyOp2
 70
     1
102
RTVSPropertyOp3
 70
     1
102
RTVSPropertyOp4
 70
     1
102
RTVSPropertyOp5
 70
     1
102
RTVSPropertyOp6
 70
     1
102
RTVSPropertyOp7
 70
     1
102
RTVSPropertyOp8
 70
     1
102
RTVSPropertyOp9
 70
     1
102
RTVSPropertyOp10
 70
     1
102
RTVSPropertyOp11
 70
     1
102
RTVSPropertyOp12
 70
     1
102
RTVSPropertyOp13
 70
     1
102
RTVSPropertyOp14
 70
     1
102
RTVSPropertyOp15
 70
     1
102
RTVSPropertyOp16
 70
     1
102
RTVSPropertyOp17
 70
     1
102
RTVSPropertyOp18
 70
     1
102
RTVSPropertyOp19
 70
     1
102
RTVSPropertyOp20
 70
     1
102
RTVSPropertyOp21
 70
     1
102
RTVSPropertyOp22
 70
     1
102
RTVSPropertyOp23
 70
     1
102
RTVSPropertyOp24
 70
     1
102
RTVSPropertyOp25
 70
     1
102
RTVSPropertyOp26
 70
     1
102
RTVSPropertyOp27
 70
     1
102
RTVSPropertyOp28
 70
     1
102
RTVSPropertyOp29
 70
     1
102
RTVSPropertyOp30
 70
     1
102
RTVSPropertyOp31
 70
     1
102
RTVSPropertyOp32
 70
     1
102
RTVSPropertyOp33
 70
     1
102
RTVSPropertyOp34
 70
     1
102
RTVSPropertyOp35
 70
     1
102
RTVSPropertyOp36
 70
     1
102
RTVSPropertyOp37
 70
     1
102
RTVSPropertyOp38
 70
     1
102
RTVSPropertyOp39
 70
     1
102
RTVSPropertyOp40
 70
     1
102
RTVSPropertyOp41
 70
     1
102
RTVSPropertyOp42
 70
     1
102
RTVSPropertyOp43
 70
     1
102
RTVSPropertyOp44
 70
     1
102
RTVSPropertyOp45
 70
     1
102
RTVSPropertyOp46
 70
     1
102
RTVSPropertyOp47
 70
     1
102
RTVSPropertyOp48
 70
     1
102
RTVSPropertyOp49
 70
     1
102
RTVSPropertyOp50
 70
     1
102
RTVSPropertyOp51
 70
     0
102
RTVSPropertyOp52
 70
     0
102
RTVSPropertyOp53
 70
     1
102
RTVSPropertyOp54
 70
     1
102
RTVSPropertyOp55
 70
     1
102
RTVSPropertyOp56
 70
     1
102
RTVSPropertyOp57
 70
     1
102
RTVSPropertyOp58
 70
     1
102
RTVSPropertyOp59
 70
     1
102
RTVSPropertyOp60
 70
     1
102
RTVSPropertyOp61
 70
     1
102
RTVSPropertyOp62
 70
     1
  0
XRECORD
  5
2AB
102
{ACAD_REACTORS
330
2AA
102
}
330
2AA
100
AcDbXrecord
280
     1
102
RTVSPost2010Prop28
280
     0
102
RTVSPost2010PropOp28
 70
     1
102
RTVSPost2010Prop29
280
     1
102
RTVSPost2010PropOp29
 70
     1
102
RTVSPost2010Prop30
280
     1
102
RTVSPost2010PropOp30
 70
     1
102
RTVSPost2010Prop31
280
     0
102
RTVSPost2010PropOp31
 70
     1
102
RTVSPost2010Prop32
280
     0
102
RTVSPost2010PropOp32
 70
     1
102
RTVSPost2010Prop33
280
     0
102
RTVSPost2010PropOp33
 70
     1
102
RTVSPost2010Prop34
280
     0
102
RTVSPost2010PropOp34
 70
     1
102
RTVSPost2010Prop35
280
     0
102
RTVSPost2010PropOp35
 70
     1
102
RTVSPost2010Prop36
280
     0
102
RTVSPost2010PropOp36
 70
     1
102
RTVSPost2010Prop37
 90
       50
102
RTVSPost2010PropOp37
 70
     1
102
RTVSPost2010Prop38
140
0.0
102
RTVSPost2010PropOp38
 70
     1
102
RTVSPost2010Prop39
140
1.0
102
RTVSPost2010PropOp39
 70
     1
102
RTVSPost2010Prop40
 90
        0
102
RTVSPost2010PropOp40
 70
     1
102
RTVSPost2010Prop41ColorIndex
 90
       18
102
RTVSPost2010Prop41ColorRGB
 90
        0
102
RTVSPost2010PropOp41
 70
     1
102
RTVSPost2010Prop42
 90
       50
102
RTVSPost2010PropOp42
 70
     1
102
RTVSPost2010Prop43
 90
        3
102
RTVSPost2010PropOp43
 70
     1
102
RTVSPost2010Prop44ColorIndex
 90
        5
102
RTVSPost2010Prop44ColorRGB
 90
      255
102
RTVSPost2010PropOp44
 70
     1
102
RTVSPost2010Prop45
280
     0
102
RTVSPost2010PropOp45
 70
     1
102
RTVSPost2010Prop46
 90
       50
102
RTVSPost2010PropOp46
 70
     1
102
RTVSPost2010Prop47
 90
       50
102
RTVSPost2010PropOp47
 70
     1
102
RTVSPost2010Prop48
 90
       50
102
RTVSPost2010PropOp48
 70
     1
102
RTVSPost2010Prop49
280
     0
102
RTVSPost2010PropOp49
 70
     1
102
RTVSPost2010Prop50
 90
       50
102
RTVSPost2010PropOp50
 70
     1
102
RTVSPost2010Prop51ColorIndex
 90
      256
102
RTVSPost2010Prop51ColorRGB
 90
-16777216
102
RTVSPost2010PropOp51
 70
     0
102
RTVSPost2010Prop52
140
1.0
102
RTVSPost2010PropOp52
 70
     0
102
RTVSPost2010Prop53
 90
        2
102
RTVSPost2010PropOp53
 70
     1
102
RTVSPost2010Prop54
  1
strokes_ogs.tif
102
RTVSPost2010PropOp54
 70
     1
102
RTVSPost2010Prop55
280
     0
102
RTVSPost2010PropOp55
 70
     1
102
RTVSPost2010Prop56
140
1.0
102
RTVSPost2010PropOp56
 70
     1
102
RTVSPost2010Prop57
140
1.0
102
RTVSPost2010PropOp57
 70
     1
102
RTVSPropertyOp0
 70
     0
102
RTVSPropertyOp1
 70
     0
102
RTVSPropertyOp2
 70
     0
102
RTVSPropertyOp3
 70
     0
102
RTVSPropertyOp4
 70
     0
102
RTVSPropertyOp5
 70
     0
102
RTVSPropertyOp6
 70
     0
102
RTVSPropertyOp7
 70
     0
102
RTVSPropertyOp8
 70
     0
102
RTVSPropertyOp9
 70
     0
102
RTVSPropertyOp10
 70
     0
102
RTVSPropertyOp11
 70
     0
102
RTVSPropertyOp12
 70
     0
102
RTVSPropertyOp13
 70
     0
102
RTVSPropertyOp14
 70
     2
102
RTVSPropertyOp15
 70
     0
102
RTVSPropertyOp16
 70
     0
102
RTVSPropertyOp17
 70
     0
102
RTVSPropertyOp18
 70
     0
102
RTVSPropertyOp19
 70
     0
102
RTVSPropertyOp20
 70
     0
102
RTVSPropertyOp21
 70
     0
102
RTVSPropertyOp22
 70
     0
102
RTVSPropertyOp23
 70
     0
102
RTVSPropertyOp24
 70
     0
102
RTVSPropertyOp25
 70
     0
102
RTVSPropertyOp26
 70
     0
102
RTVSPropertyOp27
 70
     0
102
RTVSPropertyOp28
 70
     1
102
RTVSPropertyOp29
 70
     1
102
RTVSPropertyOp30
 70
     1
102
RTVSPropertyOp31
 70
     1
102
RTVSPropertyOp32
 70
     1
102
RTVSPropertyOp33
 70
     1
102
RTVSPropertyOp34
 70
     1
102
RTVSPropertyOp35
 70
     1
102
RTVSPropertyOp36
 70
     1
102
RTVSPropertyOp37
 70
     1
102
RTVSPropertyOp38
 70
     1
102
RTVSPropertyOp39
 70
     1
102
RTVSPropertyOp40
 70
     1
102
RTVSPropertyOp41
 70
     1
102
RTVSPropertyOp42
 70
     1
102
RTVSPropertyOp43
 70
     1
102
RTVSPropertyOp44
 70
     1
102
RTVSPropertyOp45
 70
     1
102
RTVSPropertyOp46
 70
     1
102
RTVSPropertyOp47
 70
     1
102
RTVSPropertyOp48
 70
     1
102
RTVSPropertyOp49
 70
     1
102
RTVSPropertyOp50
 70
     1
102
RTVSPropertyOp51
 70
     0
102
RTVSPropertyOp52
 70
     0
102
RTVSPropertyOp53
 70
     1
102
RTVSPropertyOp54
 70
     1
102
RTVSPropertyOp55
 70
     1
102
RTVSPropertyOp56
 70
     1
102
RTVSPropertyOp57
 70
     1
102
RTVSPropertyOp58
 70
     1
102
RTVSPropertyOp59
 70
     1
102
RTVSPropertyOp60
 70
     1
102
RTVSPropertyOp61
 70
     1
102
RTVSPropertyOp62
 70
     1
  0
XRECORD
  5
2A3
102
{ACAD_REACTORS
330
2A2
102
}
330
2A2
100
AcDbXrecord
280
     1
102
RTVSPost2010Prop28
280
     0
102
RTVSPost2010PropOp28
 70
     1
102
RTVSPost2010Prop29
280
     1
102
RTVSPost2010PropOp29
 70
     1
102
RTVSPost2010Prop30
280
     1
102
RTVSPost2010PropOp30
 70
     1
102
RTVSPost2010Prop31
280
     0
102
RTVSPost2010PropOp31
 70
     1
102
RTVSPost2010Prop32
280
     0
102
RTVSPost2010PropOp32
 70
     1
102
RTVSPost2010Prop33
280
     0
102
RTVSPost2010PropOp33
 70
     1
102
RTVSPost2010Prop34
280
     0
102
RTVSPost2010PropOp34
 70
     1
102
RTVSPost2010Prop35
280
     0
102
RTVSPost2010PropOp35
 70
     1
102
RTVSPost2010Prop36
280
     0
102
RTVSPost2010PropOp36
 70
     1
102
RTVSPost2010Prop37
 90
       50
102
RTVSPost2010PropOp37
 70
     1
102
RTVSPost2010Prop38
140
0.0
102
RTVSPost2010PropOp38
 70
     1
102
RTVSPost2010Prop39
140
1.0
102
RTVSPost2010PropOp39
 70
     1
102
RTVSPost2010Prop40
 90
        0
102
RTVSPost2010PropOp40
 70
     1
102
RTVSPost2010Prop41ColorIndex
 90
       18
102
RTVSPost2010Prop41ColorRGB
 90
        0
102
RTVSPost2010PropOp41
 70
     1
102
RTVSPost2010Prop42
 90
       50
102
RTVSPost2010PropOp42
 70
     1
102
RTVSPost2010Prop43
 90
        3
102
RTVSPost2010PropOp43
 70
     1
102
RTVSPost2010Prop44ColorIndex
 90
        5
102
RTVSPost2010Prop44ColorRGB
 90
      255
102
RTVSPost2010PropOp44
 70
     1
102
RTVSPost2010Prop45
280
     0
102
RTVSPost2010PropOp45
 70
     1
102
RTVSPost2010Prop46
 90
       50
102
RTVSPost2010PropOp46
 70
     1
102
RTVSPost2010Prop47
 90
       50
102
RTVSPost2010PropOp47
 70
     1
102
RTVSPost2010Prop48
 90
       50
102
RTVSPost2010PropOp48
 70
     1
102
RTVSPost2010Prop49
280
     0
102
RTVSPost2010PropOp49
 70
     1
102
RTVSPost2010Prop50
 90
       50
102
RTVSPost2010PropOp50
 70
     1
102
RTVSPost2010Prop51ColorIndex
 90
      256
102
RTVSPost2010Prop51ColorRGB
 90
-16777216
102
RTVSPost2010PropOp51
 70
     0
102
RTVSPost2010Prop52
140
1.0
102
RTVSPost2010PropOp52
 70
     0
102
RTVSPost2010Prop53
 90
        2
102
RTVSPost2010PropOp53
 70
     1
102
RTVSPost2010Prop54
  1
strokes_ogs.tif
102
RTVSPost2010PropOp54
 70
     1
102
RTVSPost2010Prop55
280
     0
102
RTVSPost2010PropOp55
 70
     1
102
RTVSPost2010Prop56
140
1.0
102
RTVSPost2010PropOp56
 70
     1
102
RTVSPost2010Prop57
140
1.0
102
RTVSPost2010PropOp57
 70
     1
102
RTVSPropertyOp0
 70
     1
102
RTVSPropertyOp1
 70
     1
102
RTVSPropertyOp2
 70
     1
102
RTVSPropertyOp3
 70
     1
102
RTVSPropertyOp4
 70
     1
102
RTVSPropertyOp5
 70
     1
102
RTVSPropertyOp6
 70
     1
102
RTVSPropertyOp7
 70
     1
102
RTVSPropertyOp8
 70
     1
102
RTVSPropertyOp9
 70
     1
102
RTVSPropertyOp10
 70
     1
102
RTVSPropertyOp11
 70
     1
102
RTVSPropertyOp12
 70
     1
102
RTVSPropertyOp13
 70
     1
102
RTVSPropertyOp14
 70
     1
102
RTVSPropertyOp15
 70
     1
102
RTVSPropertyOp16
 70
     1
102
RTVSPropertyOp17
 70
     1
102
RTVSPropertyOp18
 70
     1
102
RTVSPropertyOp19
 70
     1
102
RTVSPropertyOp20
 70
     1
102
RTVSPropertyOp21
 70
     1
102
RTVSPropertyOp22
 70
     1
102
RTVSPropertyOp23
 70
     1
102
RTVSPropertyOp24
 70
     1
102
RTVSPropertyOp25
 70
     1
102
RTVSPropertyOp26
 70
     1
102
RTVSPropertyOp27
 70
     1
102
RTVSPropertyOp28
 70
     1
102
RTVSPropertyOp29
 70
     1
102
RTVSPropertyOp30
 70
     1
102
RTVSPropertyOp31
 70
     1
102
RTVSPropertyOp32
 70
     1
102
RTVSPropertyOp33
 70
     1
102
RTVSPropertyOp34
 70
     1
102
RTVSPropertyOp35
 70
     1
102
RTVSPropertyOp36
 70
     1
102
RTVSPropertyOp37
 70
     1
102
RTVSPropertyOp38
 70
     1
102
RTVSPropertyOp39
 70
     1
102
RTVSPropertyOp40
 70
     1
102
RTVSPropertyOp41
 70
     1
102
RTVSPropertyOp42
 70
     1
102
RTVSPropertyOp43
 70
     1
102
RTVSPropertyOp44
 70
     1
102
RTVSPropertyOp45
 70
     1
102
RTVSPropertyOp46
 70
     1
102
RTVSPropertyOp47
 70
     1
102
RTVSPropertyOp48
 70
     1
102
RTVSPropertyOp49
 70
     1
102
RTVSPropertyOp50
 70
     1
102
RTVSPropertyOp51
 70
     0
102
RTVSPropertyOp52
 70
     0
102
RTVSPropertyOp53
 70
     1
102
RTVSPropertyOp54
 70
     1
102
RTVSPropertyOp55
 70
     1
102
RTVSPropertyOp56
 70
     1
102
RTVSPropertyOp57
 70
     1
102
RTVSPropertyOp58
 70
     1
102
RTVSPropertyOp59
 70
     1
102
RTVSPropertyOp60
 70
     1
102
RTVSPropertyOp61
 70
     1
102
RTVSPropertyOp62
 70
     1
  0
XRECORD
  5
287
102
{ACAD_REACTORS
330
286
102
}
330
286
100
AcDbXrecord
280
     1
102
RTVSPost2010Prop28
280
     0
102
RTVSPost2010PropOp28
 70
     1
102
RTVSPost2010Prop29
280
     1
102
RTVSPost2010PropOp29
 70
     1
102
RTVSPost2010Prop30
280
     1
102
RTVSPost2010PropOp30
 70
     1
102
RTVSPost2010Prop31
280
     0
102
RTVSPost2010PropOp31
 70
     1
102
RTVSPost2010Prop32
280
     0
102
RTVSPost2010PropOp32
 70
     1
102
RTVSPost2010Prop33
280
     0
102
RTVSPost2010PropOp33
 70
     1
102
RTVSPost2010Prop34
280
     0
102
RTVSPost2010PropOp34
 70
     1
102
RTVSPost2010Prop35
280
     0
102
RTVSPost2010PropOp35
 70
     1
102
RTVSPost2010Prop36
280
     0
102
RTVSPost2010PropOp36
 70
     1
102
RTVSPost2010Prop37
 90
       50
102
RTVSPost2010PropOp37
 70
     1
102
RTVSPost2010Prop38
140
0.0
102
RTVSPost2010PropOp38
 70
     1
102
RTVSPost2010Prop39
140
1.0
102
RTVSPost2010PropOp39
 70
     1
102
RTVSPost2010Prop40
 90
        0
102
RTVSPost2010PropOp40
 70
     1
102
RTVSPost2010Prop41ColorIndex
 90
       18
102
RTVSPost2010Prop41ColorRGB
 90
        0
102
RTVSPost2010PropOp41
 70
     1
102
RTVSPost2010Prop42
 90
       50
102
RTVSPost2010PropOp42
 70
     1
102
RTVSPost2010Prop43
 90
        3
102
RTVSPost2010PropOp43
 70
     1
102
RTVSPost2010Prop44ColorIndex
 90
        5
102
RTVSPost2010Prop44ColorRGB
 90
      255
102
RTVSPost2010PropOp44
 70
     1
102
RTVSPost2010Prop45
280
     0
102
RTVSPost2010PropOp45
 70
     1
102
RTVSPost2010Prop46
 90
       50
102
RTVSPost2010PropOp46
 70
     1
102
RTVSPost2010Prop47
 90
       50
102
RTVSPost2010PropOp47
 70
     1
102
RTVSPost2010Prop48
 90
       50
102
RTVSPost2010PropOp48
 70
     1
102
RTVSPost2010Prop49
280
     0
102
RTVSPost2010PropOp49
 70
     1
102
RTVSPost2010Prop50
 90
       50
102
RTVSPost2010PropOp50
 70
     1
102
RTVSPost2010Prop51ColorIndex
 90
      256
102
RTVSPost2010Prop51ColorRGB
 90
-16777216
102
RTVSPost2010PropOp51
 70
     0
102
RTVSPost2010Prop52
140
1.0
102
RTVSPost2010PropOp52
 70
     0
102
RTVSPost2010Prop53
 90
        2
102
RTVSPost2010PropOp53
 70
     1
102
RTVSPost2010Prop54
  1
strokes_ogs.tif
102
RTVSPost2010PropOp54
 70
     1
102
RTVSPost2010Prop55
280
     0
102
RTVSPost2010PropOp55
 70
     1
102
RTVSPost2010Prop56
140
1.0
102
RTVSPost2010PropOp56
 70
     1
102
RTVSPost2010Prop57
140
1.0
102
RTVSPost2010PropOp57
 70
     1
102
RTVSPropertyOp0
 70
     1
102
RTVSPropertyOp1
 70
     1
102
RTVSPropertyOp2
 70
     1
102
RTVSPropertyOp3
 70
     1
102
RTVSPropertyOp4
 70
     1
102
RTVSPropertyOp5
 70
     1
102
RTVSPropertyOp6
 70
     1
102
RTVSPropertyOp7
 70
     1
102
RTVSPropertyOp8
 70
     1
102
RTVSPropertyOp9
 70
     1
102
RTVSPropertyOp10
 70
     1
102
RTVSPropertyOp11
 70
     1
102
RTVSPropertyOp12
 70
     1
102
RTVSPropertyOp13
 70
     1
102
RTVSPropertyOp14
 70
     1
102
RTVSPropertyOp15
 70
     1
102
RTVSPropertyOp16
 70
     1
102
RTVSPropertyOp17
 70
     1
102
RTVSPropertyOp18
 70
     1
102
RTVSPropertyOp19
 70
     1
102
RTVSPropertyOp20
 70
     1
102
RTVSPropertyOp21
 70
     1
102
RTVSPropertyOp22
 70
     1
102
RTVSPropertyOp23
 70
     1
102
RTVSPropertyOp24
 70
     1
102
RTVSPropertyOp25
 70
     1
102
RTVSPropertyOp26
 70
     1
102
RTVSPropertyOp27
 70
     1
102
RTVSPropertyOp28
 70
     1
102
RTVSPropertyOp29
 70
     1
102
RTVSPropertyOp30
 70
     1
102
RTVSPropertyOp31
 70
     1
102
RTVSPropertyOp32
 70
     1
102
RTVSPropertyOp33
 70
     1
102
RTVSPropertyOp34
 70
     1
102
RTVSPropertyOp35
 70
     1
102
RTVSPropertyOp36
 70
     1
102
RTVSPropertyOp37
 70
     1
102
RTVSPropertyOp38
 70
     1
102
RTVSPropertyOp39
 70
     1
102
RTVSPropertyOp40
 70
     1
102
RTVSPropertyOp41
 70
     1
102
RTVSPropertyOp42
 70
     1
102
RTVSPropertyOp43
 70
     1
102
RTVSPropertyOp44
 70
     1
102
RTVSPropertyOp45
 70
     1
102
RTVSPropertyOp46
 70
     1
102
RTVSPropertyOp47
 70
     1
102
RTVSPropertyOp48
 70
     1
102
RTVSPropertyOp49
 70
     1
102
RTVSPropertyOp50
 70
     1
102
RTVSPropertyOp51
 70
     0
102
RTVSPropertyOp52
 70
     0
102
RTVSPropertyOp53
 70
     1
102
RTVSPropertyOp54
 70
     1
102
RTVSPropertyOp55
 70
     1
102
RTVSPropertyOp56
 70
     1
102
RTVSPropertyOp57
 70
     1
102
RTVSPropertyOp58
 70
     1
102
RTVSPropertyOp59
 70
     1
102
RTVSPropertyOp60
 70
     1
102
RTVSPropertyOp61
 70
     1
102
RTVSPropertyOp62
 70
     1
  0
XRECORD
  5
289
102
{ACAD_REACTORS
330
288
102
}
330
288
100
AcDbXrecord
280
     1
102
RTVSPost2010Prop28
280
     0
102
RTVSPost2010PropOp28
 70
     1
102
RTVSPost2010Prop29
280
     1
102
RTVSPost2010PropOp29
 70
     1
102
RTVSPost2010Prop30
280
     1
102
RTVSPost2010PropOp30
 70
     1
102
RTVSPost2010Prop31
280
     0
102
RTVSPost2010PropOp31
 70
     1
102
RTVSPost2010Prop32
280
     0
102
RTVSPost2010PropOp32
 70
     1
102
RTVSPost2010Prop33
280
     0
102
RTVSPost2010PropOp33
 70
     1
102
RTVSPost2010Prop34
280
     0
102
RTVSPost2010PropOp34
 70
     1
102
RTVSPost2010Prop35
280
     0
102
RTVSPost2010PropOp35
 70
     1
102
RTVSPost2010Prop36
280
     0
102
RTVSPost2010PropOp36
 70
     1
102
RTVSPost2010Prop37
 90
       50
102
RTVSPost2010PropOp37
 70
     1
102
RTVSPost2010Prop38
140
0.0
102
RTVSPost2010PropOp38
 70
     1
102
RTVSPost2010Prop39
140
1.0
102
RTVSPost2010PropOp39
 70
     1
102
RTVSPost2010Prop40
 90
        0
102
RTVSPost2010PropOp40
 70
     1
102
RTVSPost2010Prop41ColorIndex
 90
       18
102
RTVSPost2010Prop41ColorRGB
 90
        0
102
RTVSPost2010PropOp41
 70
     1
102
RTVSPost2010Prop42
 90
       50
102
RTVSPost2010PropOp42
 70
     1
102
RTVSPost2010Prop43
 90
        3
102
RTVSPost2010PropOp43
 70
     1
102
RTVSPost2010Prop44ColorIndex
 90
        5
102
RTVSPost2010Prop44ColorRGB
 90
      255
102
RTVSPost2010PropOp44
 70
     1
102
RTVSPost2010Prop45
280
     0
102
RTVSPost2010PropOp45
 70
     1
102
RTVSPost2010Prop46
 90
       50
102
RTVSPost2010PropOp46
 70
     1
102
RTVSPost2010Prop47
 90
       50
102
RTVSPost2010PropOp47
 70
     1
102
RTVSPost2010Prop48
 90
       50
102
RTVSPost2010PropOp48
 70
     1
102
RTVSPost2010Prop49
280
     0
102
RTVSPost2010PropOp49
 70
     1
102
RTVSPost2010Prop50
 90
       50
102
RTVSPost2010PropOp50
 70
     1
102
RTVSPost2010Prop51ColorIndex
 90
      256
102
RTVSPost2010Prop51ColorRGB
 90
-16777216
102
RTVSPost2010PropOp51
 70
     0
102
RTVSPost2010Prop52
140
1.0
102
RTVSPost2010PropOp52
 70
     0
102
RTVSPost2010Prop53
 90
        2
102
RTVSPost2010PropOp53
 70
     1
102
RTVSPost2010Prop54
  1
strokes_ogs.tif
102
RTVSPost2010PropOp54
 70
     1
102
RTVSPost2010Prop55
280
     0
102
RTVSPost2010PropOp55
 70
     1
102
RTVSPost2010Prop56
140
1.0
102
RTVSPost2010PropOp56
 70
     1
102
RTVSPost2010Prop57
140
1.0
102
RTVSPost2010PropOp57
 70
     1
102
RTVSPropertyOp0
 70
     1
102
RTVSPropertyOp1
 70
     1
102
RTVSPropertyOp2
 70
     1
102
RTVSPropertyOp3
 70
     1
102
RTVSPropertyOp4
 70
     1
102
RTVSPropertyOp5
 70
     1
102
RTVSPropertyOp6
 70
     1
102
RTVSPropertyOp7
 70
     1
102
RTVSPropertyOp8
 70
     1
102
RTVSPropertyOp9
 70
     1
102
RTVSPropertyOp10
 70
     1
102
RTVSPropertyOp11
 70
     1
102
RTVSPropertyOp12
 70
     1
102
RTVSPropertyOp13
 70
     1
102
RTVSPropertyOp14
 70
     1
102
RTVSPropertyOp15
 70
     1
102
RTVSPropertyOp16
 70
     1
102
RTVSPropertyOp17
 70
     1
102
RTVSPropertyOp18
 70
     1
102
RTVSPropertyOp19
 70
     1
102
RTVSPropertyOp20
 70
     1
102
RTVSPropertyOp21
 70
     1
102
RTVSPropertyOp22
 70
     1
102
RTVSPropertyOp23
 70
     1
102
RTVSPropertyOp24
 70
     1
102
RTVSPropertyOp25
 70
     1
102
RTVSPropertyOp26
 70
     1
102
RTVSPropertyOp27
 70
     1
102
RTVSPropertyOp28
 70
     1
102
RTVSPropertyOp29
 70
     1
102
RTVSPropertyOp30
 70
     1
102
RTVSPropertyOp31
 70
     1
102
RTVSPropertyOp32
 70
     1
102
RTVSPropertyOp33
 70
     1
102
RTVSPropertyOp34
 70
     1
102
RTVSPropertyOp35
 70
     1
102
RTVSPropertyOp36
 70
     1
102
RTVSPropertyOp37
 70
     1
102
RTVSPropertyOp38
 70
     1
102
RTVSPropertyOp39
 70
     1
102
RTVSPropertyOp40
 70
     1
102
RTVSPropertyOp41
 70
     1
102
RTVSPropertyOp42
 70
     1
102
RTVSPropertyOp43
 70
     1
102
RTVSPropertyOp44
 70
     1
102
RTVSPropertyOp45
 70
     1
102
RTVSPropertyOp46
 70
     1
102
RTVSPropertyOp47
 70
     1
102
RTVSPropertyOp48
 70
     1
102
RTVSPropertyOp49
 70
     1
102
RTVSPropertyOp50
 70
     1
102
RTVSPropertyOp51
 70
     0
102
RTVSPropertyOp52
 70
     0
102
RTVSPropertyOp53
 70
     1
102
RTVSPropertyOp54
 70
     1
102
RTVSPropertyOp55
 70
     1
102
RTVSPropertyOp56
 70
     1
102
RTVSPropertyOp57
 70
     1
102
RTVSPropertyOp58
 70
     1
102
RTVSPropertyOp59
 70
     1
102
RTVSPropertyOp60
 70
     1
102
RTVSPropertyOp61
 70
     1
102
RTVSPropertyOp62
 70
     1
  0
XRECORD
  5
28B
102
{ACAD_REACTORS
330
28A
102
}
330
28A
100
AcDbXrecord
280
     1
102
RTVSPost2010Prop28
280
     0
102
RTVSPost2010PropOp28
 70
     1
102
RTVSPost2010Prop29
280
     1
102
RTVSPost2010PropOp29
 70
     1
102
RTVSPost2010Prop30
280
     1
102
RTVSPost2010PropOp30
 70
     1
102
RTVSPost2010Prop31
280
     0
102
RTVSPost2010PropOp31
 70
     1
102
RTVSPost2010Prop32
280
     0
102
RTVSPost2010PropOp32
 70
     1
102
RTVSPost2010Prop33
280
     0
102
RTVSPost2010PropOp33
 70
     1
102
RTVSPost2010Prop34
280
     0
102
RTVSPost2010PropOp34
 70
     1
102
RTVSPost2010Prop35
280
     0
102
RTVSPost2010PropOp35
 70
     1
102
RTVSPost2010Prop36
280
     0
102
RTVSPost2010PropOp36
 70
     1
102
RTVSPost2010Prop37
 90
       50
102
RTVSPost2010PropOp37
 70
     1
102
RTVSPost2010Prop38
140
0.0
102
RTVSPost2010PropOp38
 70
     1
102
RTVSPost2010Prop39
140
1.0
102
RTVSPost2010PropOp39
 70
     1
102
RTVSPost2010Prop40
 90
        0
102
RTVSPost2010PropOp40
 70
     1
102
RTVSPost2010Prop41ColorIndex
 90
       18
102
RTVSPost2010Prop41ColorRGB
 90
        0
102
RTVSPost2010PropOp41
 70
     1
102
RTVSPost2010Prop42
 90
       50
102
RTVSPost2010PropOp42
 70
     1
102
RTVSPost2010Prop43
 90
        3
102
RTVSPost2010PropOp43
 70
     1
102
RTVSPost2010Prop44ColorIndex
 90
        5
102
RTVSPost2010Prop44ColorRGB
 90
      255
102
RTVSPost2010PropOp44
 70
     1
102
RTVSPost2010Prop45
280
     0
102
RTVSPost2010PropOp45
 70
     1
102
RTVSPost2010Prop46
 90
       50
102
RTVSPost2010PropOp46
 70
     1
102
RTVSPost2010Prop47
 90
       50
102
RTVSPost2010PropOp47
 70
     1
102
RTVSPost2010Prop48
 90
       50
102
RTVSPost2010PropOp48
 70
     1
102
RTVSPost2010Prop49
280
     0
102
RTVSPost2010PropOp49
 70
     1
102
RTVSPost2010Prop50
 90
       50
102
RTVSPost2010PropOp50
 70
     1
102
RTVSPost2010Prop51ColorIndex
 90
      256
102
RTVSPost2010Prop51ColorRGB
 90
-16777216
102
RTVSPost2010PropOp51
 70
     0
102
RTVSPost2010Prop52
140
1.0
102
RTVSPost2010PropOp52
 70
     0
102
RTVSPost2010Prop53
 90
        2
102
RTVSPost2010PropOp53
 70
     1
102
RTVSPost2010Prop54
  1
strokes_ogs.tif
102
RTVSPost2010PropOp54
 70
     1
102
RTVSPost2010Prop55
280
     0
102
RTVSPost2010PropOp55
 70
     1
102
RTVSPost2010Prop56
140
1.0
102
RTVSPost2010PropOp56
 70
     1
102
RTVSPost2010Prop57
140
1.0
102
RTVSPost2010PropOp57
 70
     1
102
RTVSPropertyOp0
 70
     1
102
RTVSPropertyOp1
 70
     1
102
RTVSPropertyOp2
 70
     1
102
RTVSPropertyOp3
 70
     1
102
RTVSPropertyOp4
 70
     1
102
RTVSPropertyOp5
 70
     1
102
RTVSPropertyOp6
 70
     1
102
RTVSPropertyOp7
 70
     1
102
RTVSPropertyOp8
 70
     1
102
RTVSPropertyOp9
 70
     1
102
RTVSPropertyOp10
 70
     1
102
RTVSPropertyOp11
 70
     1
102
RTVSPropertyOp12
 70
     1
102
RTVSPropertyOp13
 70
     1
102
RTVSPropertyOp14
 70
     1
102
RTVSPropertyOp15
 70
     1
102
RTVSPropertyOp16
 70
     1
102
RTVSPropertyOp17
 70
     1
102
RTVSPropertyOp18
 70
     1
102
RTVSPropertyOp19
 70
     1
102
RTVSPropertyOp20
 70
     1
102
RTVSPropertyOp21
 70
     1
102
RTVSPropertyOp22
 70
     1
102
RTVSPropertyOp23
 70
     1
102
RTVSPropertyOp24
 70
     1
102
RTVSPropertyOp25
 70
     1
102
RTVSPropertyOp26
 70
     1
102
RTVSPropertyOp27
 70
     1
102
RTVSPropertyOp28
 70
     1
102
RTVSPropertyOp29
 70
     1
102
RTVSPropertyOp30
 70
     1
102
RTVSPropertyOp31
 70
     1
102
RTVSPropertyOp32
 70
     1
102
RTVSPropertyOp33
 70
     1
102
RTVSPropertyOp34
 70
     1
102
RTVSPropertyOp35
 70
     1
102
RTVSPropertyOp36
 70
     1
102
RTVSPropertyOp37
 70
     1
102
RTVSPropertyOp38
 70
     1
102
RTVSPropertyOp39
 70
     1
102
RTVSPropertyOp40
 70
     1
102
RTVSPropertyOp41
 70
     1
102
RTVSPropertyOp42
 70
     1
102
RTVSPropertyOp43
 70
     1
102
RTVSPropertyOp44
 70
     1
102
RTVSPropertyOp45
 70
     1
102
RTVSPropertyOp46
 70
     1
102
RTVSPropertyOp47
 70
     1
102
RTVSPropertyOp48
 70
     1
102
RTVSPropertyOp49
 70
     1
102
RTVSPropertyOp50
 70
     1
102
RTVSPropertyOp51
 70
     0
102
RTVSPropertyOp52
 70
     0
102
RTVSPropertyOp53
 70
     1
102
RTVSPropertyOp54
 70
     1
102
RTVSPropertyOp55
 70
     1
102
RTVSPropertyOp56
 70
     1
102
RTVSPropertyOp57
 70
     1
102
RTVSPropertyOp58
 70
     1
102
RTVSPropertyOp59
 70
     1
102
RTVSPropertyOp60
 70
     1
102
RTVSPropertyOp61
 70
     1
102
RTVSPropertyOp62
 70
     1
  0
XRECORD
  5
28D
102
{ACAD_REACTORS
330
28C
102
}
330
28C
100
AcDbXrecord
280
     1
102
RTVSPost2010Prop28
280
     0
102
RTVSPost2010PropOp28
 70
     1
102
RTVSPost2010Prop29
280
     1
102
RTVSPost2010PropOp29
 70
     1
102
RTVSPost2010Prop30
280
     1
102
RTVSPost2010PropOp30
 70
     1
102
RTVSPost2010Prop31
280
     0
102
RTVSPost2010PropOp31
 70
     1
102
RTVSPost2010Prop32
280
     0
102
RTVSPost2010PropOp32
 70
     1
102
RTVSPost2010Prop33
280
     0
102
RTVSPost2010PropOp33
 70
     1
102
RTVSPost2010Prop34
280
     0
102
RTVSPost2010PropOp34
 70
     1
102
RTVSPost2010Prop35
280
     0
102
RTVSPost2010PropOp35
 70
     1
102
RTVSPost2010Prop36
280
     0
102
RTVSPost2010PropOp36
 70
     1
102
RTVSPost2010Prop37
 90
       50
102
RTVSPost2010PropOp37
 70
     1
102
RTVSPost2010Prop38
140
0.0
102
RTVSPost2010PropOp38
 70
     1
102
RTVSPost2010Prop39
140
1.0
102
RTVSPost2010PropOp39
 70
     1
102
RTVSPost2010Prop40
 90
        0
102
RTVSPost2010PropOp40
 70
     1
102
RTVSPost2010Prop41ColorIndex
 90
       18
102
RTVSPost2010Prop41ColorRGB
 90
        0
102
RTVSPost2010PropOp41
 70
     1
102
RTVSPost2010Prop42
 90
       50
102
RTVSPost2010PropOp42
 70
     1
102
RTVSPost2010Prop43
 90
        3
102
RTVSPost2010PropOp43
 70
     1
102
RTVSPost2010Prop44ColorIndex
 90
        5
102
RTVSPost2010Prop44ColorRGB
 90
      255
102
RTVSPost2010PropOp44
 70
     1
102
RTVSPost2010Prop45
280
     0
102
RTVSPost2010PropOp45
 70
     1
102
RTVSPost2010Prop46
 90
       50
102
RTVSPost2010PropOp46
 70
     1
102
RTVSPost2010Prop47
 90
       50
102
RTVSPost2010PropOp47
 70
     1
102
RTVSPost2010Prop48
 90
       50
102
RTVSPost2010PropOp48
 70
     1
102
RTVSPost2010Prop49
280
     0
102
RTVSPost2010PropOp49
 70
     1
102
RTVSPost2010Prop50
 90
       50
102
RTVSPost2010PropOp50
 70
     1
102
RTVSPost2010Prop51ColorIndex
 90
      256
102
RTVSPost2010Prop51ColorRGB
 90
-16777216
102
RTVSPost2010PropOp51
 70
     0
102
RTVSPost2010Prop52
140
1.0
102
RTVSPost2010PropOp52
 70
     0
102
RTVSPost2010Prop53
 90
        2
102
RTVSPost2010PropOp53
 70
     1
102
RTVSPost2010Prop54
  1
strokes_ogs.tif
102
RTVSPost2010PropOp54
 70
     1
102
RTVSPost2010Prop55
280
     0
102
RTVSPost2010PropOp55
 70
     1
102
RTVSPost2010Prop56
140
1.0
102
RTVSPost2010PropOp56
 70
     1
102
RTVSPost2010Prop57
140
1.0
102
RTVSPost2010PropOp57
 70
     1
102
RTVSPropertyOp0
 70
     1
102
RTVSPropertyOp1
 70
     1
102
RTVSPropertyOp2
 70
     1
102
RTVSPropertyOp3
 70
     1
102
RTVSPropertyOp4
 70
     1
102
RTVSPropertyOp5
 70
     1
102
RTVSPropertyOp6
 70
     1
102
RTVSPropertyOp7
 70
     1
102
RTVSPropertyOp8
 70
     1
102
RTVSPropertyOp9
 70
     1
102
RTVSPropertyOp10
 70
     1
102
RTVSPropertyOp11
 70
     1
102
RTVSPropertyOp12
 70
     1
102
RTVSPropertyOp13
 70
     1
102
RTVSPropertyOp14
 70
     1
102
RTVSPropertyOp15
 70
     1
102
RTVSPropertyOp16
 70
     1
102
RTVSPropertyOp17
 70
     1
102
RTVSPropertyOp18
 70
     1
102
RTVSPropertyOp19
 70
     1
102
RTVSPropertyOp20
 70
     1
102
RTVSPropertyOp21
 70
     1
102
RTVSPropertyOp22
 70
     1
102
RTVSPropertyOp23
 70
     1
102
RTVSPropertyOp24
 70
     1
102
RTVSPropertyOp25
 70
     1
102
RTVSPropertyOp26
 70
     1
102
RTVSPropertyOp27
 70
     1
102
RTVSPropertyOp28
 70
     1
102
RTVSPropertyOp29
 70
     1
102
RTVSPropertyOp30
 70
     1
102
RTVSPropertyOp31
 70
     1
102
RTVSPropertyOp32
 70
     1
102
RTVSPropertyOp33
 70
     1
102
RTVSPropertyOp34
 70
     1
102
RTVSPropertyOp35
 70
     1
102
RTVSPropertyOp36
 70
     1
102
RTVSPropertyOp37
 70
     1
102
RTVSPropertyOp38
 70
     1
102
RTVSPropertyOp39
 70
     1
102
RTVSPropertyOp40
 70
     1
102
RTVSPropertyOp41
 70
     1
102
RTVSPropertyOp42
 70
     1
102
RTVSPropertyOp43
 70
     1
102
RTVSPropertyOp44
 70
     1
102
RTVSPropertyOp45
 70
     1
102
RTVSPropertyOp46
 70
     1
102
RTVSPropertyOp47
 70
     1
102
RTVSPropertyOp48
 70
     1
102
RTVSPropertyOp49
 70
     1
102
RTVSPropertyOp50
 70
     1
102
RTVSPropertyOp51
 70
     0
102
RTVSPropertyOp52
 70
     0
102
RTVSPropertyOp53
 70
     1
102
RTVSPropertyOp54
 70
     1
102
RTVSPropertyOp55
 70
     1
102
RTVSPropertyOp56
 70
     1
102
RTVSPropertyOp57
 70
     1
102
RTVSPropertyOp58
 70
     1
102
RTVSPropertyOp59
 70
     1
102
RTVSPropertyOp60
 70
     1
102
RTVSPropertyOp61
 70
     1
102
RTVSPropertyOp62
 70
     1
  0
XRECORD
  5
295
102
{ACAD_REACTORS
330
294
102
}
330
294
100
AcDbXrecord
280
     1
102
RTVSPost2010Prop28
280
     0
102
RTVSPost2010PropOp28
 70
     1
102
RTVSPost2010Prop29
280
     1
102
RTVSPost2010PropOp29
 70
     1
102
RTVSPost2010Prop30
280
     1
102
RTVSPost2010PropOp30
 70
     1
102
RTVSPost2010Prop31
280
     0
102
RTVSPost2010PropOp31
 70
     1
102
RTVSPost2010Prop32
280
     0
102
RTVSPost2010PropOp32
 70
     1
102
RTVSPost2010Prop33
280
     0
102
RTVSPost2010PropOp33
 70
     1
102
RTVSPost2010Prop34
280
     0
102
RTVSPost2010PropOp34
 70
     1
102
RTVSPost2010Prop35
280
     0
102
RTVSPost2010PropOp35
 70
     1
102
RTVSPost2010Prop36
280
     0
102
RTVSPost2010PropOp36
 70
     1
102
RTVSPost2010Prop37
 90
       50
102
RTVSPost2010PropOp37
 70
     1
102
RTVSPost2010Prop38
140
0.0
102
RTVSPost2010PropOp38
 70
     1
102
RTVSPost2010Prop39
140
1.0
102
RTVSPost2010PropOp39
 70
     1
102
RTVSPost2010Prop40
 90
        0
102
RTVSPost2010PropOp40
 70
     1
102
RTVSPost2010Prop41ColorIndex
 90
       18
102
RTVSPost2010Prop41ColorRGB
 90
        0
102
RTVSPost2010PropOp41
 70
     1
102
RTVSPost2010Prop42
 90
       50
102
RTVSPost2010PropOp42
 70
     1
102
RTVSPost2010Prop43
 90
        3
102
RTVSPost2010PropOp43
 70
     1
102
RTVSPost2010Prop44ColorIndex
 90
        5
102
RTVSPost2010Prop44ColorRGB
 90
      255
102
RTVSPost2010PropOp44
 70
     1
102
RTVSPost2010Prop45
280
     0
102
RTVSPost2010PropOp45
 70
     1
102
RTVSPost2010Prop46
 90
       50
102
RTVSPost2010PropOp46
 70
     1
102
RTVSPost2010Prop47
 90
       50
102
RTVSPost2010PropOp47
 70
     1
102
RTVSPost2010Prop48
 90
       50
102
RTVSPost2010PropOp48
 70
     1
102
RTVSPost2010Prop49
280
     0
102
RTVSPost2010PropOp49
 70
     1
102
RTVSPost2010Prop50
 90
       50
102
RTVSPost2010PropOp50
 70
     1
102
RTVSPost2010Prop51ColorIndex
 90
      256
102
RTVSPost2010Prop51ColorRGB
 90
-16777216
102
RTVSPost2010PropOp51
 70
     0
102
RTVSPost2010Prop52
140
1.0
102
RTVSPost2010PropOp52
 70
     0
102
RTVSPost2010Prop53
 90
        2
102
RTVSPost2010PropOp53
 70
     1
102
RTVSPost2010Prop54
  1
strokes_ogs.tif
102
RTVSPost2010PropOp54
 70
     1
102
RTVSPost2010Prop55
280
     0
102
RTVSPost2010PropOp55
 70
     1
102
RTVSPost2010Prop56
140
1.0
102
RTVSPost2010PropOp56
 70
     1
102
RTVSPost2010Prop57
140
1.0
102
RTVSPost2010PropOp57
 70
     1
102
RTVSPropertyOp0
 70
     1
102
RTVSPropertyOp1
 70
     1
102
RTVSPropertyOp2
 70
     1
102
RTVSPropertyOp3
 70
     1
102
RTVSPropertyOp4
 70
     1
102
RTVSPropertyOp5
 70
     1
102
RTVSPropertyOp6
 70
     1
102
RTVSPropertyOp7
 70
     1
102
RTVSPropertyOp8
 70
     1
102
RTVSPropertyOp9
 70
     1
102
RTVSPropertyOp10
 70
     1
102
RTVSPropertyOp11
 70
     1
102
RTVSPropertyOp12
 70
     1
102
RTVSPropertyOp13
 70
     1
102
RTVSPropertyOp14
 70
     1
102
RTVSPropertyOp15
 70
     1
102
RTVSPropertyOp16
 70
     1
102
RTVSPropertyOp17
 70
     1
102
RTVSPropertyOp18
 70
     1
102
RTVSPropertyOp19
 70
     1
102
RTVSPropertyOp20
 70
     1
102
RTVSPropertyOp21
 70
     1
102
RTVSPropertyOp22
 70
     1
102
RTVSPropertyOp23
 70
     1
102
RTVSPropertyOp24
 70
     1
102
RTVSPropertyOp25
 70
     1
102
RTVSPropertyOp26
 70
     1
102
RTVSPropertyOp27
 70
     1
102
RTVSPropertyOp28
 70
     1
102
RTVSPropertyOp29
 70
     1
102
RTVSPropertyOp30
 70
     1
102
RTVSPropertyOp31
 70
     1
102
RTVSPropertyOp32
 70
     1
102
RTVSPropertyOp33
 70
     1
102
RTVSPropertyOp34
 70
     1
102
RTVSPropertyOp35
 70
     1
102
RTVSPropertyOp36
 70
     1
102
RTVSPropertyOp37
 70
     1
102
RTVSPropertyOp38
 70
     1
102
RTVSPropertyOp39
 70
     1
102
RTVSPropertyOp40
 70
     1
102
RTVSPropertyOp41
 70
     1
102
RTVSPropertyOp42
 70
     1
102
RTVSPropertyOp43
 70
     1
102
RTVSPropertyOp44
 70
     1
102
RTVSPropertyOp45
 70
     1
102
RTVSPropertyOp46
 70
     1
102
RTVSPropertyOp47
 70
     1
102
RTVSPropertyOp48
 70
     1
102
RTVSPropertyOp49
 70
     1
102
RTVSPropertyOp50
 70
     1
102
RTVSPropertyOp51
 70
     0
102
RTVSPropertyOp52
 70
     0
102
RTVSPropertyOp53
 70
     1
102
RTVSPropertyOp54
 70
     1
102
RTVSPropertyOp55
 70
     1
102
RTVSPropertyOp56
 70
     1
102
RTVSPropertyOp57
 70
     1
102
RTVSPropertyOp58
 70
     1
102
RTVSPropertyOp59
 70
     1
102
RTVSPropertyOp60
 70
     1
102
RTVSPropertyOp61
 70
     1
102
RTVSPropertyOp62
 70
     1
  0
XRECORD
  5
2A7
102
{ACAD_REACTORS
330
2A6
102
}
330
2A6
100
AcDbXrecord
280
     1
102
RTVSPost2010Prop28
280
     0
102
RTVSPost2010PropOp28
 70
     1
102
RTVSPost2010Prop29
280
     1
102
RTVSPost2010PropOp29
 70
     1
102
RTVSPost2010Prop30
280
     1
102
RTVSPost2010PropOp30
 70
     1
102
RTVSPost2010Prop31
280
     0
102
RTVSPost2010PropOp31
 70
     1
102
RTVSPost2010Prop32
280
     0
102
RTVSPost2010PropOp32
 70
     1
102
RTVSPost2010Prop33
280
     0
102
RTVSPost2010PropOp33
 70
     1
102
RTVSPost2010Prop34
280
     0
102
RTVSPost2010PropOp34
 70
     1
102
RTVSPost2010Prop35
280
     0
102
RTVSPost2010PropOp35
 70
     1
102
RTVSPost2010Prop36
280
     0
102
RTVSPost2010PropOp36
 70
     1
102
RTVSPost2010Prop37
 90
       50
102
RTVSPost2010PropOp37
 70
     1
102
RTVSPost2010Prop38
140
0.0
102
RTVSPost2010PropOp38
 70
     1
102
RTVSPost2010Prop39
140
1.0
102
RTVSPost2010PropOp39
 70
     1
102
RTVSPost2010Prop40
 90
        0
102
RTVSPost2010PropOp40
 70
     1
102
RTVSPost2010Prop41ColorIndex
 90
       18
102
RTVSPost2010Prop41ColorRGB
 90
        0
102
RTVSPost2010PropOp41
 70
     1
102
RTVSPost2010Prop42
 90
       50
102
RTVSPost2010PropOp42
 70
     1
102
RTVSPost2010Prop43
 90
        3
102
RTVSPost2010PropOp43
 70
     1
102
RTVSPost2010Prop44ColorIndex
 90
        5
102
RTVSPost2010Prop44ColorRGB
 90
      255
102
RTVSPost2010PropOp44
 70
     1
102
RTVSPost2010Prop45
280
     0
102
RTVSPost2010PropOp45
 70
     1
102
RTVSPost2010Prop46
 90
       50
102
RTVSPost2010PropOp46
 70
     1
102
RTVSPost2010Prop47
 90
       50
102
RTVSPost2010PropOp47
 70
     1
102
RTVSPost2010Prop48
 90
       50
102
RTVSPost2010PropOp48
 70
     1
102
RTVSPost2010Prop49
280
     0
102
RTVSPost2010PropOp49
 70
     1
102
RTVSPost2010Prop50
 90
       50
102
RTVSPost2010PropOp50
 70
     1
102
RTVSPost2010Prop51ColorIndex
 90
      256
102
RTVSPost2010Prop51ColorRGB
 90
-16777216
102
RTVSPost2010PropOp51
 70
     0
102
RTVSPost2010Prop52
140
1.0
102
RTVSPost2010PropOp52
 70
     0
102
RTVSPost2010Prop53
 90
        2
102
RTVSPost2010PropOp53
 70
     1
102
RTVSPost2010Prop54
  1
strokes_ogs.tif
102
RTVSPost2010PropOp54
 70
     1
102
RTVSPost2010Prop55
280
     0
102
RTVSPost2010PropOp55
 70
     1
102
RTVSPost2010Prop56
140
1.0
102
RTVSPost2010PropOp56
 70
     1
102
RTVSPost2010Prop57
140
1.0
102
RTVSPost2010PropOp57
 70
     1
102
RTVSPropertyOp0
 70
     0
102
RTVSPropertyOp1
 70
     0
102
RTVSPropertyOp2
 70
     0
102
RTVSPropertyOp3
 70
     0
102
RTVSPropertyOp4
 70
     0
102
RTVSPropertyOp5
 70
     0
102
RTVSPropertyOp6
 70
     0
102
RTVSPropertyOp7
 70
     0
102
RTVSPropertyOp8
 70
     0
102
RTVSPropertyOp9
 70
     0
102
RTVSPropertyOp10
 70
     0
102
RTVSPropertyOp11
 70
     0
102
RTVSPropertyOp12
 70
     0
102
RTVSPropertyOp13
 70
     0
102
RTVSPropertyOp14
 70
     2
102
RTVSPropertyOp15
 70
     0
102
RTVSPropertyOp16
 70
     0
102
RTVSPropertyOp17
 70
     0
102
RTVSPropertyOp18
 70
     0
102
RTVSPropertyOp19
 70
     0
102
RTVSPropertyOp20
 70
     0
102
RTVSPropertyOp21
 70
     0
102
RTVSPropertyOp22
 70
     0
102
RTVSPropertyOp23
 70
     0
102
RTVSPropertyOp24
 70
     0
102
RTVSPropertyOp25
 70
     0
102
RTVSPropertyOp26
 70
     0
102
RTVSPropertyOp27
 70
     0
102
RTVSPropertyOp28
 70
     1
102
RTVSPropertyOp29
 70
     1
102
RTVSPropertyOp30
 70
     1
102
RTVSPropertyOp31
 70
     1
102
RTVSPropertyOp32
 70
     1
102
RTVSPropertyOp33
 70
     1
102
RTVSPropertyOp34
 70
     1
102
RTVSPropertyOp35
 70
     1
102
RTVSPropertyOp36
 70
     1
102
RTVSPropertyOp37
 70
     1
102
RTVSPropertyOp38
 70
     1
102
RTVSPropertyOp39
 70
     1
102
RTVSPropertyOp40
 70
     1
102
RTVSPropertyOp41
 70
     1
102
RTVSPropertyOp42
 70
     1
102
RTVSPropertyOp43
 70
     1
102
RTVSPropertyOp44
 70
     1
102
RTVSPropertyOp45
 70
     1
102
RTVSPropertyOp46
 70
     1
102
RTVSPropertyOp47
 70
     1
102
RTVSPropertyOp48
 70
     1
102
RTVSPropertyOp49
 70
     1
102
RTVSPropertyOp50
 70
     1
102
RTVSPropertyOp51
 70
     0
102
RTVSPropertyOp52
 70
     0
102
RTVSPropertyOp53
 70
     1
102
RTVSPropertyOp54
 70
     1
102
RTVSPropertyOp55
 70
     1
102
RTVSPropertyOp56
 70
     1
102
RTVSPropertyOp57
 70
     1
102
RTVSPropertyOp58
 70
     1
102
RTVSPropertyOp59
 70
     1
102
RTVSPropertyOp60
 70
     1
102
RTVSPropertyOp61
 70
     1
102
RTVSPropertyOp62
 70
     1
  0
XRECORD
  5
2A1
102
{ACAD_REACTORS
330
2A0
102
}
330
2A0
100
AcDbXrecord
280
     1
102
RTVSPost2010Prop28
280
     0
102
RTVSPost2010PropOp28
 70
     1
102
RTVSPost2010Prop29
280
     1
102
RTVSPost2010PropOp29
 70
     1
102
RTVSPost2010Prop30
280
     1
102
RTVSPost2010PropOp30
 70
     1
102
RTVSPost2010Prop31
280
     0
102
RTVSPost2010PropOp31
 70
     1
102
RTVSPost2010Prop32
280
     0
102
RTVSPost2010PropOp32
 70
     1
102
RTVSPost2010Prop33
280
     0
102
RTVSPost2010PropOp33
 70
     1
102
RTVSPost2010Prop34
280
     0
102
RTVSPost2010PropOp34
 70
     1
102
RTVSPost2010Prop35
280
     0
102
RTVSPost2010PropOp35
 70
     1
102
RTVSPost2010Prop36
280
     0
102
RTVSPost2010PropOp36
 70
     1
102
RTVSPost2010Prop37
 90
       50
102
RTVSPost2010PropOp37
 70
     1
102
RTVSPost2010Prop38
140
0.0
102
RTVSPost2010PropOp38
 70
     1
102
RTVSPost2010Prop39
140
1.0
102
RTVSPost2010PropOp39
 70
     1
102
RTVSPost2010Prop40
 90
        0
102
RTVSPost2010PropOp40
 70
     1
102
RTVSPost2010Prop41ColorIndex
 90
       18
102
RTVSPost2010Prop41ColorRGB
 90
        0
102
RTVSPost2010PropOp41
 70
     1
102
RTVSPost2010Prop42
 90
       50
102
RTVSPost2010PropOp42
 70
     1
102
RTVSPost2010Prop43
 90
        3
102
RTVSPost2010PropOp43
 70
     1
102
RTVSPost2010Prop44ColorIndex
 90
        5
102
RTVSPost2010Prop44ColorRGB
 90
      255
102
RTVSPost2010PropOp44
 70
     1
102
RTVSPost2010Prop45
280
     0
102
RTVSPost2010PropOp45
 70
     1
102
RTVSPost2010Prop46
 90
       50
102
RTVSPost2010PropOp46
 70
     1
102
RTVSPost2010Prop47
 90
       50
102
RTVSPost2010PropOp47
 70
     1
102
RTVSPost2010Prop48
 90
       50
102
RTVSPost2010PropOp48
 70
     1
102
RTVSPost2010Prop49
280
     0
102
RTVSPost2010PropOp49
 70
     1
102
RTVSPost2010Prop50
 90
       50
102
RTVSPost2010PropOp50
 70
     1
102
RTVSPost2010Prop51ColorIndex
 90
      256
102
RTVSPost2010Prop51ColorRGB
 90
-16777216
102
RTVSPost2010PropOp51
 70
     0
102
RTVSPost2010Prop52
140
1.0
102
RTVSPost2010PropOp52
 70
     0
102
RTVSPost2010Prop53
 90
        2
102
RTVSPost2010PropOp53
 70
     1
102
RTVSPost2010Prop54
  1
strokes_ogs.tif
102
RTVSPost2010PropOp54
 70
     1
102
RTVSPost2010Prop55
280
     0
102
RTVSPost2010PropOp55
 70
     1
102
RTVSPost2010Prop56
140
1.0
102
RTVSPost2010PropOp56
 70
     1
102
RTVSPost2010Prop57
140
1.0
102
RTVSPost2010PropOp57
 70
     1
102
RTVSPropertyOp0
 70
     1
102
RTVSPropertyOp1
 70
     1
102
RTVSPropertyOp2
 70
     1
102
RTVSPropertyOp3
 70
     1
102
RTVSPropertyOp4
 70
     1
102
RTVSPropertyOp5
 70
     1
102
RTVSPropertyOp6
 70
     1
102
RTVSPropertyOp7
 70
     1
102
RTVSPropertyOp8
 70
     1
102
RTVSPropertyOp9
 70
     1
102
RTVSPropertyOp10
 70
     1
102
RTVSPropertyOp11
 70
     1
102
RTVSPropertyOp12
 70
     1
102
RTVSPropertyOp13
 70
     1
102
RTVSPropertyOp14
 70
     1
102
RTVSPropertyOp15
 70
     1
102
RTVSPropertyOp16
 70
     1
102
RTVSPropertyOp17
 70
     1
102
RTVSPropertyOp18
 70
     1
102
RTVSPropertyOp19
 70
     1
102
RTVSPropertyOp20
 70
     1
102
RTVSPropertyOp21
 70
     1
102
RTVSPropertyOp22
 70
     1
102
RTVSPropertyOp23
 70
     1
102
RTVSPropertyOp24
 70
     1
102
RTVSPropertyOp25
 70
     1
102
RTVSPropertyOp26
 70
     1
102
RTVSPropertyOp27
 70
     1
102
RTVSPropertyOp28
 70
     1
102
RTVSPropertyOp29
 70
     1
102
RTVSPropertyOp30
 70
     1
102
RTVSPropertyOp31
 70
     1
102
RTVSPropertyOp32
 70
     1
102
RTVSPropertyOp33
 70
     1
102
RTVSPropertyOp34
 70
     1
102
RTVSPropertyOp35
 70
     1
102
RTVSPropertyOp36
 70
     1
102
RTVSPropertyOp37
 70
     1
102
RTVSPropertyOp38
 70
     1
102
RTVSPropertyOp39
 70
     1
102
RTVSPropertyOp40
 70
     1
102
RTVSPropertyOp41
 70
     1
102
RTVSPropertyOp42
 70
     1
102
RTVSPropertyOp43
 70
     1
102
RTVSPropertyOp44
 70
     1
102
RTVSPropertyOp45
 70
     1
102
RTVSPropertyOp46
 70
     1
102
RTVSPropertyOp47
 70
     1
102
RTVSPropertyOp48
 70
     1
102
RTVSPropertyOp49
 70
     1
102
RTVSPropertyOp50
 70
     1
102
RTVSPropertyOp51
 70
     0
102
RTVSPropertyOp52
 70
     0
102
RTVSPropertyOp53
 70
     1
102
RTVSPropertyOp54
 70
     1
102
RTVSPropertyOp55
 70
     1
102
RTVSPropertyOp56
 70
     1
102
RTVSPropertyOp57
 70
     1
102
RTVSPropertyOp58
 70
     1
102
RTVSPropertyOp59
 70
     1
102
RTVSPropertyOp60
 70
     1
102
RTVSPropertyOp61
 70
     1
102
RTVSPropertyOp62
 70
     1
  0
XRECORD
  5
2A9
102
{ACAD_REACTORS
330
2A8
102
}
330
2A8
100
AcDbXrecord
280
     1
102
RTVSPost2010Prop28
280
     0
102
RTVSPost2010PropOp28
 70
     1
102
RTVSPost2010Prop29
280
     1
102
RTVSPost2010PropOp29
 70
     1
102
RTVSPost2010Prop30
280
     1
102
RTVSPost2010PropOp30
 70
     1
102
RTVSPost2010Prop31
280
     0
102
RTVSPost2010PropOp31
 70
     1
102
RTVSPost2010Prop32
280
     0
102
RTVSPost2010PropOp32
 70
     1
102
RTVSPost2010Prop33
280
     0
102
RTVSPost2010PropOp33
 70
     1
102
RTVSPost2010Prop34
280
     0
102
RTVSPost2010PropOp34
 70
     1
102
RTVSPost2010Prop35
280
     0
102
RTVSPost2010PropOp35
 70
     1
102
RTVSPost2010Prop36
280
     0
102
RTVSPost2010PropOp36
 70
     1
102
RTVSPost2010Prop37
 90
       50
102
RTVSPost2010PropOp37
 70
     1
102
RTVSPost2010Prop38
140
0.0
102
RTVSPost2010PropOp38
 70
     1
102
RTVSPost2010Prop39
140
1.0
102
RTVSPost2010PropOp39
 70
     1
102
RTVSPost2010Prop40
 90
        0
102
RTVSPost2010PropOp40
 70
     1
102
RTVSPost2010Prop41ColorIndex
 90
       18
102
RTVSPost2010Prop41ColorRGB
 90
        0
102
RTVSPost2010PropOp41
 70
     1
102
RTVSPost2010Prop42
 90
       50
102
RTVSPost2010PropOp42
 70
     1
102
RTVSPost2010Prop43
 90
        3
102
RTVSPost2010PropOp43
 70
     1
102
RTVSPost2010Prop44ColorIndex
 90
        5
102
RTVSPost2010Prop44ColorRGB
 90
      255
102
RTVSPost2010PropOp44
 70
     1
102
RTVSPost2010Prop45
280
     0
102
RTVSPost2010PropOp45
 70
     1
102
RTVSPost2010Prop46
 90
       50
102
RTVSPost2010PropOp46
 70
     1
102
RTVSPost2010Prop47
 90
       50
102
RTVSPost2010PropOp47
 70
     1
102
RTVSPost2010Prop48
 90
       50
102
RTVSPost2010PropOp48
 70
     1
102
RTVSPost2010Prop49
280
     0
102
RTVSPost2010PropOp49
 70
     1
102
RTVSPost2010Prop50
 90
       50
102
RTVSPost2010PropOp50
 70
     1
102
RTVSPost2010Prop51ColorIndex
 90
      256
102
RTVSPost2010Prop51ColorRGB
 90
-16777216
102
RTVSPost2010PropOp51
 70
     0
102
RTVSPost2010Prop52
140
1.0
102
RTVSPost2010PropOp52
 70
     0
102
RTVSPost2010Prop53
 90
        2
102
RTVSPost2010PropOp53
 70
     1
102
RTVSPost2010Prop54
  1
strokes_ogs.tif
102
RTVSPost2010PropOp54
 70
     1
102
RTVSPost2010Prop55
280
     0
102
RTVSPost2010PropOp55
 70
     1
102
RTVSPost2010Prop56
140
1.0
102
RTVSPost2010PropOp56
 70
     1
102
RTVSPost2010Prop57
140
1.0
102
RTVSPost2010PropOp57
 70
     1
102
RTVSPropertyOp0
 70
     0
102
RTVSPropertyOp1
 70
     0
102
RTVSPropertyOp2
 70
     0
102
RTVSPropertyOp3
 70
     0
102
RTVSPropertyOp4
 70
     0
102
RTVSPropertyOp5
 70
     0
102
RTVSPropertyOp6
 70
     0
102
RTVSPropertyOp7
 70
     0
102
RTVSPropertyOp8
 70
     0
102
RTVSPropertyOp9
 70
     0
102
RTVSPropertyOp10
 70
     0
102
RTVSPropertyOp11
 70
     0
102
RTVSPropertyOp12
 70
     0
102
RTVSPropertyOp13
 70
     0
102
RTVSPropertyOp14
 70
     2
102
RTVSPropertyOp15
 70
     0
102
RTVSPropertyOp16
 70
     0
102
RTVSPropertyOp17
 70
     0
102
RTVSPropertyOp18
 70
     0
102
RTVSPropertyOp19
 70
     0
102
RTVSPropertyOp20
 70
     0
102
RTVSPropertyOp21
 70
     0
102
RTVSPropertyOp22
 70
     0
102
RTVSPropertyOp23
 70
     0
102
RTVSPropertyOp24
 70
     0
102
RTVSPropertyOp25
 70
     0
102
RTVSPropertyOp26
 70
     0
102
RTVSPropertyOp27
 70
     0
102
RTVSPropertyOp28
 70
     1
102
RTVSPropertyOp29
 70
     1
102
RTVSPropertyOp30
 70
     1
102
RTVSPropertyOp31
 70
     1
102
RTVSPropertyOp32
 70
     1
102
RTVSPropertyOp33
 70
     1
102
RTVSPropertyOp34
 70
     1
102
RTVSPropertyOp35
 70
     1
102
RTVSPropertyOp36
 70
     1
102
RTVSPropertyOp37
 70
     1
102
RTVSPropertyOp38
 70
     1
102
RTVSPropertyOp39
 70
     1
102
RTVSPropertyOp40
 70
     1
102
RTVSPropertyOp41
 70
     1
102
RTVSPropertyOp42
 70
     1
102
RTVSPropertyOp43
 70
     1
102
RTVSPropertyOp44
 70
     1
102
RTVSPropertyOp45
 70
     1
102
RTVSPropertyOp46
 70
     1
102
RTVSPropertyOp47
 70
     1
102
RTVSPropertyOp48
 70
     1
102
RTVSPropertyOp49
 70
     1
102
RTVSPropertyOp50
 70
     1
102
RTVSPropertyOp51
 70
     0
102
RTVSPropertyOp52
 70
     0
102
RTVSPropertyOp53
 70
     1
102
RTVSPropertyOp54
 70
     1
102
RTVSPropertyOp55
 70
     1
102
RTVSPropertyOp56
 70
     1
102
RTVSPropertyOp57
 70
     1
102
RTVSPropertyOp58
 70
     1
102
RTVSPropertyOp59
 70
     1
102
RTVSPropertyOp60
 70
     1
102
RTVSPropertyOp61
 70
     1
102
RTVSPropertyOp62
 70
     1
  0
XRECORD
  5
299
102
{ACAD_REACTORS
330
298
102
}
330
298
100
AcDbXrecord
280
     1
102
RTVSPost2010Prop28
280
     0
102
RTVSPost2010PropOp28
 70
     1
102
RTVSPost2010Prop29
280
     1
102
RTVSPost2010PropOp29
 70
     1
102
RTVSPost2010Prop30
280
     1
102
RTVSPost2010PropOp30
 70
     1
102
RTVSPost2010Prop31
280
     0
102
RTVSPost2010PropOp31
 70
     1
102
RTVSPost2010Prop32
280
     0
102
RTVSPost2010PropOp32
 70
     1
102
RTVSPost2010Prop33
280
     0
102
RTVSPost2010PropOp33
 70
     1
102
RTVSPost2010Prop34
280
     0
102
RTVSPost2010PropOp34
 70
     1
102
RTVSPost2010Prop35
280
     0
102
RTVSPost2010PropOp35
 70
     1
102
RTVSPost2010Prop36
280
     0
102
RTVSPost2010PropOp36
 70
     1
102
RTVSPost2010Prop37
 90
       50
102
RTVSPost2010PropOp37
 70
     1
102
RTVSPost2010Prop38
140
0.0
102
RTVSPost2010PropOp38
 70
     1
102
RTVSPost2010Prop39
140
1.0
102
RTVSPost2010PropOp39
 70
     1
102
RTVSPost2010Prop40
 90
        0
102
RTVSPost2010PropOp40
 70
     1
102
RTVSPost2010Prop41ColorIndex
 90
       18
102
RTVSPost2010Prop41ColorRGB
 90
        0
102
RTVSPost2010PropOp41
 70
     1
102
RTVSPost2010Prop42
 90
       50
102
RTVSPost2010PropOp42
 70
     1
102
RTVSPost2010Prop43
 90
        3
102
RTVSPost2010PropOp43
 70
     1
102
RTVSPost2010Prop44ColorIndex
 90
        5
102
RTVSPost2010Prop44ColorRGB
 90
      255
102
RTVSPost2010PropOp44
 70
     1
102
RTVSPost2010Prop45
280
     0
102
RTVSPost2010PropOp45
 70
     1
102
RTVSPost2010Prop46
 90
       50
102
RTVSPost2010PropOp46
 70
     1
102
RTVSPost2010Prop47
 90
       50
102
RTVSPost2010PropOp47
 70
     1
102
RTVSPost2010Prop48
 90
       50
102
RTVSPost2010PropOp48
 70
     1
102
RTVSPost2010Prop49
280
     0
102
RTVSPost2010PropOp49
 70
     1
102
RTVSPost2010Prop50
 90
       50
102
RTVSPost2010PropOp50
 70
     1
102
RTVSPost2010Prop51ColorIndex
 90
      256
102
RTVSPost2010Prop51ColorRGB
 90
-16777216
102
RTVSPost2010PropOp51
 70
     0
102
RTVSPost2010Prop52
140
1.0
102
RTVSPost2010PropOp52
 70
     0
102
RTVSPost2010Prop53
 90
        2
102
RTVSPost2010PropOp53
 70
     1
102
RTVSPost2010Prop54
  1
strokes_ogs.tif
102
RTVSPost2010PropOp54
 70
     1
102
RTVSPost2010Prop55
280
     0
102
RTVSPost2010PropOp55
 70
     1
102
RTVSPost2010Prop56
140
1.0
102
RTVSPost2010PropOp56
 70
     1
102
RTVSPost2010Prop57
140
1.0
102
RTVSPost2010PropOp57
 70
     1
102
RTVSPropertyOp0
 70
     1
102
RTVSPropertyOp1
 70
     1
102
RTVSPropertyOp2
 70
     1
102
RTVSPropertyOp3
 70
     1
102
RTVSPropertyOp4
 70
     1
102
RTVSPropertyOp5
 70
     1
102
RTVSPropertyOp6
 70
     1
102
RTVSPropertyOp7
 70
     1
102
RTVSPropertyOp8
 70
     1
102
RTVSPropertyOp9
 70
     1
102
RTVSPropertyOp10
 70
     1
102
RTVSPropertyOp11
 70
     1
102
RTVSPropertyOp12
 70
     1
102
RTVSPropertyOp13
 70
     1
102
RTVSPropertyOp14
 70
     1
102
RTVSPropertyOp15
 70
     1
102
RTVSPropertyOp16
 70
     1
102
RTVSPropertyOp17
 70
     1
102
RTVSPropertyOp18
 70
     1
102
RTVSPropertyOp19
 70
     1
102
RTVSPropertyOp20
 70
     1
102
RTVSPropertyOp21
 70
     1
102
RTVSPropertyOp22
 70
     1
102
RTVSPropertyOp23
 70
     1
102
RTVSPropertyOp24
 70
     1
102
RTVSPropertyOp25
 70
     1
102
RTVSPropertyOp26
 70
     1
102
RTVSPropertyOp27
 70
     1
102
RTVSPropertyOp28
 70
     1
102
RTVSPropertyOp29
 70
     1
102
RTVSPropertyOp30
 70
     1
102
RTVSPropertyOp31
 70
     1
102
RTVSPropertyOp32
 70
     1
102
RTVSPropertyOp33
 70
     1
102
RTVSPropertyOp34
 70
     1
102
RTVSPropertyOp35
 70
     1
102
RTVSPropertyOp36
 70
     1
102
RTVSPropertyOp37
 70
     1
102
RTVSPropertyOp38
 70
     1
102
RTVSPropertyOp39
 70
     1
102
RTVSPropertyOp40
 70
     1
102
RTVSPropertyOp41
 70
     1
102
RTVSPropertyOp42
 70
     1
102
RTVSPropertyOp43
 70
     1
102
RTVSPropertyOp44
 70
     1
102
RTVSPropertyOp45
 70
     1
102
RTVSPropertyOp46
 70
     1
102
RTVSPropertyOp47
 70
     1
102
RTVSPropertyOp48
 70
     1
102
RTVSPropertyOp49
 70
     1
102
RTVSPropertyOp50
 70
     1
102
RTVSPropertyOp51
 70
     0
102
RTVSPropertyOp52
 70
     0
102
RTVSPropertyOp53
 70
     1
102
RTVSPropertyOp54
 70
     1
102
RTVSPropertyOp55
 70
     1
102
RTVSPropertyOp56
 70
     1
102
RTVSPropertyOp57
 70
     1
102
RTVSPropertyOp58
 70
     1
102
RTVSPropertyOp59
 70
     1
102
RTVSPropertyOp60
 70
     1
102
RTVSPropertyOp61
 70
     1
102
RTVSPropertyOp62
 70
     1
  0
XRECORD
  5
2B5
102
{ACAD_REACTORS
330
2B4
102
}
330
2B4
100
AcDbXrecord
280
     1
102
RTVSPost2010Prop28
280
     0
102
RTVSPost2010PropOp28
 70
     1
102
RTVSPost2010Prop29
280
     1
102
RTVSPost2010PropOp29
 70
     1
102
RTVSPost2010Prop30
280
     1
102
RTVSPost2010PropOp30
 70
     1
102
RTVSPost2010Prop31
280
     0
102
RTVSPost2010PropOp31
 70
     1
102
RTVSPost2010Prop32
280
     0
102
RTVSPost2010PropOp32
 70
     1
102
RTVSPost2010Prop33
280
     0
102
RTVSPost2010PropOp33
 70
     1
102
RTVSPost2010Prop34
280
     0
102
RTVSPost2010PropOp34
 70
     1
102
RTVSPost2010Prop35
280
     0
102
RTVSPost2010PropOp35
 70
     1
102
RTVSPost2010Prop36
280
     0
102
RTVSPost2010PropOp36
 70
     1
102
RTVSPost2010Prop37
 90
       50
102
RTVSPost2010PropOp37
 70
     1
102
RTVSPost2010Prop38
140
0.0
102
RTVSPost2010PropOp38
 70
     1
102
RTVSPost2010Prop39
140
1.0
102
RTVSPost2010PropOp39
 70
     1
102
RTVSPost2010Prop40
 90
        0
102
RTVSPost2010PropOp40
 70
     1
102
RTVSPost2010Prop41ColorIndex
 90
       18
102
RTVSPost2010Prop41ColorRGB
 90
        0
102
RTVSPost2010PropOp41
 70
     1
102
RTVSPost2010Prop42
 90
       50
102
RTVSPost2010PropOp42
 70
     1
102
RTVSPost2010Prop43
 90
        3
102
RTVSPost2010PropOp43
 70
     1
102
RTVSPost2010Prop44ColorIndex
 90
        5
102
RTVSPost2010Prop44ColorRGB
 90
      255
102
RTVSPost2010PropOp44
 70
     1
102
RTVSPost2010Prop45
280
     0
102
RTVSPost2010PropOp45
 70
     1
102
RTVSPost2010Prop46
 90
       50
102
RTVSPost2010PropOp46
 70
     1
102
RTVSPost2010Prop47
 90
       50
102
RTVSPost2010PropOp47
 70
     1
102
RTVSPost2010Prop48
 90
       50
102
RTVSPost2010PropOp48
 70
     1
102
RTVSPost2010Prop49
280
     0
102
RTVSPost2010PropOp49
 70
     1
102
RTVSPost2010Prop50
 90
       50
102
RTVSPost2010PropOp50
 70
     1
102
RTVSPost2010Prop51ColorIndex
 90
      256
102
RTVSPost2010Prop51ColorRGB
 90
-16777216
102
RTVSPost2010PropOp51
 70
     0
102
RTVSPost2010Prop52
140
1.0
102
RTVSPost2010PropOp52
 70
     0
102
RTVSPost2010Prop53
 90
        2
102
RTVSPost2010PropOp53
 70
     1
102
RTVSPost2010Prop54
  1
strokes_ogs.tif
102
RTVSPost2010PropOp54
 70
     1
102
RTVSPost2010Prop55
280
     0
102
RTVSPost2010PropOp55
 70
     1
102
RTVSPost2010Prop56
140
1.0
102
RTVSPost2010PropOp56
 70
     1
102
RTVSPost2010Prop57
140
1.0
102
RTVSPost2010PropOp57
 70
     1
102
RTVSPropertyOp0
 70
     1
102
RTVSPropertyOp1
 70
     1
102
RTVSPropertyOp2
 70
     1
102
RTVSPropertyOp3
 70
     1
102
RTVSPropertyOp4
 70
     1
102
RTVSPropertyOp5
 70
     1
102
RTVSPropertyOp6
 70
     1
102
RTVSPropertyOp7
 70
     1
102
RTVSPropertyOp8
 70
     1
102
RTVSPropertyOp9
 70
     1
102
RTVSPropertyOp10
 70
     1
102
RTVSPropertyOp11
 70
     1
102
RTVSPropertyOp12
 70
     1
102
RTVSPropertyOp13
 70
     1
102
RTVSPropertyOp14
 70
     1
102
RTVSPropertyOp15
 70
     1
102
RTVSPropertyOp16
 70
     1
102
RTVSPropertyOp17
 70
     1
102
RTVSPropertyOp18
 70
     1
102
RTVSPropertyOp19
 70
     1
102
RTVSPropertyOp20
 70
     1
102
RTVSPropertyOp21
 70
     1
102
RTVSPropertyOp22
 70
     1
102
RTVSPropertyOp23
 70
     1
102
RTVSPropertyOp24
 70
     1
102
RTVSPropertyOp25
 70
     1
102
RTVSPropertyOp26
 70
     1
102
RTVSPropertyOp27
 70
     1
102
RTVSPropertyOp28
 70
     1
102
RTVSPropertyOp29
 70
     1
102
RTVSPropertyOp30
 70
     1
102
RTVSPropertyOp31
 70
     1
102
RTVSPropertyOp32
 70
     1
102
RTVSPropertyOp33
 70
     1
102
RTVSPropertyOp34
 70
     1
102
RTVSPropertyOp35
 70
     1
102
RTVSPropertyOp36
 70
     1
102
RTVSPropertyOp37
 70
     1
102
RTVSPropertyOp38
 70
     1
102
RTVSPropertyOp39
 70
     1
102
RTVSPropertyOp40
 70
     1
102
RTVSPropertyOp41
 70
     1
102
RTVSPropertyOp42
 70
     1
102
RTVSPropertyOp43
 70
     1
102
RTVSPropertyOp44
 70
     1
102
RTVSPropertyOp45
 70
     1
102
RTVSPropertyOp46
 70
     1
102
RTVSPropertyOp47
 70
     1
102
RTVSPropertyOp48
 70
     1
102
RTVSPropertyOp49
 70
     1
102
RTVSPropertyOp50
 70
     1
102
RTVSPropertyOp51
 70
     0
102
RTVSPropertyOp52
 70
     0
102
RTVSPropertyOp53
 70
     1
102
RTVSPropertyOp54
 70
     1
102
RTVSPropertyOp55
 70
     1
102
RTVSPropertyOp56
 70
     1
102
RTVSPropertyOp57
 70
     1
102
RTVSPropertyOp58
 70
     1
102
RTVSPropertyOp59
 70
     1
102
RTVSPropertyOp60
 70
     1
102
RTVSPropertyOp61
 70
     1
102
RTVSPropertyOp62
 70
     1
  0
XRECORD
  5
2B3
102
{ACAD_REACTORS
330
2B2
102
}
330
2B2
100
AcDbXrecord
280
     1
102
RTVSPost2010Prop28
280
     0
102
RTVSPost2010PropOp28
 70
     1
102
RTVSPost2010Prop29
280
     1
102
RTVSPost2010PropOp29
 70
     1
102
RTVSPost2010Prop30
280
     1
102
RTVSPost2010PropOp30
 70
     1
102
RTVSPost2010Prop31
280
     0
102
RTVSPost2010PropOp31
 70
     1
102
RTVSPost2010Prop32
280
     0
102
RTVSPost2010PropOp32
 70
     1
102
RTVSPost2010Prop33
280
     0
102
RTVSPost2010PropOp33
 70
     1
102
RTVSPost2010Prop34
280
     0
102
RTVSPost2010PropOp34
 70
     1
102
RTVSPost2010Prop35
280
     0
102
RTVSPost2010PropOp35
 70
     1
102
RTVSPost2010Prop36
280
     0
102
RTVSPost2010PropOp36
 70
     1
102
RTVSPost2010Prop37
 90
       50
102
RTVSPost2010PropOp37
 70
     1
102
RTVSPost2010Prop38
140
0.0
102
RTVSPost2010PropOp38
 70
     1
102
RTVSPost2010Prop39
140
1.0
102
RTVSPost2010PropOp39
 70
     1
102
RTVSPost2010Prop40
 90
        0
102
RTVSPost2010PropOp40
 70
     1
102
RTVSPost2010Prop41ColorIndex
 90
       18
102
RTVSPost2010Prop41ColorRGB
 90
        0
102
RTVSPost2010PropOp41
 70
     1
102
RTVSPost2010Prop42
 90
       50
102
RTVSPost2010PropOp42
 70
     1
102
RTVSPost2010Prop43
 90
        3
102
RTVSPost2010PropOp43
 70
     1
102
RTVSPost2010Prop44ColorIndex
 90
        5
102
RTVSPost2010Prop44ColorRGB
 90
      255
102
RTVSPost2010PropOp44
 70
     1
102
RTVSPost2010Prop45
280
     0
102
RTVSPost2010PropOp45
 70
     1
102
RTVSPost2010Prop46
 90
       50
102
RTVSPost2010PropOp46
 70
     1
102
RTVSPost2010Prop47
 90
       50
102
RTVSPost2010PropOp47
 70
     1
102
RTVSPost2010Prop48
 90
       50
102
RTVSPost2010PropOp48
 70
     1
102
RTVSPost2010Prop49
280
     0
102
RTVSPost2010PropOp49
 70
     1
102
RTVSPost2010Prop50
 90
       50
102
RTVSPost2010PropOp50
 70
     1
102
RTVSPost2010Prop51ColorIndex
 90
      256
102
RTVSPost2010Prop51ColorRGB
 90
-16777216
102
RTVSPost2010PropOp51
 70
     0
102
RTVSPost2010Prop52
140
1.0
102
RTVSPost2010PropOp52
 70
     0
102
RTVSPost2010Prop53
 90
        2
102
RTVSPost2010PropOp53
 70
     1
102
RTVSPost2010Prop54
  1
strokes_ogs.tif
102
RTVSPost2010PropOp54
 70
     1
102
RTVSPost2010Prop55
280
     0
102
RTVSPost2010PropOp55
 70
     1
102
RTVSPost2010Prop56
140
1.0
102
RTVSPost2010PropOp56
 70
     1
102
RTVSPost2010Prop57
140
1.0
102
RTVSPost2010PropOp57
 70
     1
102
RTVSPropertyOp0
 70
     1
102
RTVSPropertyOp1
 70
     1
102
RTVSPropertyOp2
 70
     1
102
RTVSPropertyOp3
 70
     1
102
RTVSPropertyOp4
 70
     1
102
RTVSPropertyOp5
 70
     1
102
RTVSPropertyOp6
 70
     1
102
RTVSPropertyOp7
 70
     1
102
RTVSPropertyOp8
 70
     1
102
RTVSPropertyOp9
 70
     1
102
RTVSPropertyOp10
 70
     1
102
RTVSPropertyOp11
 70
     1
102
RTVSPropertyOp12
 70
     1
102
RTVSPropertyOp13
 70
     1
102
RTVSPropertyOp14
 70
     1
102
RTVSPropertyOp15
 70
     1
102
RTVSPropertyOp16
 70
     1
102
RTVSPropertyOp17
 70
     1
102
RTVSPropertyOp18
 70
     1
102
RTVSPropertyOp19
 70
     1
102
RTVSPropertyOp20
 70
     1
102
RTVSPropertyOp21
 70
     1
102
RTVSPropertyOp22
 70
     1
102
RTVSPropertyOp23
 70
     1
102
RTVSPropertyOp24
 70
     1
102
RTVSPropertyOp25
 70
     1
102
RTVSPropertyOp26
 70
     1
102
RTVSPropertyOp27
 70
     1
102
RTVSPropertyOp28
 70
     1
102
RTVSPropertyOp29
 70
     1
102
RTVSPropertyOp30
 70
     1
102
RTVSPropertyOp31
 70
     1
102
RTVSPropertyOp32
 70
     1
102
RTVSPropertyOp33
 70
     1
102
RTVSPropertyOp34
 70
     1
102
RTVSPropertyOp35
 70
     1
102
RTVSPropertyOp36
 70
     1
102
RTVSPropertyOp37
 70
     1
102
RTVSPropertyOp38
 70
     1
102
RTVSPropertyOp39
 70
     1
102
RTVSPropertyOp40
 70
     1
102
RTVSPropertyOp41
 70
     1
102
RTVSPropertyOp42
 70
     1
102
RTVSPropertyOp43
 70
     1
102
RTVSPropertyOp44
 70
     1
102
RTVSPropertyOp45
 70
     1
102
RTVSPropertyOp46
 70
     1
102
RTVSPropertyOp47
 70
     1
102
RTVSPropertyOp48
 70
     1
102
RTVSPropertyOp49
 70
     1
102
RTVSPropertyOp50
 70
     1
102
RTVSPropertyOp51
 70
     0
102
RTVSPropertyOp52
 70
     0
102
RTVSPropertyOp53
 70
     1
102
RTVSPropertyOp54
 70
     1
102
RTVSPropertyOp55
 70
     1
102
RTVSPropertyOp56
 70
     1
102
RTVSPropertyOp57
 70
     1
102
RTVSPropertyOp58
 70
     1
102
RTVSPropertyOp59
 70
     1
102
RTVSPropertyOp60
 70
     1
102
RTVSPropertyOp61
 70
     1
102
RTVSPropertyOp62
 70
     1
  0
XRECORD
  5
2AD
102
{ACAD_REACTORS
330
2AC
102
}
330
2AC
100
AcDbXrecord
280
     1
102
RTVSPost2010Prop28
280
     0
102
RTVSPost2010PropOp28
 70
     1
102
RTVSPost2010Prop29
280
     1
102
RTVSPost2010PropOp29
 70
     1
102
RTVSPost2010Prop30
280
     1
102
RTVSPost2010PropOp30
 70
     1
102
RTVSPost2010Prop31
280
     0
102
RTVSPost2010PropOp31
 70
     1
102
RTVSPost2010Prop32
280
     0
102
RTVSPost2010PropOp32
 70
     1
102
RTVSPost2010Prop33
280
     0
102
RTVSPost2010PropOp33
 70
     1
102
RTVSPost2010Prop34
280
     0
102
RTVSPost2010PropOp34
 70
     1
102
RTVSPost2010Prop35
280
     0
102
RTVSPost2010PropOp35
 70
     1
102
RTVSPost2010Prop36
280
     0
102
RTVSPost2010PropOp36
 70
     1
102
RTVSPost2010Prop37
 90
       50
102
RTVSPost2010PropOp37
 70
     1
102
RTVSPost2010Prop38
140
0.0
102
RTVSPost2010PropOp38
 70
     1
102
RTVSPost2010Prop39
140
1.0
102
RTVSPost2010PropOp39
 70
     1
102
RTVSPost2010Prop40
 90
        0
102
RTVSPost2010PropOp40
 70
     1
102
RTVSPost2010Prop41ColorIndex
 90
       18
102
RTVSPost2010Prop41ColorRGB
 90
        0
102
RTVSPost2010PropOp41
 70
     1
102
RTVSPost2010Prop42
 90
       50
102
RTVSPost2010PropOp42
 70
     1
102
RTVSPost2010Prop43
 90
        3
102
RTVSPost2010PropOp43
 70
     1
102
RTVSPost2010Prop44ColorIndex
 90
        5
102
RTVSPost2010Prop44ColorRGB
 90
      255
102
RTVSPost2010PropOp44
 70
     1
102
RTVSPost2010Prop45
280
     0
102
RTVSPost2010PropOp45
 70
     1
102
RTVSPost2010Prop46
 90
       50
102
RTVSPost2010PropOp46
 70
     1
102
RTVSPost2010Prop47
 90
       50
102
RTVSPost2010PropOp47
 70
     1
102
RTVSPost2010Prop48
 90
       50
102
RTVSPost2010PropOp48
 70
     1
102
RTVSPost2010Prop49
280
     0
102
RTVSPost2010PropOp49
 70
     1
102
RTVSPost2010Prop50
 90
       50
102
RTVSPost2010PropOp50
 70
     1
102
RTVSPost2010Prop51ColorIndex
 90
      256
102
RTVSPost2010Prop51ColorRGB
 90
-16777216
102
RTVSPost2010PropOp51
 70
     0
102
RTVSPost2010Prop52
140
1.0
102
RTVSPost2010PropOp52
 70
     0
102
RTVSPost2010Prop53
 90
        2
102
RTVSPost2010PropOp53
 70
     1
102
RTVSPost2010Prop54
  1
strokes_ogs.tif
102
RTVSPost2010PropOp54
 70
     1
102
RTVSPost2010Prop55
280
     0
102
RTVSPost2010PropOp55
 70
     1
102
RTVSPost2010Prop56
140
1.0
102
RTVSPost2010PropOp56
 70
     1
102
RTVSPost2010Prop57
140
1.0
102
RTVSPost2010PropOp57
 70
     1
102
RTVSPropertyOp0
 70
     1
102
RTVSPropertyOp1
 70
     1
102
RTVSPropertyOp2
 70
     1
102
RTVSPropertyOp3
 70
     1
102
RTVSPropertyOp4
 70
     1
102
RTVSPropertyOp5
 70
     1
102
RTVSPropertyOp6
 70
     1
102
RTVSPropertyOp7
 70
     1
102
RTVSPropertyOp8
 70
     1
102
RTVSPropertyOp9
 70
     1
102
RTVSPropertyOp10
 70
     1
102
RTVSPropertyOp11
 70
     1
102
RTVSPropertyOp12
 70
     1
102
RTVSPropertyOp13
 70
     1
102
RTVSPropertyOp14
 70
     1
102
RTVSPropertyOp15
 70
     1
102
RTVSPropertyOp16
 70
     1
102
RTVSPropertyOp17
 70
     1
102
RTVSPropertyOp18
 70
     1
102
RTVSPropertyOp19
 70
     1
102
RTVSPropertyOp20
 70
     1
102
RTVSPropertyOp21
 70
     1
102
RTVSPropertyOp22
 70
     1
102
RTVSPropertyOp23
 70
     1
102
RTVSPropertyOp24
 70
     1
102
RTVSPropertyOp25
 70
     1
102
RTVSPropertyOp26
 70
     1
102
RTVSPropertyOp27
 70
     1
102
RTVSPropertyOp28
 70
     1
102
RTVSPropertyOp29
 70
     1
102
RTVSPropertyOp30
 70
     1
102
RTVSPropertyOp31
 70
     1
102
RTVSPropertyOp32
 70
     1
102
RTVSPropertyOp33
 70
     1
102
RTVSPropertyOp34
 70
     1
102
RTVSPropertyOp35
 70
     1
102
RTVSPropertyOp36
 70
     1
102
RTVSPropertyOp37
 70
     1
102
RTVSPropertyOp38
 70
     1
102
RTVSPropertyOp39
 70
     1
102
RTVSPropertyOp40
 70
     1
102
RTVSPropertyOp41
 70
     1
102
RTVSPropertyOp42
 70
     1
102
RTVSPropertyOp43
 70
     1
102
RTVSPropertyOp44
 70
     1
102
RTVSPropertyOp45
 70
     1
102
RTVSPropertyOp46
 70
     1
102
RTVSPropertyOp47
 70
     1
102
RTVSPropertyOp48
 70
     1
102
RTVSPropertyOp49
 70
     1
102
RTVSPropertyOp50
 70
     1
102
RTVSPropertyOp51
 70
     0
102
RTVSPropertyOp52
 70
     0
102
RTVSPropertyOp53
 70
     1
102
RTVSPropertyOp54
 70
     1
102
RTVSPropertyOp55
 70
     1
102
RTVSPropertyOp56
 70
     1
102
RTVSPropertyOp57
 70
     1
102
RTVSPropertyOp58
 70
     1
102
RTVSPropertyOp59
 70
     1
102
RTVSPropertyOp60
 70
     1
102
RTVSPropertyOp61
 70
     1
102
RTVSPropertyOp62
 70
     1
  0
XRECORD
  5
2AF
102
{ACAD_REACTORS
330
2AE
102
}
330
2AE
100
AcDbXrecord
280
     1
102
RTVSPost2010Prop28
280
     0
102
RTVSPost2010PropOp28
 70
     1
102
RTVSPost2010Prop29
280
     1
102
RTVSPost2010PropOp29
 70
     1
102
RTVSPost2010Prop30
280
     1
102
RTVSPost2010PropOp30
 70
     1
102
RTVSPost2010Prop31
280
     0
102
RTVSPost2010PropOp31
 70
     1
102
RTVSPost2010Prop32
280
     0
102
RTVSPost2010PropOp32
 70
     1
102
RTVSPost2010Prop33
280
     0
102
RTVSPost2010PropOp33
 70
     1
102
RTVSPost2010Prop34
280
     0
102
RTVSPost2010PropOp34
 70
     1
102
RTVSPost2010Prop35
280
     0
102
RTVSPost2010PropOp35
 70
     1
102
RTVSPost2010Prop36
280
     0
102
RTVSPost2010PropOp36
 70
     1
102
RTVSPost2010Prop37
 90
       50
102
RTVSPost2010PropOp37
 70
     1
102
RTVSPost2010Prop38
140
0.0
102
RTVSPost2010PropOp38
 70
     1
102
RTVSPost2010Prop39
140
1.0
102
RTVSPost2010PropOp39
 70
     1
102
RTVSPost2010Prop40
 90
        0
102
RTVSPost2010PropOp40
 70
     1
102
RTVSPost2010Prop41ColorIndex
 90
       18
102
RTVSPost2010Prop41ColorRGB
 90
        0
102
RTVSPost2010PropOp41
 70
     1
102
RTVSPost2010Prop42
 90
       50
102
RTVSPost2010PropOp42
 70
     1
102
RTVSPost2010Prop43
 90
        3
102
RTVSPost2010PropOp43
 70
     1
102
RTVSPost2010Prop44ColorIndex
 90
        5
102
RTVSPost2010Prop44ColorRGB
 90
      255
102
RTVSPost2010PropOp44
 70
     1
102
RTVSPost2010Prop45
280
     0
102
RTVSPost2010PropOp45
 70
     1
102
RTVSPost2010Prop46
 90
       50
102
RTVSPost2010PropOp46
 70
     1
102
RTVSPost2010Prop47
 90
       50
102
RTVSPost2010PropOp47
 70
     1
102
RTVSPost2010Prop48
 90
       50
102
RTVSPost2010PropOp48
 70
     1
102
RTVSPost2010Prop49
280
     0
102
RTVSPost2010PropOp49
 70
     1
102
RTVSPost2010Prop50
 90
       50
102
RTVSPost2010PropOp50
 70
     1
102
RTVSPost2010Prop51ColorIndex
 90
      256
102
RTVSPost2010Prop51ColorRGB
 90
-16777216
102
RTVSPost2010PropOp51
 70
     0
102
RTVSPost2010Prop52
140
1.0
102
RTVSPost2010PropOp52
 70
     0
102
RTVSPost2010Prop53
 90
        2
102
RTVSPost2010PropOp53
 70
     1
102
RTVSPost2010Prop54
  1
strokes_ogs.tif
102
RTVSPost2010PropOp54
 70
     1
102
RTVSPost2010Prop55
280
     0
102
RTVSPost2010PropOp55
 70
     1
102
RTVSPost2010Prop56
140
1.0
102
RTVSPost2010PropOp56
 70
     1
102
RTVSPost2010Prop57
140
1.0
102
RTVSPost2010PropOp57
 70
     1
102
RTVSPropertyOp0
 70
     1
102
RTVSPropertyOp1
 70
     1
102
RTVSPropertyOp2
 70
     1
102
RTVSPropertyOp3
 70
     1
102
RTVSPropertyOp4
 70
     1
102
RTVSPropertyOp5
 70
     1
102
RTVSPropertyOp6
 70
     1
102
RTVSPropertyOp7
 70
     1
102
RTVSPropertyOp8
 70
     1
102
RTVSPropertyOp9
 70
     1
102
RTVSPropertyOp10
 70
     1
102
RTVSPropertyOp11
 70
     1
102
RTVSPropertyOp12
 70
     1
102
RTVSPropertyOp13
 70
     1
102
RTVSPropertyOp14
 70
     1
102
RTVSPropertyOp15
 70
     1
102
RTVSPropertyOp16
 70
     1
102
RTVSPropertyOp17
 70
     1
102
RTVSPropertyOp18
 70
     1
102
RTVSPropertyOp19
 70
     1
102
RTVSPropertyOp20
 70
     1
102
RTVSPropertyOp21
 70
     1
102
RTVSPropertyOp22
 70
     1
102
RTVSPropertyOp23
 70
     1
102
RTVSPropertyOp24
 70
     1
102
RTVSPropertyOp25
 70
     1
102
RTVSPropertyOp26
 70
     1
102
RTVSPropertyOp27
 70
     1
102
RTVSPropertyOp28
 70
     1
102
RTVSPropertyOp29
 70
     1
102
RTVSPropertyOp30
 70
     1
102
RTVSPropertyOp31
 70
     1
102
RTVSPropertyOp32
 70
     1
102
RTVSPropertyOp33
 70
     1
102
RTVSPropertyOp34
 70
     1
102
RTVSPropertyOp35
 70
     1
102
RTVSPropertyOp36
 70
     1
102
RTVSPropertyOp37
 70
     1
102
RTVSPropertyOp38
 70
     1
102
RTVSPropertyOp39
 70
     1
102
RTVSPropertyOp40
 70
     1
102
RTVSPropertyOp41
 70
     1
102
RTVSPropertyOp42
 70
     1
102
RTVSPropertyOp43
 70
     1
102
RTVSPropertyOp44
 70
     1
102
RTVSPropertyOp45
 70
     1
102
RTVSPropertyOp46
 70
     1
102
RTVSPropertyOp47
 70
     1
102
RTVSPropertyOp48
 70
     1
102
RTVSPropertyOp49
 70
     1
102
RTVSPropertyOp50
 70
     1
102
RTVSPropertyOp51
 70
     0
102
RTVSPropertyOp52
 70
     0
102
RTVSPropertyOp53
 70
     1
102
RTVSPropertyOp54
 70
     1
102
RTVSPropertyOp55
 70
     1
102
RTVSPropertyOp56
 70
     1
102
RTVSPropertyOp57
 70
     1
102
RTVSPropertyOp58
 70
     1
102
RTVSPropertyOp59
 70
     1
102
RTVSPropertyOp60
 70
     1
102
RTVSPropertyOp61
 70
     1
102
RTVSPropertyOp62
 70
     1
  0
XRECORD
  5
29F
102
{ACAD_REACTORS
330
29E
102
}
330
29E
100
AcDbXrecord
280
     1
102
RTVSPost2010Prop28
280
     0
102
RTVSPost2010PropOp28
 70
     1
102
RTVSPost2010Prop29
280
     1
102
RTVSPost2010PropOp29
 70
     1
102
RTVSPost2010Prop30
280
     1
102
RTVSPost2010PropOp30
 70
     1
102
RTVSPost2010Prop31
280
     0
102
RTVSPost2010PropOp31
 70
     1
102
RTVSPost2010Prop32
280
     0
102
RTVSPost2010PropOp32
 70
     1
102
RTVSPost2010Prop33
280
     0
102
RTVSPost2010PropOp33
 70
     1
102
RTVSPost2010Prop34
280
     0
102
RTVSPost2010PropOp34
 70
     1
102
RTVSPost2010Prop35
280
     0
102
RTVSPost2010PropOp35
 70
     1
102
RTVSPost2010Prop36
280
     0
102
RTVSPost2010PropOp36
 70
     1
102
RTVSPost2010Prop37
 90
       50
102
RTVSPost2010PropOp37
 70
     1
102
RTVSPost2010Prop38
140
0.0
102
RTVSPost2010PropOp38
 70
     1
102
RTVSPost2010Prop39
140
1.0
102
RTVSPost2010PropOp39
 70
     1
102
RTVSPost2010Prop40
 90
        0
102
RTVSPost2010PropOp40
 70
     1
102
RTVSPost2010Prop41ColorIndex
 90
       18
102
RTVSPost2010Prop41ColorRGB
 90
        0
102
RTVSPost2010PropOp41
 70
     1
102
RTVSPost2010Prop42
 90
       50
102
RTVSPost2010PropOp42
 70
     1
102
RTVSPost2010Prop43
 90
        3
102
RTVSPost2010PropOp43
 70
     1
102
RTVSPost2010Prop44ColorIndex
 90
        5
102
RTVSPost2010Prop44ColorRGB
 90
      255
102
RTVSPost2010PropOp44
 70
     1
102
RTVSPost2010Prop45
280
     0
102
RTVSPost2010PropOp45
 70
     1
102
RTVSPost2010Prop46
 90
       50
102
RTVSPost2010PropOp46
 70
     1
102
RTVSPost2010Prop47
 90
       50
102
RTVSPost2010PropOp47
 70
     1
102
RTVSPost2010Prop48
 90
       50
102
RTVSPost2010PropOp48
 70
     1
102
RTVSPost2010Prop49
280
     0
102
RTVSPost2010PropOp49
 70
     1
102
RTVSPost2010Prop50
 90
       50
102
RTVSPost2010PropOp50
 70
     1
102
RTVSPost2010Prop51ColorIndex
 90
      256
102
RTVSPost2010Prop51ColorRGB
 90
-16777216
102
RTVSPost2010PropOp51
 70
     0
102
RTVSPost2010Prop52
140
1.0
102
RTVSPost2010PropOp52
 70
     0
102
RTVSPost2010Prop53
 90
        2
102
RTVSPost2010PropOp53
 70
     1
102
RTVSPost2010Prop54
  1
strokes_ogs.tif
102
RTVSPost2010PropOp54
 70
     1
102
RTVSPost2010Prop55
280
     0
102
RTVSPost2010PropOp55
 70
     1
102
RTVSPost2010Prop56
140
1.0
102
RTVSPost2010PropOp56
 70
     1
102
RTVSPost2010Prop57
140
1.0
102
RTVSPost2010PropOp57
 70
     1
102
RTVSPropertyOp0
 70
     1
102
RTVSPropertyOp1
 70
     1
102
RTVSPropertyOp2
 70
     1
102
RTVSPropertyOp3
 70
     1
102
RTVSPropertyOp4
 70
     1
102
RTVSPropertyOp5
 70
     1
102
RTVSPropertyOp6
 70
     1
102
RTVSPropertyOp7
 70
     1
102
RTVSPropertyOp8
 70
     1
102
RTVSPropertyOp9
 70
     1
102
RTVSPropertyOp10
 70
     1
102
RTVSPropertyOp11
 70
     1
102
RTVSPropertyOp12
 70
     1
102
RTVSPropertyOp13
 70
     1
102
RTVSPropertyOp14
 70
     1
102
RTVSPropertyOp15
 70
     1
102
RTVSPropertyOp16
 70
     1
102
RTVSPropertyOp17
 70
     1
102
RTVSPropertyOp18
 70
     1
102
RTVSPropertyOp19
 70
     1
102
RTVSPropertyOp20
 70
     1
102
RTVSPropertyOp21
 70
     1
102
RTVSPropertyOp22
 70
     1
102
RTVSPropertyOp23
 70
     1
102
RTVSPropertyOp24
 70
     1
102
RTVSPropertyOp25
 70
     1
102
RTVSPropertyOp26
 70
     1
102
RTVSPropertyOp27
 70
     1
102
RTVSPropertyOp28
 70
     1
102
RTVSPropertyOp29
 70
     1
102
RTVSPropertyOp30
 70
     1
102
RTVSPropertyOp31
 70
     1
102
RTVSPropertyOp32
 70
     1
102
RTVSPropertyOp33
 70
     1
102
RTVSPropertyOp34
 70
     1
102
RTVSPropertyOp35
 70
     1
102
RTVSPropertyOp36
 70
     1
102
RTVSPropertyOp37
 70
     1
102
RTVSPropertyOp38
 70
     1
102
RTVSPropertyOp39
 70
     1
102
RTVSPropertyOp40
 70
     1
102
RTVSPropertyOp41
 70
     1
102
RTVSPropertyOp42
 70
     1
102
RTVSPropertyOp43
 70
     1
102
RTVSPropertyOp44
 70
     1
102
RTVSPropertyOp45
 70
     1
102
RTVSPropertyOp46
 70
     1
102
RTVSPropertyOp47
 70
     1
102
RTVSPropertyOp48
 70
     1
102
RTVSPropertyOp49
 70
     1
102
RTVSPropertyOp50
 70
     1
102
RTVSPropertyOp51
 70
     0
102
RTVSPropertyOp52
 70
     0
102
RTVSPropertyOp53
 70
     1
102
RTVSPropertyOp54
 70
     1
102
RTVSPropertyOp55
 70
     1
102
RTVSPropertyOp56
 70
     1
102
RTVSPropertyOp57
 70
     1
102
RTVSPropertyOp58
 70
     1
102
RTVSPropertyOp59
 70
     1
102
RTVSPropertyOp60
 70
     1
102
RTVSPropertyOp61
 70
     1
102
RTVSPropertyOp62
 70
     1
  0
XRECORD
  5
293
102
{ACAD_REACTORS
330
292
102
}
330
292
100
AcDbXrecord
280
     1
102
RTVSPost2010Prop28
280
     0
102
RTVSPost2010PropOp28
 70
     1
102
RTVSPost2010Prop29
280
     1
102
RTVSPost2010PropOp29
 70
     1
102
RTVSPost2010Prop30
280
     1
102
RTVSPost2010PropOp30
 70
     1
102
RTVSPost2010Prop31
280
     0
102
RTVSPost2010PropOp31
 70
     1
102
RTVSPost2010Prop32
280
     0
102
RTVSPost2010PropOp32
 70
     1
102
RTVSPost2010Prop33
280
     0
102
RTVSPost2010PropOp33
 70
     1
102
RTVSPost2010Prop34
280
     0
102
RTVSPost2010PropOp34
 70
     1
102
RTVSPost2010Prop35
280
     0
102
RTVSPost2010PropOp35
 70
     1
102
RTVSPost2010Prop36
280
     0
102
RTVSPost2010PropOp36
 70
     1
102
RTVSPost2010Prop37
 90
       50
102
RTVSPost2010PropOp37
 70
     1
102
RTVSPost2010Prop38
140
0.0
102
RTVSPost2010PropOp38
 70
     1
102
RTVSPost2010Prop39
140
1.0
102
RTVSPost2010PropOp39
 70
     1
102
RTVSPost2010Prop40
 90
        0
102
RTVSPost2010PropOp40
 70
     1
102
RTVSPost2010Prop41ColorIndex
 90
       18
102
RTVSPost2010Prop41ColorRGB
 90
        0
102
RTVSPost2010PropOp41
 70
     1
102
RTVSPost2010Prop42
 90
       50
102
RTVSPost2010PropOp42
 70
     1
102
RTVSPost2010Prop43
 90
        3
102
RTVSPost2010PropOp43
 70
     1
102
RTVSPost2010Prop44ColorIndex
 90
        5
102
RTVSPost2010Prop44ColorRGB
 90
      255
102
RTVSPost2010PropOp44
 70
     1
102
RTVSPost2010Prop45
280
     0
102
RTVSPost2010PropOp45
 70
     1
102
RTVSPost2010Prop46
 90
       50
102
RTVSPost2010PropOp46
 70
     1
102
RTVSPost2010Prop47
 90
       50
102
RTVSPost2010PropOp47
 70
     1
102
RTVSPost2010Prop48
 90
       50
102
RTVSPost2010PropOp48
 70
     1
102
RTVSPost2010Prop49
280
     0
102
RTVSPost2010PropOp49
 70
     1
102
RTVSPost2010Prop50
 90
       50
102
RTVSPost2010PropOp50
 70
     1
102
RTVSPost2010Prop51ColorIndex
 90
      256
102
RTVSPost2010Prop51ColorRGB
 90
-16777216
102
RTVSPost2010PropOp51
 70
     0
102
RTVSPost2010Prop52
140
1.0
102
RTVSPost2010PropOp52
 70
     0
102
RTVSPost2010Prop53
 90
        2
102
RTVSPost2010PropOp53
 70
     1
102
RTVSPost2010Prop54
  1
strokes_ogs.tif
102
RTVSPost2010PropOp54
 70
     1
102
RTVSPost2010Prop55
280
     0
102
RTVSPost2010PropOp55
 70
     1
102
RTVSPost2010Prop56
140
1.0
102
RTVSPost2010PropOp56
 70
     1
102
RTVSPost2010Prop57
140
1.0
102
RTVSPost2010PropOp57
 70
     1
102
RTVSPropertyOp0
 70
     1
102
RTVSPropertyOp1
 70
     1
102
RTVSPropertyOp2
 70
     1
102
RTVSPropertyOp3
 70
     1
102
RTVSPropertyOp4
 70
     1
102
RTVSPropertyOp5
 70
     1
102
RTVSPropertyOp6
 70
     1
102
RTVSPropertyOp7
 70
     1
102
RTVSPropertyOp8
 70
     1
102
RTVSPropertyOp9
 70
     1
102
RTVSPropertyOp10
 70
     1
102
RTVSPropertyOp11
 70
     1
102
RTVSPropertyOp12
 70
     1
102
RTVSPropertyOp13
 70
     1
102
RTVSPropertyOp14
 70
     1
102
RTVSPropertyOp15
 70
     1
102
RTVSPropertyOp16
 70
     1
102
RTVSPropertyOp17
 70
     1
102
RTVSPropertyOp18
 70
     1
102
RTVSPropertyOp19
 70
     1
102
RTVSPropertyOp20
 70
     1
102
RTVSPropertyOp21
 70
     1
102
RTVSPropertyOp22
 70
     1
102
RTVSPropertyOp23
 70
     1
102
RTVSPropertyOp24
 70
     1
102
RTVSPropertyOp25
 70
     1
102
RTVSPropertyOp26
 70
     1
102
RTVSPropertyOp27
 70
     1
102
RTVSPropertyOp28
 70
     1
102
RTVSPropertyOp29
 70
     1
102
RTVSPropertyOp30
 70
     1
102
RTVSPropertyOp31
 70
     1
102
RTVSPropertyOp32
 70
     1
102
RTVSPropertyOp33
 70
     1
102
RTVSPropertyOp34
 70
     1
102
RTVSPropertyOp35
 70
     1
102
RTVSPropertyOp36
 70
     1
102
RTVSPropertyOp37
 70
     1
102
RTVSPropertyOp38
 70
     1
102
RTVSPropertyOp39
 70
     1
102
RTVSPropertyOp40
 70
     1
102
RTVSPropertyOp41
 70
     1
102
RTVSPropertyOp42
 70
     1
102
RTVSPropertyOp43
 70
     1
102
RTVSPropertyOp44
 70
     1
102
RTVSPropertyOp45
 70
     1
102
RTVSPropertyOp46
 70
     1
102
RTVSPropertyOp47
 70
     1
102
RTVSPropertyOp48
 70
     1
102
RTVSPropertyOp49
 70
     1
102
RTVSPropertyOp50
 70
     1
102
RTVSPropertyOp51
 70
     0
102
RTVSPropertyOp52
 70
     0
102
RTVSPropertyOp53
 70
     1
102
RTVSPropertyOp54
 70
     1
102
RTVSPropertyOp55
 70
     1
102
RTVSPropertyOp56
 70
     1
102
RTVSPropertyOp57
 70
     1
102
RTVSPropertyOp58
 70
     1
102
RTVSPropertyOp59
 70
     1
102
RTVSPropertyOp60
 70
     1
102
RTVSPropertyOp61
 70
     1
102
RTVSPropertyOp62
 70
     1
  0
XRECORD
  5
2B1
102
{ACAD_REACTORS
330
2B0
102
}
330
2B0
100
AcDbXrecord
280
     1
102
RTVSPost2010Prop28
280
     0
102
RTVSPost2010PropOp28
 70
     1
102
RTVSPost2010Prop29
280
     1
102
RTVSPost2010PropOp29
 70
     1
102
RTVSPost2010Prop30
280
     1
102
RTVSPost2010PropOp30
 70
     1
102
RTVSPost2010Prop31
280
     0
102
RTVSPost2010PropOp31
 70
     1
102
RTVSPost2010Prop32
280
     0
102
RTVSPost2010PropOp32
 70
     1
102
RTVSPost2010Prop33
280
     0
102
RTVSPost2010PropOp33
 70
     1
102
RTVSPost2010Prop34
280
     0
102
RTVSPost2010PropOp34
 70
     1
102
RTVSPost2010Prop35
280
     0
102
RTVSPost2010PropOp35
 70
     1
102
RTVSPost2010Prop36
280
     0
102
RTVSPost2010PropOp36
 70
     1
102
RTVSPost2010Prop37
 90
       50
102
RTVSPost2010PropOp37
 70
     1
102
RTVSPost2010Prop38
140
0.0
102
RTVSPost2010PropOp38
 70
     1
102
RTVSPost2010Prop39
140
1.0
102
RTVSPost2010PropOp39
 70
     1
102
RTVSPost2010Prop40
 90
        0
102
RTVSPost2010PropOp40
 70
     1
102
RTVSPost2010Prop41ColorIndex
 90
       18
102
RTVSPost2010Prop41ColorRGB
 90
        0
102
RTVSPost2010PropOp41
 70
     1
102
RTVSPost2010Prop42
 90
       50
102
RTVSPost2010PropOp42
 70
     1
102
RTVSPost2010Prop43
 90
        3
102
RTVSPost2010PropOp43
 70
     1
102
RTVSPost2010Prop44ColorIndex
 90
        5
102
RTVSPost2010Prop44ColorRGB
 90
      255
102
RTVSPost2010PropOp44
 70
     1
102
RTVSPost2010Prop45
280
     0
102
RTVSPost2010PropOp45
 70
     1
102
RTVSPost2010Prop46
 90
       50
102
RTVSPost2010PropOp46
 70
     1
102
RTVSPost2010Prop47
 90
       50
102
RTVSPost2010PropOp47
 70
     1
102
RTVSPost2010Prop48
 90
       50
102
RTVSPost2010PropOp48
 70
     1
102
RTVSPost2010Prop49
280
     0
102
RTVSPost2010PropOp49
 70
     1
102
RTVSPost2010Prop50
 90
       50
102
RTVSPost2010PropOp50
 70
     1
102
RTVSPost2010Prop51ColorIndex
 90
      256
102
RTVSPost2010Prop51ColorRGB
 90
-16777216
102
RTVSPost2010PropOp51
 70
     0
102
RTVSPost2010Prop52
140
1.0
102
RTVSPost2010PropOp52
 70
     0
102
RTVSPost2010Prop53
 90
        2
102
RTVSPost2010PropOp53
 70
     1
102
RTVSPost2010Prop54
  1
strokes_ogs.tif
102
RTVSPost2010PropOp54
 70
     1
102
RTVSPost2010Prop55
280
     0
102
RTVSPost2010PropOp55
 70
     1
102
RTVSPost2010Prop56
140
1.0
102
RTVSPost2010PropOp56
 70
     1
102
RTVSPost2010Prop57
140
1.0
102
RTVSPost2010PropOp57
 70
     1
102
RTVSPropertyOp0
 70
     1
102
RTVSPropertyOp1
 70
     1
102
RTVSPropertyOp2
 70
     1
102
RTVSPropertyOp3
 70
     1
102
RTVSPropertyOp4
 70
     1
102
RTVSPropertyOp5
 70
     1
102
RTVSPropertyOp6
 70
     1
102
RTVSPropertyOp7
 70
     1
102
RTVSPropertyOp8
 70
     1
102
RTVSPropertyOp9
 70
     1
102
RTVSPropertyOp10
 70
     1
102
RTVSPropertyOp11
 70
     1
102
RTVSPropertyOp12
 70
     1
102
RTVSPropertyOp13
 70
     1
102
RTVSPropertyOp14
 70
     1
102
RTVSPropertyOp15
 70
     1
102
RTVSPropertyOp16
 70
     1
102
RTVSPropertyOp17
 70
     1
102
RTVSPropertyOp18
 70
     1
102
RTVSPropertyOp19
 70
     1
102
RTVSPropertyOp20
 70
     1
102
RTVSPropertyOp21
 70
     1
102
RTVSPropertyOp22
 70
     1
102
RTVSPropertyOp23
 70
     1
102
RTVSPropertyOp24
 70
     1
102
RTVSPropertyOp25
 70
     1
102
RTVSPropertyOp26
 70
     1
102
RTVSPropertyOp27
 70
     1
102
RTVSPropertyOp28
 70
     1
102
RTVSPropertyOp29
 70
     1
102
RTVSPropertyOp30
 70
     1
102
RTVSPropertyOp31
 70
     1
102
RTVSPropertyOp32
 70
     1
102
RTVSPropertyOp33
 70
     1
102
RTVSPropertyOp34
 70
     1
102
RTVSPropertyOp35
 70
     1
102
RTVSPropertyOp36
 70
     1
102
RTVSPropertyOp37
 70
     1
102
RTVSPropertyOp38
 70
     1
102
RTVSPropertyOp39
 70
     1
102
RTVSPropertyOp40
 70
     1
102
RTVSPropertyOp41
 70
     1
102
RTVSPropertyOp42
 70
     1
102
RTVSPropertyOp43
 70
     1
102
RTVSPropertyOp44
 70
     1
102
RTVSPropertyOp45
 70
     1
102
RTVSPropertyOp46
 70
     1
102
RTVSPropertyOp47
 70
     1
102
RTVSPropertyOp48
 70
     1
102
RTVSPropertyOp49
 70
     1
102
RTVSPropertyOp50
 70
     1
102
RTVSPropertyOp51
 70
     0
102
RTVSPropertyOp52
 70
     0
102
RTVSPropertyOp53
 70
     1
102
RTVSPropertyOp54
 70
     1
102
RTVSPropertyOp55
 70
     1
102
RTVSPropertyOp56
 70
     1
102
RTVSPropertyOp57
 70
     1
102
RTVSPropertyOp58
 70
     1
102
RTVSPropertyOp59
 70
     1
102
RTVSPropertyOp60
 70
     1
102
RTVSPropertyOp61
 70
     1
102
RTVSPropertyOp62
 70
     1
  0
ENDSEC
  0
EOF
